ISO-10303-21;
HEADER;
/* Generated by software containing ST-Developer
 * from STEP Tools, Inc. (www.steptools.com) 
 */

FILE_DESCRIPTION(
/* description */ (''),
/* implementation_level */ '2;1');

FILE_NAME(
/* name */ 'C:/Users/DFQC7241/Documents/Enceinte pour four.stp',
/* time_stamp */ '2022-08-26T10:32:36+02:00',
/* author */ (''),
/* organization */ (''),
/* preprocessor_version */ 'ST-DEVELOPER v15.2',
/* originating_system */ 'Autodesk Translator Framework v2.0.0.5431',
/* authorisation */ '');

FILE_SCHEMA (('AUTOMOTIVE_DESIGN { 1 0 10303 214 3 1 1 }'));
ENDSEC;

DATA;
#10=SHAPE_REPRESENTATION_RELATIONSHIP('SRR','None',#438,#11);
#11=ADVANCED_BREP_SHAPE_REPRESENTATION($,(#274),#432);
#12=STYLED_ITEM($,(#446),#274);
#13=FACE_OUTER_BOUND($,#27,.T.);
#14=FACE_OUTER_BOUND($,#28,.T.);
#15=FACE_OUTER_BOUND($,#29,.T.);
#16=FACE_OUTER_BOUND($,#30,.T.);
#17=FACE_OUTER_BOUND($,#31,.T.);
#18=FACE_OUTER_BOUND($,#32,.T.);
#19=FACE_OUTER_BOUND($,#33,.T.);
#20=FACE_OUTER_BOUND($,#34,.T.);
#21=FACE_OUTER_BOUND($,#35,.T.);
#22=FACE_OUTER_BOUND($,#36,.T.);
#23=FACE_OUTER_BOUND($,#37,.T.);
#24=FACE_OUTER_BOUND($,#38,.T.);
#25=FACE_OUTER_BOUND($,#39,.T.);
#26=FACE_OUTER_BOUND($,#40,.T.);
#27=EDGE_LOOP($,(#173,#174,#175,#176));
#28=EDGE_LOOP($,(#177,#178,#179,#180));
#29=EDGE_LOOP($,(#181,#182,#183,#184));
#30=EDGE_LOOP($,(#185,#186,#187,#188,#189,#190,#191,#192));
#31=EDGE_LOOP($,(#193,#194,#195,#196));
#32=EDGE_LOOP($,(#197,#198,#199,#200));
#33=EDGE_LOOP($,(#201,#202,#203,#204,#205,#206,#207));
#34=EDGE_LOOP($,(#208,#209,#210,#211,#212,#213,#214));
#35=EDGE_LOOP($,(#215,#216,#217,#218,#219,#220,#221,#222));
#36=EDGE_LOOP($,(#223,#224,#225,#226));
#37=EDGE_LOOP($,(#227,#228,#229,#230));
#38=EDGE_LOOP($,(#231,#232,#233,#234));
#39=EDGE_LOOP($,(#235,#236,#237,#238,#239));
#40=EDGE_LOOP($,(#240,#241,#242,#243,#244));
#41=LINE($,#360,#77);
#42=LINE($,#362,#78);
#43=LINE($,#364,#79);
#44=LINE($,#365,#80);
#45=LINE($,#368,#81);
#46=LINE($,#370,#82);
#47=LINE($,#371,#83);
#48=LINE($,#375,#84);
#49=LINE($,#377,#85);
#50=LINE($,#379,#86);
#51=LINE($,#380,#87);
#52=LINE($,#382,#88);
#53=LINE($,#384,#89);
#54=LINE($,#386,#90);
#55=LINE($,#388,#91);
#56=LINE($,#390,#92);
#57=LINE($,#391,#93);
#58=LINE($,#394,#94);
#59=LINE($,#396,#95);
#60=LINE($,#397,#96);
#61=LINE($,#400,#97);
#62=LINE($,#402,#98);
#63=LINE($,#403,#99);
#64=LINE($,#406,#100);
#65=LINE($,#407,#101);
#66=LINE($,#409,#102);
#67=LINE($,#412,#103);
#68=LINE($,#414,#104);
#69=LINE($,#416,#105);
#70=LINE($,#417,#106);
#71=LINE($,#419,#107);
#72=LINE($,#422,#108);
#73=LINE($,#424,#109);
#74=LINE($,#425,#110);
#75=LINE($,#427,#111);
#76=LINE($,#428,#112);
#77=VECTOR($,#294,54.84);
#78=VECTOR($,#295,0.0799999982118607);
#79=VECTOR($,#296,54.84);
#80=VECTOR($,#297,0.0799999982118607);
#81=VECTOR($,#300,42.9609533416078);
#82=VECTOR($,#301,54.84);
#83=VECTOR($,#302,42.9609533416078);
#84=VECTOR($,#305,54.5);
#85=VECTOR($,#306,0.08);
#86=VECTOR($,#307,54.5);
#87=VECTOR($,#308,0.08);
#88=VECTOR($,#311,2.5);
#89=VECTOR($,#312,2.5);
#90=VECTOR($,#313,0.0800000000000054);
#91=VECTOR($,#314,45.5);
#92=VECTOR($,#315,55.);
#93=VECTOR($,#316,45.5);
#94=VECTOR($,#319,27.0784135938726);
#95=VECTOR($,#320,54.84);
#96=VECTOR($,#321,27.0784135938726);
#97=VECTOR($,#324,33.0724791323597);
#98=VECTOR($,#325,54.84);
#99=VECTOR($,#326,33.0724791323597);
#100=VECTOR($,#329,62.12);
#101=VECTOR($,#330,54.5);
#102=VECTOR($,#333,62.12);
#103=VECTOR($,#336,62.2);
#104=VECTOR($,#337,55.);
#105=VECTOR($,#338,62.2);
#106=VECTOR($,#339,0.0799999999999983);
#107=VECTOR($,#342,54.5);
#108=VECTOR($,#345,27.144981119905);
#109=VECTOR($,#346,27.144981119905);
#110=VECTOR($,#347,55.);
#111=VECTOR($,#350,33.1);
#112=VECTOR($,#351,33.1);
#113=VERTEX_POINT($,#358);
#114=VERTEX_POINT($,#359);
#115=VERTEX_POINT($,#361);
#116=VERTEX_POINT($,#363);
#117=VERTEX_POINT($,#367);
#118=VERTEX_POINT($,#369);
#119=VERTEX_POINT($,#373);
#120=VERTEX_POINT($,#374);
#121=VERTEX_POINT($,#376);
#122=VERTEX_POINT($,#378);
#123=VERTEX_POINT($,#383);
#124=VERTEX_POINT($,#385);
#125=VERTEX_POINT($,#387);
#126=VERTEX_POINT($,#389);
#127=VERTEX_POINT($,#393);
#128=VERTEX_POINT($,#395);
#129=VERTEX_POINT($,#399);
#130=VERTEX_POINT($,#401);
#131=VERTEX_POINT($,#405);
#132=VERTEX_POINT($,#411);
#133=VERTEX_POINT($,#413);
#134=VERTEX_POINT($,#415);
#135=VERTEX_POINT($,#421);
#136=VERTEX_POINT($,#423);
#137=EDGE_CURVE($,#113,#114,#41,.T.);
#138=EDGE_CURVE($,#115,#113,#42,.T.);
#139=EDGE_CURVE($,#116,#115,#43,.T.);
#140=EDGE_CURVE($,#116,#114,#44,.T.);
#141=EDGE_CURVE($,#115,#117,#45,.T.);
#142=EDGE_CURVE($,#117,#118,#46,.F.);
#143=EDGE_CURVE($,#118,#116,#47,.F.);
#144=EDGE_CURVE($,#119,#120,#48,.T.);
#145=EDGE_CURVE($,#121,#120,#49,.T.);
#146=EDGE_CURVE($,#122,#121,#50,.T.);
#147=EDGE_CURVE($,#122,#119,#51,.T.);
#148=EDGE_CURVE($,#120,#113,#52,.T.);
#149=EDGE_CURVE($,#114,#123,#53,.T.);
#150=EDGE_CURVE($,#123,#124,#54,.T.);
#151=EDGE_CURVE($,#125,#124,#55,.T.);
#152=EDGE_CURVE($,#126,#125,#56,.T.);
#153=EDGE_CURVE($,#121,#126,#57,.T.);
#154=EDGE_CURVE($,#127,#117,#58,.F.);
#155=EDGE_CURVE($,#127,#128,#59,.F.);
#156=EDGE_CURVE($,#128,#118,#60,.F.);
#157=EDGE_CURVE($,#129,#127,#61,.F.);
#158=EDGE_CURVE($,#130,#129,#62,.T.);
#159=EDGE_CURVE($,#130,#128,#63,.F.);
#160=EDGE_CURVE($,#131,#130,#64,.T.);
#161=EDGE_CURVE($,#123,#131,#65,.T.);
#162=EDGE_CURVE($,#129,#119,#66,.T.);
#163=EDGE_CURVE($,#132,#122,#67,.T.);
#164=EDGE_CURVE($,#132,#133,#68,.T.);
#165=EDGE_CURVE($,#134,#133,#69,.T.);
#166=EDGE_CURVE($,#131,#134,#70,.T.);
#167=EDGE_CURVE($,#124,#134,#71,.T.);
#168=EDGE_CURVE($,#135,#126,#72,.T.);
#169=EDGE_CURVE($,#136,#125,#73,.T.);
#170=EDGE_CURVE($,#135,#136,#74,.T.);
#171=EDGE_CURVE($,#132,#135,#75,.T.);
#172=EDGE_CURVE($,#133,#136,#76,.T.);
#173=ORIENTED_EDGE($,*,*,#137,.F.);
#174=ORIENTED_EDGE($,*,*,#138,.F.);
#175=ORIENTED_EDGE($,*,*,#139,.F.);
#176=ORIENTED_EDGE($,*,*,#140,.T.);
#177=ORIENTED_EDGE($,*,*,#139,.T.);
#178=ORIENTED_EDGE($,*,*,#141,.T.);
#179=ORIENTED_EDGE($,*,*,#142,.T.);
#180=ORIENTED_EDGE($,*,*,#143,.T.);
#181=ORIENTED_EDGE($,*,*,#144,.T.);
#182=ORIENTED_EDGE($,*,*,#145,.F.);
#183=ORIENTED_EDGE($,*,*,#146,.F.);
#184=ORIENTED_EDGE($,*,*,#147,.T.);
#185=ORIENTED_EDGE($,*,*,#148,.T.);
#186=ORIENTED_EDGE($,*,*,#137,.T.);
#187=ORIENTED_EDGE($,*,*,#149,.T.);
#188=ORIENTED_EDGE($,*,*,#150,.T.);
#189=ORIENTED_EDGE($,*,*,#151,.F.);
#190=ORIENTED_EDGE($,*,*,#152,.F.);
#191=ORIENTED_EDGE($,*,*,#153,.F.);
#192=ORIENTED_EDGE($,*,*,#145,.T.);
#193=ORIENTED_EDGE($,*,*,#154,.F.);
#194=ORIENTED_EDGE($,*,*,#155,.T.);
#195=ORIENTED_EDGE($,*,*,#156,.T.);
#196=ORIENTED_EDGE($,*,*,#142,.F.);
#197=ORIENTED_EDGE($,*,*,#157,.F.);
#198=ORIENTED_EDGE($,*,*,#158,.F.);
#199=ORIENTED_EDGE($,*,*,#159,.T.);
#200=ORIENTED_EDGE($,*,*,#155,.F.);
#201=ORIENTED_EDGE($,*,*,#159,.F.);
#202=ORIENTED_EDGE($,*,*,#160,.F.);
#203=ORIENTED_EDGE($,*,*,#161,.F.);
#204=ORIENTED_EDGE($,*,*,#149,.F.);
#205=ORIENTED_EDGE($,*,*,#140,.F.);
#206=ORIENTED_EDGE($,*,*,#143,.F.);
#207=ORIENTED_EDGE($,*,*,#156,.F.);
#208=ORIENTED_EDGE($,*,*,#157,.T.);
#209=ORIENTED_EDGE($,*,*,#154,.T.);
#210=ORIENTED_EDGE($,*,*,#141,.F.);
#211=ORIENTED_EDGE($,*,*,#138,.T.);
#212=ORIENTED_EDGE($,*,*,#148,.F.);
#213=ORIENTED_EDGE($,*,*,#144,.F.);
#214=ORIENTED_EDGE($,*,*,#162,.F.);
#215=ORIENTED_EDGE($,*,*,#160,.T.);
#216=ORIENTED_EDGE($,*,*,#158,.T.);
#217=ORIENTED_EDGE($,*,*,#162,.T.);
#218=ORIENTED_EDGE($,*,*,#147,.F.);
#219=ORIENTED_EDGE($,*,*,#163,.F.);
#220=ORIENTED_EDGE($,*,*,#164,.T.);
#221=ORIENTED_EDGE($,*,*,#165,.F.);
#222=ORIENTED_EDGE($,*,*,#166,.F.);
#223=ORIENTED_EDGE($,*,*,#161,.T.);
#224=ORIENTED_EDGE($,*,*,#166,.T.);
#225=ORIENTED_EDGE($,*,*,#167,.F.);
#226=ORIENTED_EDGE($,*,*,#150,.F.);
#227=ORIENTED_EDGE($,*,*,#168,.T.);
#228=ORIENTED_EDGE($,*,*,#152,.T.);
#229=ORIENTED_EDGE($,*,*,#169,.F.);
#230=ORIENTED_EDGE($,*,*,#170,.F.);
#231=ORIENTED_EDGE($,*,*,#171,.T.);
#232=ORIENTED_EDGE($,*,*,#170,.T.);
#233=ORIENTED_EDGE($,*,*,#172,.F.);
#234=ORIENTED_EDGE($,*,*,#164,.F.);
#235=ORIENTED_EDGE($,*,*,#172,.T.);
#236=ORIENTED_EDGE($,*,*,#169,.T.);
#237=ORIENTED_EDGE($,*,*,#151,.T.);
#238=ORIENTED_EDGE($,*,*,#167,.T.);
#239=ORIENTED_EDGE($,*,*,#165,.T.);
#240=ORIENTED_EDGE($,*,*,#171,.F.);
#241=ORIENTED_EDGE($,*,*,#163,.T.);
#242=ORIENTED_EDGE($,*,*,#146,.T.);
#243=ORIENTED_EDGE($,*,*,#153,.T.);
#244=ORIENTED_EDGE($,*,*,#168,.F.);
#245=PLANE($,#276);
#246=PLANE($,#277);
#247=PLANE($,#278);
#248=PLANE($,#279);
#249=PLANE($,#280);
#250=PLANE($,#281);
#251=PLANE($,#282);
#252=PLANE($,#283);
#253=PLANE($,#284);
#254=PLANE($,#285);
#255=PLANE($,#286);
#256=PLANE($,#287);
#257=PLANE($,#288);
#258=PLANE($,#289);
#259=ADVANCED_FACE($,(#13),#245,.F.);
#260=ADVANCED_FACE($,(#14),#246,.F.);
#261=ADVANCED_FACE($,(#15),#247,.T.);
#262=ADVANCED_FACE($,(#16),#248,.T.);
#263=ADVANCED_FACE($,(#17),#249,.F.);
#264=ADVANCED_FACE($,(#18),#250,.F.);
#265=ADVANCED_FACE($,(#19),#251,.F.);
#266=ADVANCED_FACE($,(#20),#252,.T.);
#267=ADVANCED_FACE($,(#21),#253,.T.);
#268=ADVANCED_FACE($,(#22),#254,.T.);
#269=ADVANCED_FACE($,(#23),#255,.T.);
#270=ADVANCED_FACE($,(#24),#256,.T.);
#271=ADVANCED_FACE($,(#25),#257,.T.);
#272=ADVANCED_FACE($,(#26),#258,.F.);
#273=CLOSED_SHELL($,(#259,#260,#261,#262,#263,#264,#265,#266,#267,#268,
#269,#270,#271,#272));
#274=MANIFOLD_SOLID_BREP('ASM Body',#273);
#275=AXIS2_PLACEMENT_3D('placement',#356,#290,#291);
#276=AXIS2_PLACEMENT_3D($,#357,#292,#293);
#277=AXIS2_PLACEMENT_3D($,#366,#298,#299);
#278=AXIS2_PLACEMENT_3D($,#372,#303,#304);
#279=AXIS2_PLACEMENT_3D($,#381,#309,#310);
#280=AXIS2_PLACEMENT_3D($,#392,#317,#318);
#281=AXIS2_PLACEMENT_3D($,#398,#322,#323);
#282=AXIS2_PLACEMENT_3D($,#404,#327,#328);
#283=AXIS2_PLACEMENT_3D($,#408,#331,#332);
#284=AXIS2_PLACEMENT_3D($,#410,#334,#335);
#285=AXIS2_PLACEMENT_3D($,#418,#340,#341);
#286=AXIS2_PLACEMENT_3D($,#420,#343,#344);
#287=AXIS2_PLACEMENT_3D($,#426,#348,#349);
#288=AXIS2_PLACEMENT_3D($,#429,#352,#353);
#289=AXIS2_PLACEMENT_3D($,#430,#354,#355);
#290=DIRECTION('axis',(0.,0.,1.));
#291=DIRECTION('refdir',(1.,0.,0.));
#292=DIRECTION('center_axis',(0.,-1.,0.));
#293=DIRECTION('ref_axis',(0.,0.,-1.));
#294=DIRECTION($,(0.,0.,1.));
#295=DIRECTION($,(1.,0.,0.));
#296=DIRECTION($,(0.,0.,-1.));
#297=DIRECTION($,(1.,0.,0.));
#298=DIRECTION('center_axis',(1.,0.,0.));
#299=DIRECTION('ref_axis',(0.,1.,0.));
#300=DIRECTION($,(0.,-1.,0.));
#301=DIRECTION($,(0.,0.,-1.));
#302=DIRECTION($,(0.,-1.,0.));
#303=DIRECTION('center_axis',(0.,1.,0.));
#304=DIRECTION('ref_axis',(-1.,0.,0.));
#305=DIRECTION($,(1.,0.,0.));
#306=DIRECTION($,(0.,0.,1.));
#307=DIRECTION($,(1.,0.,0.));
#308=DIRECTION($,(0.,0.,1.));
#309=DIRECTION('center_axis',(1.,0.,0.));
#310=DIRECTION('ref_axis',(0.,1.,0.));
#311=DIRECTION($,(0.,-1.,0.));
#312=DIRECTION($,(0.,1.,0.));
#313=DIRECTION($,(0.,0.,1.));
#314=DIRECTION($,(0.,1.,0.));
#315=DIRECTION($,(0.,0.,1.));
#316=DIRECTION($,(0.,-1.,0.));
#317=DIRECTION('center_axis',(0.615215016220959,-0.788359362103505,0.));
#318=DIRECTION('ref_axis',(0.788359362103505,0.615215016220959,0.));
#319=DIRECTION($,(-0.788359362103505,-0.615215016220959,0.));
#320=DIRECTION($,(0.,0.,-1.));
#321=DIRECTION($,(-0.788359362103505,-0.615215016220959,0.));
#322=DIRECTION('center_axis',(0.,-1.,0.));
#323=DIRECTION('ref_axis',(1.,0.,0.));
#324=DIRECTION($,(-1.,0.,0.));
#325=DIRECTION($,(0.,0.,-1.));
#326=DIRECTION($,(-1.,0.,0.));
#327=DIRECTION('center_axis',(0.,0.,1.));
#328=DIRECTION('ref_axis',(1.,0.,0.));
#329=DIRECTION($,(0.,-1.,0.));
#330=DIRECTION($,(-1.,0.,0.));
#331=DIRECTION('center_axis',(0.,0.,1.));
#332=DIRECTION('ref_axis',(1.,0.,0.));
#333=DIRECTION($,(0.,1.,0.));
#334=DIRECTION('center_axis',(-1.,0.,0.));
#335=DIRECTION('ref_axis',(0.,-1.,0.));
#336=DIRECTION($,(0.,1.,0.));
#337=DIRECTION($,(0.,0.,1.));
#338=DIRECTION($,(0.,-1.,0.));
#339=DIRECTION($,(0.,0.,1.));
#340=DIRECTION('center_axis',(0.,1.,0.));
#341=DIRECTION('ref_axis',(-1.,0.,0.));
#342=DIRECTION($,(-1.,0.,0.));
#343=DIRECTION('center_axis',(0.615215016220959,-0.788359362103505,0.));
#344=DIRECTION('ref_axis',(0.788359362103505,0.615215016220959,0.));
#345=DIRECTION($,(0.788359362103505,0.615215016220959,0.));
#346=DIRECTION($,(0.788359362103505,0.615215016220959,0.));
#347=DIRECTION($,(0.,0.,1.));
#348=DIRECTION('center_axis',(0.,-1.,0.));
#349=DIRECTION('ref_axis',(1.,0.,0.));
#350=DIRECTION($,(1.,0.,0.));
#351=DIRECTION($,(1.,0.,0.));
#352=DIRECTION('center_axis',(0.,0.,1.));
#353=DIRECTION('ref_axis',(1.,0.,0.));
#354=DIRECTION('center_axis',(0.,0.,1.));
#355=DIRECTION('ref_axis',(1.,0.,0.));
#356=CARTESIAN_POINT('',(0.,0.,0.));
#357=CARTESIAN_POINT('Origin',(-0.0799999982118607,59.7,54.92));
#358=CARTESIAN_POINT('',(0.,59.7,0.0799999999999983));
#359=CARTESIAN_POINT('',(0.,59.7,54.92));
#360=CARTESIAN_POINT($,(0.,59.7,27.46));
#361=CARTESIAN_POINT('',(-0.0799999982118607,59.7,0.0799999999999983));
#362=CARTESIAN_POINT($,(-0.0799999982118607,59.7,0.0799999999999983));
#363=CARTESIAN_POINT('',(-0.0799999982118607,59.7,54.92));
#364=CARTESIAN_POINT($,(-0.08,59.7,27.46));
#365=CARTESIAN_POINT($,(-0.0799999982118607,59.7,54.92));
#366=CARTESIAN_POINT('Origin',(-0.08,16.7,0.));
#367=CARTESIAN_POINT('',(-0.0799999999999989,16.7390466583922,0.08));
#368=CARTESIAN_POINT($,(-0.0799999999999983,23.9,0.08));
#369=CARTESIAN_POINT('',(-0.0799999999999989,16.7390466583922,54.92));
#370=CARTESIAN_POINT($,(-0.0799999999999983,16.7390466583922,0.));
#371=CARTESIAN_POINT($,(-0.0799999999999983,23.9,54.92));
#372=CARTESIAN_POINT('Origin',(0.,62.2,0.));
#373=CARTESIAN_POINT('',(-54.5,62.2,0.08));
#374=CARTESIAN_POINT('',(0.,62.2,0.08));
#375=CARTESIAN_POINT($,(-0.0399999991059303,62.2,0.08));
#376=CARTESIAN_POINT('',(0.,62.2,0.));
#377=CARTESIAN_POINT($,(0.,62.2,0.));
#378=CARTESIAN_POINT('',(-54.5,62.2,0.));
#379=CARTESIAN_POINT($,(-54.5,62.2,0.));
#380=CARTESIAN_POINT($,(-54.5,62.2,0.));
#381=CARTESIAN_POINT('Origin',(0.,16.7,0.));
#382=CARTESIAN_POINT($,(0.,38.2,0.08));
#383=CARTESIAN_POINT('',(0.,62.2,54.92));
#384=CARTESIAN_POINT($,(0.,39.45,54.92));
#385=CARTESIAN_POINT('',(0.,62.2,55.));
#386=CARTESIAN_POINT($,(0.,62.2,0.));
#387=CARTESIAN_POINT('',(0.,16.7,55.));
#388=CARTESIAN_POINT($,(0.,62.2,55.));
#389=CARTESIAN_POINT('',(0.,16.7,0.));
#390=CARTESIAN_POINT($,(0.,16.7,0.));
#391=CARTESIAN_POINT($,(0.,62.2,0.));
#392=CARTESIAN_POINT('Origin',(-21.4492172012977,0.0630687489682804,0.));
#393=CARTESIAN_POINT('',(-21.4275208676403,0.0799999999999994,0.08));
#394=CARTESIAN_POINT($,(-15.7252218155339,4.52992496122315,0.08));
#395=CARTESIAN_POINT('',(-21.4275208676403,0.0799999999999994,54.92));
#396=CARTESIAN_POINT($,(-21.4275208676403,0.0799999999999992,0.));
#397=CARTESIAN_POINT($,(-15.7252218155339,4.52992496122315,54.92));
#398=CARTESIAN_POINT('Origin',(-54.5,0.08,0.));
#399=CARTESIAN_POINT('',(-54.5,0.0799999999999989,0.08));
#400=CARTESIAN_POINT($,(-40.875,0.0799999999999983,0.08));
#401=CARTESIAN_POINT('',(-54.5,0.0799999999999989,54.92));
#402=CARTESIAN_POINT($,(-54.5,0.0799999999999983,0.));
#403=CARTESIAN_POINT($,(-40.875,0.0799999999999983,54.92));
#404=CARTESIAN_POINT('Origin',(-27.25,31.1,54.92));
#405=CARTESIAN_POINT('',(-54.5,62.2,54.92));
#406=CARTESIAN_POINT($,(-54.5,46.65,54.92));
#407=CARTESIAN_POINT($,(-0.0399999991059303,62.2,54.92));
#408=CARTESIAN_POINT('Origin',(-27.25,31.1,0.08));
#409=CARTESIAN_POINT($,(-54.5,46.65,0.08));
#410=CARTESIAN_POINT('Origin',(-54.5,62.2,0.));
#411=CARTESIAN_POINT('',(-54.5,0.,0.));
#412=CARTESIAN_POINT($,(-54.5,0.,0.));
#413=CARTESIAN_POINT('',(-54.5,0.,55.));
#414=CARTESIAN_POINT($,(-54.5,0.,0.));
#415=CARTESIAN_POINT('',(-54.5,62.2,55.));
#416=CARTESIAN_POINT($,(-54.5,0.,55.));
#417=CARTESIAN_POINT($,(-54.5,62.2,0.));
#418=CARTESIAN_POINT('Origin',(0.,62.2,0.));
#419=CARTESIAN_POINT($,(-54.5,62.2,55.));
#420=CARTESIAN_POINT('Origin',(-21.4,0.,0.));
#421=CARTESIAN_POINT('',(-21.4,0.,0.));
#422=CARTESIAN_POINT($,(-21.4,0.,0.));
#423=CARTESIAN_POINT('',(-21.4,0.,55.));
#424=CARTESIAN_POINT($,(-21.4,0.,55.));
#425=CARTESIAN_POINT($,(-21.4,0.,0.));
#426=CARTESIAN_POINT('Origin',(-54.5,0.,0.));
#427=CARTESIAN_POINT($,(-54.5,0.,0.));
#428=CARTESIAN_POINT($,(-54.5,0.,55.));
#429=CARTESIAN_POINT('Origin',(-27.25,31.1,55.));
#430=CARTESIAN_POINT('Origin',(-27.25,31.1,0.));
#431=UNCERTAINTY_MEASURE_WITH_UNIT(LENGTH_MEASURE(0.001),#433,
'DISTANCE_ACCURACY_VALUE',
'Maximum model space distance between geometric entities at asserted c
onnectivities');
#432=(
GEOMETRIC_REPRESENTATION_CONTEXT(3)
GLOBAL_UNCERTAINTY_ASSIGNED_CONTEXT((#431))
GLOBAL_UNIT_ASSIGNED_CONTEXT((#433,#435,#434))
REPRESENTATION_CONTEXT('','3D')
);
#433=(
LENGTH_UNIT()
NAMED_UNIT(*)
SI_UNIT(.CENTI.,.METRE.)
);
#434=(
NAMED_UNIT(*)
SI_UNIT($,.STERADIAN.)
SOLID_ANGLE_UNIT()
);
#435=(
NAMED_UNIT(*)
PLANE_ANGLE_UNIT()
SI_UNIT($,.RADIAN.)
);
#436=SHAPE_DEFINITION_REPRESENTATION(#437,#438);
#437=PRODUCT_DEFINITION_SHAPE('',$,#440);
#438=SHAPE_REPRESENTATION('',(#275),#432);
#439=PRODUCT_DEFINITION_CONTEXT('3D Mechanical Parts',#443,'design');
#440=PRODUCT_DEFINITION('(Unsaved)','(Unsaved)',#441,#439);
#441=PRODUCT_DEFINITION_FORMATION('',$,#445);
#442=APPLICATION_PROTOCOL_DEFINITION('international standard',
'automotive_design',2009,#443);
#443=APPLICATION_CONTEXT(
'Core Data for Automotive Mechanical Design Process');
#444=PRODUCT_CONTEXT('3D Mechanical Parts',#443,'mechanical');
#445=PRODUCT('(Unsaved)','(Unsaved)',$,(#444));
#446=PRESENTATION_STYLE_ASSIGNMENT((#447));
#447=SURFACE_STYLE_USAGE(.BOTH.,#448);
#448=SURFACE_SIDE_STYLE($,(#449));
#449=SURFACE_STYLE_FILL_AREA(#450);
#450=FILL_AREA_STYLE($,(#451));
#451=FILL_AREA_STYLE_COLOUR($,#452);
#452=COLOUR_RGB('__RGBA_0.322_0.702_0.937',0.32156862745098,0.701960784313725,
0.937254901960784);
ENDSEC;
END-ISO-10303-21;
