ISO-10303-21;
HEADER;
/* Generated by software containing ST-Developer
 * from STEP Tools, Inc. (www.steptools.com) 
 */

FILE_DESCRIPTION(
/* description */ (''),
/* implementation_level */ '2;1');

FILE_NAME(
/* name */ 'C:/Users/valen/Downloads/Tube \X\E0 colerette perc\X\E9 v2.
step',
/* time_stamp */ '2022-08-05T21:47:25+02:00',
/* author */ (''),
/* organization */ (''),
/* preprocessor_version */ 'ST-DEVELOPER v19',
/* originating_system */ 'Autodesk Translation Framework v11.7.0.108',
/* authorisation */ '');

FILE_SCHEMA (('AUTOMOTIVE_DESIGN { 1 0 10303 214 3 1 1 }'));
ENDSEC;

DATA;
#10=MECHANICAL_DESIGN_GEOMETRIC_PRESENTATION_REPRESENTATION('',(#13),#260);
#11=SHAPE_REPRESENTATION_RELATIONSHIP('SRR','None',#267,#12);
#12=ADVANCED_BREP_SHAPE_REPRESENTATION('',(#14),#259);
#13=STYLED_ITEM('',(#276),#14);
#14=MANIFOLD_SOLID_BREP('Corps1',#140);
#15=FACE_BOUND('',#37,.T.);
#16=FACE_BOUND('',#40,.T.);
#17=FACE_BOUND('',#43,.T.);
#18=FACE_BOUND('',#47,.T.);
#19=FACE_BOUND('',#49,.T.);
#20=PLANE('',#157);
#21=PLANE('',#161);
#22=PLANE('',#166);
#23=PLANE('',#172);
#24=PLANE('',#173);
#25=FACE_OUTER_BOUND('',#35,.T.);
#26=FACE_OUTER_BOUND('',#36,.T.);
#27=FACE_OUTER_BOUND('',#38,.T.);
#28=FACE_OUTER_BOUND('',#39,.T.);
#29=FACE_OUTER_BOUND('',#41,.T.);
#30=FACE_OUTER_BOUND('',#42,.T.);
#31=FACE_OUTER_BOUND('',#44,.T.);
#32=FACE_OUTER_BOUND('',#45,.T.);
#33=FACE_OUTER_BOUND('',#46,.T.);
#34=FACE_OUTER_BOUND('',#48,.T.);
#35=EDGE_LOOP('',(#95,#96,#97,#98));
#36=EDGE_LOOP('',(#99));
#37=EDGE_LOOP('',(#100));
#38=EDGE_LOOP('',(#101,#102,#103,#104));
#39=EDGE_LOOP('',(#105));
#40=EDGE_LOOP('',(#106));
#41=EDGE_LOOP('',(#107,#108,#109,#110));
#42=EDGE_LOOP('',(#111));
#43=EDGE_LOOP('',(#112));
#44=EDGE_LOOP('',(#113,#114,#115,#116));
#45=EDGE_LOOP('',(#117,#118,#119,#120));
#46=EDGE_LOOP('',(#121));
#47=EDGE_LOOP('',(#122));
#48=EDGE_LOOP('',(#123));
#49=EDGE_LOOP('',(#124));
#50=LINE('',#226,#55);
#51=LINE('',#233,#56);
#52=LINE('',#242,#57);
#53=LINE('',#248,#58);
#54=LINE('',#253,#59);
#55=VECTOR('',#180,12.25);
#56=VECTOR('',#189,13.25);
#57=VECTOR('',#200,3.475);
#58=VECTOR('',#209,2.75);
#59=VECTOR('',#214,14.8);
#60=CIRCLE('',#155,12.25);
#61=CIRCLE('',#156,12.25);
#62=CIRCLE('',#158,13.25);
#63=CIRCLE('',#160,13.25);
#64=CIRCLE('',#162,2.75);
#65=CIRCLE('',#164,3.475);
#66=CIRCLE('',#165,3.475);
#67=CIRCLE('',#167,2.75);
#68=CIRCLE('',#170,14.8);
#69=CIRCLE('',#171,14.8);
#70=VERTEX_POINT('',#223);
#71=VERTEX_POINT('',#225);
#72=VERTEX_POINT('',#229);
#73=VERTEX_POINT('',#232);
#74=VERTEX_POINT('',#236);
#75=VERTEX_POINT('',#239);
#76=VERTEX_POINT('',#241);
#77=VERTEX_POINT('',#245);
#78=VERTEX_POINT('',#250);
#79=VERTEX_POINT('',#252);
#80=EDGE_CURVE('',#70,#70,#60,.T.);
#81=EDGE_CURVE('',#70,#71,#50,.T.);
#82=EDGE_CURVE('',#71,#71,#61,.T.);
#83=EDGE_CURVE('',#72,#72,#62,.T.);
#84=EDGE_CURVE('',#72,#73,#51,.T.);
#85=EDGE_CURVE('',#73,#73,#63,.T.);
#86=EDGE_CURVE('',#74,#74,#64,.T.);
#87=EDGE_CURVE('',#75,#75,#65,.T.);
#88=EDGE_CURVE('',#75,#76,#52,.T.);
#89=EDGE_CURVE('',#76,#76,#66,.T.);
#90=EDGE_CURVE('',#77,#77,#67,.T.);
#91=EDGE_CURVE('',#77,#74,#53,.T.);
#92=EDGE_CURVE('',#78,#78,#68,.T.);
#93=EDGE_CURVE('',#78,#79,#54,.T.);
#94=EDGE_CURVE('',#79,#79,#69,.T.);
#95=ORIENTED_EDGE('',*,*,#80,.F.);
#96=ORIENTED_EDGE('',*,*,#81,.T.);
#97=ORIENTED_EDGE('',*,*,#82,.F.);
#98=ORIENTED_EDGE('',*,*,#81,.F.);
#99=ORIENTED_EDGE('',*,*,#83,.T.);
#100=ORIENTED_EDGE('',*,*,#80,.T.);
#101=ORIENTED_EDGE('',*,*,#83,.F.);
#102=ORIENTED_EDGE('',*,*,#84,.T.);
#103=ORIENTED_EDGE('',*,*,#85,.F.);
#104=ORIENTED_EDGE('',*,*,#84,.F.);
#105=ORIENTED_EDGE('',*,*,#82,.T.);
#106=ORIENTED_EDGE('',*,*,#86,.T.);
#107=ORIENTED_EDGE('',*,*,#87,.F.);
#108=ORIENTED_EDGE('',*,*,#88,.T.);
#109=ORIENTED_EDGE('',*,*,#89,.T.);
#110=ORIENTED_EDGE('',*,*,#88,.F.);
#111=ORIENTED_EDGE('',*,*,#89,.F.);
#112=ORIENTED_EDGE('',*,*,#90,.F.);
#113=ORIENTED_EDGE('',*,*,#90,.T.);
#114=ORIENTED_EDGE('',*,*,#91,.T.);
#115=ORIENTED_EDGE('',*,*,#86,.F.);
#116=ORIENTED_EDGE('',*,*,#91,.F.);
#117=ORIENTED_EDGE('',*,*,#92,.F.);
#118=ORIENTED_EDGE('',*,*,#93,.T.);
#119=ORIENTED_EDGE('',*,*,#94,.T.);
#120=ORIENTED_EDGE('',*,*,#93,.F.);
#121=ORIENTED_EDGE('',*,*,#92,.T.);
#122=ORIENTED_EDGE('',*,*,#85,.T.);
#123=ORIENTED_EDGE('',*,*,#94,.F.);
#124=ORIENTED_EDGE('',*,*,#87,.T.);
#125=CYLINDRICAL_SURFACE('',#154,12.25);
#126=CYLINDRICAL_SURFACE('',#159,13.25);
#127=CYLINDRICAL_SURFACE('',#163,3.475);
#128=CYLINDRICAL_SURFACE('',#168,2.75);
#129=CYLINDRICAL_SURFACE('',#169,14.8);
#130=ADVANCED_FACE('',(#25),#125,.F.);
#131=ADVANCED_FACE('',(#26,#15),#20,.T.);
#132=ADVANCED_FACE('',(#27),#126,.T.);
#133=ADVANCED_FACE('',(#28,#16),#21,.T.);
#134=ADVANCED_FACE('',(#29),#127,.F.);
#135=ADVANCED_FACE('',(#30,#17),#22,.T.);
#136=ADVANCED_FACE('',(#31),#128,.F.);
#137=ADVANCED_FACE('',(#32),#129,.T.);
#138=ADVANCED_FACE('',(#33,#18),#23,.T.);
#139=ADVANCED_FACE('',(#34,#19),#24,.F.);
#140=CLOSED_SHELL('',(#130,#131,#132,#133,#134,#135,#136,#137,#138,#139));
#141=DERIVED_UNIT_ELEMENT(#143,1.);
#142=DERIVED_UNIT_ELEMENT(#262,-3.);
#143=(
MASS_UNIT()
NAMED_UNIT(*)
SI_UNIT(.KILO.,.GRAM.)
);
#144=DERIVED_UNIT((#141,#142));
#145=MEASURE_REPRESENTATION_ITEM('density measure',
POSITIVE_RATIO_MEASURE(7850.),#144);
#146=PROPERTY_DEFINITION_REPRESENTATION(#151,#148);
#147=PROPERTY_DEFINITION_REPRESENTATION(#152,#149);
#148=REPRESENTATION('material name',(#150),#259);
#149=REPRESENTATION('density',(#145),#259);
#150=DESCRIPTIVE_REPRESENTATION_ITEM('Acier','Acier');
#151=PROPERTY_DEFINITION('material property','material name',#269);
#152=PROPERTY_DEFINITION('material property','density of part',#269);
#153=AXIS2_PLACEMENT_3D('placement',#221,#174,#175);
#154=AXIS2_PLACEMENT_3D('',#222,#176,#177);
#155=AXIS2_PLACEMENT_3D('',#224,#178,#179);
#156=AXIS2_PLACEMENT_3D('',#227,#181,#182);
#157=AXIS2_PLACEMENT_3D('',#228,#183,#184);
#158=AXIS2_PLACEMENT_3D('',#230,#185,#186);
#159=AXIS2_PLACEMENT_3D('',#231,#187,#188);
#160=AXIS2_PLACEMENT_3D('',#234,#190,#191);
#161=AXIS2_PLACEMENT_3D('',#235,#192,#193);
#162=AXIS2_PLACEMENT_3D('',#237,#194,#195);
#163=AXIS2_PLACEMENT_3D('',#238,#196,#197);
#164=AXIS2_PLACEMENT_3D('',#240,#198,#199);
#165=AXIS2_PLACEMENT_3D('',#243,#201,#202);
#166=AXIS2_PLACEMENT_3D('',#244,#203,#204);
#167=AXIS2_PLACEMENT_3D('',#246,#205,#206);
#168=AXIS2_PLACEMENT_3D('',#247,#207,#208);
#169=AXIS2_PLACEMENT_3D('',#249,#210,#211);
#170=AXIS2_PLACEMENT_3D('',#251,#212,#213);
#171=AXIS2_PLACEMENT_3D('',#254,#215,#216);
#172=AXIS2_PLACEMENT_3D('',#255,#217,#218);
#173=AXIS2_PLACEMENT_3D('',#256,#219,#220);
#174=DIRECTION('axis',(0.,0.,1.));
#175=DIRECTION('refdir',(1.,0.,0.));
#176=DIRECTION('center_axis',(0.,1.,0.));
#177=DIRECTION('ref_axis',(-1.,0.,0.));
#178=DIRECTION('center_axis',(0.,-1.,0.));
#179=DIRECTION('ref_axis',(-1.,0.,0.));
#180=DIRECTION('',(0.,-1.,0.));
#181=DIRECTION('center_axis',(0.,1.,0.));
#182=DIRECTION('ref_axis',(-1.,0.,0.));
#183=DIRECTION('center_axis',(0.,1.,0.));
#184=DIRECTION('ref_axis',(-1.,0.,0.));
#185=DIRECTION('center_axis',(0.,1.,0.));
#186=DIRECTION('ref_axis',(-1.,0.,0.));
#187=DIRECTION('center_axis',(0.,1.,0.));
#188=DIRECTION('ref_axis',(-1.,0.,0.));
#189=DIRECTION('',(0.,-1.,0.));
#190=DIRECTION('center_axis',(0.,-1.,0.));
#191=DIRECTION('ref_axis',(-1.,0.,0.));
#192=DIRECTION('center_axis',(0.,1.,0.));
#193=DIRECTION('ref_axis',(-1.,0.,0.));
#194=DIRECTION('center_axis',(0.,-1.,0.));
#195=DIRECTION('ref_axis',(-1.,0.,0.));
#196=DIRECTION('center_axis',(0.,1.,0.));
#197=DIRECTION('ref_axis',(1.,0.,0.));
#198=DIRECTION('center_axis',(0.,1.,0.));
#199=DIRECTION('ref_axis',(1.,0.,0.));
#200=DIRECTION('',(0.,1.,0.));
#201=DIRECTION('center_axis',(0.,1.,0.));
#202=DIRECTION('ref_axis',(1.,0.,0.));
#203=DIRECTION('center_axis',(0.,-1.,0.));
#204=DIRECTION('ref_axis',(1.,0.,0.));
#205=DIRECTION('center_axis',(0.,-1.,0.));
#206=DIRECTION('ref_axis',(1.,0.,0.));
#207=DIRECTION('center_axis',(0.,1.,0.));
#208=DIRECTION('ref_axis',(1.,0.,0.));
#209=DIRECTION('',(0.,1.,0.));
#210=DIRECTION('center_axis',(0.,1.,0.));
#211=DIRECTION('ref_axis',(1.,0.,0.));
#212=DIRECTION('center_axis',(0.,1.,0.));
#213=DIRECTION('ref_axis',(1.,0.,0.));
#214=DIRECTION('',(0.,-1.,0.));
#215=DIRECTION('center_axis',(0.,1.,0.));
#216=DIRECTION('ref_axis',(1.,0.,0.));
#217=DIRECTION('center_axis',(0.,1.,0.));
#218=DIRECTION('ref_axis',(1.,0.,0.));
#219=DIRECTION('center_axis',(0.,1.,0.));
#220=DIRECTION('ref_axis',(1.,0.,0.));
#221=CARTESIAN_POINT('',(0.,0.,0.));
#222=CARTESIAN_POINT('Origin',(0.,4.,0.));
#223=CARTESIAN_POINT('',(12.25,159.,-1.50019232895551E-15));
#224=CARTESIAN_POINT('Origin',(0.,159.,0.));
#225=CARTESIAN_POINT('',(12.25,4.,-1.50019232895551E-15));
#226=CARTESIAN_POINT('',(12.25,4.,-1.50019232895551E-15));
#227=CARTESIAN_POINT('Origin',(0.,4.,0.));
#228=CARTESIAN_POINT('Origin',(0.,159.,0.));
#229=CARTESIAN_POINT('',(13.25,159.,-1.62265700887024E-15));
#230=CARTESIAN_POINT('Origin',(0.,159.,0.));
#231=CARTESIAN_POINT('Origin',(0.,2.,0.));
#232=CARTESIAN_POINT('',(13.25,2.,-1.62265700887024E-15));
#233=CARTESIAN_POINT('',(13.25,2.,-1.62265700887024E-15));
#234=CARTESIAN_POINT('Origin',(0.,2.,0.));
#235=CARTESIAN_POINT('Origin',(0.,4.,0.));
#236=CARTESIAN_POINT('',(-2.75,4.,3.36777869765522E-16));
#237=CARTESIAN_POINT('Origin',(0.,4.,0.));
#238=CARTESIAN_POINT('Origin',(0.,0.,0.));
#239=CARTESIAN_POINT('',(-3.475,0.,-4.25564762703705E-16));
#240=CARTESIAN_POINT('Origin',(0.,0.,0.));
#241=CARTESIAN_POINT('',(-3.475,1.,-4.25564762703705E-16));
#242=CARTESIAN_POINT('',(-3.475,0.,4.25564762703705E-16));
#243=CARTESIAN_POINT('Origin',(0.,1.,0.));
#244=CARTESIAN_POINT('Origin',(0.,1.,0.));
#245=CARTESIAN_POINT('',(-2.75,1.,-3.36777869765522E-16));
#246=CARTESIAN_POINT('Origin',(0.,1.,0.));
#247=CARTESIAN_POINT('Origin',(0.,0.,0.));
#248=CARTESIAN_POINT('',(-2.75,0.,3.36777869765522E-16));
#249=CARTESIAN_POINT('Origin',(0.,0.,0.));
#250=CARTESIAN_POINT('',(-14.8,2.,1.81247726273808E-15));
#251=CARTESIAN_POINT('Origin',(0.,2.,0.));
#252=CARTESIAN_POINT('',(-14.8,0.,1.81247726273808E-15));
#253=CARTESIAN_POINT('',(-14.8,0.,1.81247726273808E-15));
#254=CARTESIAN_POINT('Origin',(0.,0.,0.));
#255=CARTESIAN_POINT('Origin',(0.,2.,0.));
#256=CARTESIAN_POINT('Origin',(0.,0.,0.));
#257=UNCERTAINTY_MEASURE_WITH_UNIT(LENGTH_MEASURE(0.01),#261,
'DISTANCE_ACCURACY_VALUE',
'Maximum model space distance between geometric entities at asserted c
onnectivities');
#258=UNCERTAINTY_MEASURE_WITH_UNIT(LENGTH_MEASURE(0.01),#261,
'DISTANCE_ACCURACY_VALUE',
'Maximum model space distance between geometric entities at asserted c
onnectivities');
#259=(
GEOMETRIC_REPRESENTATION_CONTEXT(3)
GLOBAL_UNCERTAINTY_ASSIGNED_CONTEXT((#257))
GLOBAL_UNIT_ASSIGNED_CONTEXT((#261,#263,#264))
REPRESENTATION_CONTEXT('','3D')
);
#260=(
GEOMETRIC_REPRESENTATION_CONTEXT(3)
GLOBAL_UNCERTAINTY_ASSIGNED_CONTEXT((#258))
GLOBAL_UNIT_ASSIGNED_CONTEXT((#261,#263,#264))
REPRESENTATION_CONTEXT('','3D')
);
#261=(
LENGTH_UNIT()
NAMED_UNIT(*)
SI_UNIT(.MILLI.,.METRE.)
);
#262=(
LENGTH_UNIT()
NAMED_UNIT(*)
SI_UNIT($,.METRE.)
);
#263=(
NAMED_UNIT(*)
PLANE_ANGLE_UNIT()
SI_UNIT($,.RADIAN.)
);
#264=(
NAMED_UNIT(*)
SI_UNIT($,.STERADIAN.)
SOLID_ANGLE_UNIT()
);
#265=SHAPE_DEFINITION_REPRESENTATION(#266,#267);
#266=PRODUCT_DEFINITION_SHAPE('',$,#269);
#267=SHAPE_REPRESENTATION('',(#153),#259);
#268=PRODUCT_DEFINITION_CONTEXT('part definition',#273,'design');
#269=PRODUCT_DEFINITION('Tube \X\E0 colerette perc\X\E9',
'Tube \X\E0 colerette perc\X\E9 v2',#270,#268);
#270=PRODUCT_DEFINITION_FORMATION('',$,#275);
#271=PRODUCT_RELATED_PRODUCT_CATEGORY('Tube \X\E0 colerette perc\X\E9 
v2','Tube \X\E0 colerette perc\X\E9 v2',(#275));
#272=APPLICATION_PROTOCOL_DEFINITION('international standard',
'automotive_design',2009,#273);
#273=APPLICATION_CONTEXT(
'Core Data for Automotive Mechanical Design Process');
#274=PRODUCT_CONTEXT('part definition',#273,'mechanical');
#275=PRODUCT('Tube \X\E0 colerette perc\X\E9',
'Tube \X\E0 colerette perc\X\E9 v2',$,(#274));
#276=PRESENTATION_STYLE_ASSIGNMENT((#277));
#277=SURFACE_STYLE_USAGE(.BOTH.,#278);
#278=SURFACE_SIDE_STYLE('',(#279));
#279=SURFACE_STYLE_FILL_AREA(#280);
#280=FILL_AREA_STYLE('Acier - Satin\X\E9',(#281));
#281=FILL_AREA_STYLE_COLOUR('Acier - Satin\X\E9',#282);
#282=COLOUR_RGB('Acier - Satin\X\E9',0.627450980392157,0.627450980392157,
0.627450980392157);
ENDSEC;
END-ISO-10303-21;
