ISO-10303-21;
HEADER;
FILE_DESCRIPTION(('FreeCAD Model'),'2;1');
FILE_NAME('Open CASCADE Shape Model','2022-07-26T00:21:22',('Author'),(
    ''),'Open CASCADE STEP processor 7.5','FreeCAD','Unknown');
FILE_SCHEMA(('AUTOMOTIVE_DESIGN { 1 0 10303 214 1 1 1 1 }'));
ENDSEC;
DATA;
#1 = APPLICATION_PROTOCOL_DEFINITION('international standard',
  'automotive_design',2000,#2);
#2 = APPLICATION_CONTEXT(
  'core data for automotive mechanical design processes');
#3 = SHAPE_DEFINITION_REPRESENTATION(#4,#10);
#4 = PRODUCT_DEFINITION_SHAPE('','',#5);
#5 = PRODUCT_DEFINITION('design','',#6,#9);
#6 = PRODUCT_DEFINITION_FORMATION('','',#7);
#7 = PRODUCT('Body','Body','',(#8));
#8 = PRODUCT_CONTEXT('',#2,'mechanical');
#9 = PRODUCT_DEFINITION_CONTEXT('part definition',#2,'design');
#10 = ADVANCED_BREP_SHAPE_REPRESENTATION('',(#11,#15),#503);
#11 = AXIS2_PLACEMENT_3D('',#12,#13,#14);
#12 = CARTESIAN_POINT('',(0.,0.,0.));
#13 = DIRECTION('',(0.,0.,1.));
#14 = DIRECTION('',(1.,0.,-0.));
#15 = MANIFOLD_SOLID_BREP('',#16);
#16 = CLOSED_SHELL('',(#17,#89,#114,#139,#164,#189,#214,#239,#264,#289,
    #314,#339,#364,#389,#421,#441,#466,#491));
#17 = ADVANCED_FACE('',(#18,#29,#40,#51,#62,#73),#84,.T.);
#18 = FACE_BOUND('',#19,.T.);
#19 = EDGE_LOOP('',(#20));
#20 = ORIENTED_EDGE('',*,*,#21,.T.);
#21 = EDGE_CURVE('',#22,#22,#24,.T.);
#22 = VERTEX_POINT('',#23);
#23 = CARTESIAN_POINT('',(-34.,5.,-5.551115123126E-16));
#24 = CIRCLE('',#25,34.);
#25 = AXIS2_PLACEMENT_3D('',#26,#27,#28);
#26 = CARTESIAN_POINT('',(5.551115123126E-16,5.,-5.551115123126E-16));
#27 = DIRECTION('',(1.110223024625E-16,1.,-1.110223024625E-16));
#28 = DIRECTION('',(-1.,1.110223024625E-16,1.586032892322E-17));
#29 = FACE_BOUND('',#30,.T.);
#30 = EDGE_LOOP('',(#31));
#31 = ORIENTED_EDGE('',*,*,#32,.F.);
#32 = EDGE_CURVE('',#33,#33,#35,.T.);
#33 = VERTEX_POINT('',#34);
#34 = CARTESIAN_POINT('',(-31.05,5.,-5.551115123126E-16));
#35 = CIRCLE('',#36,6.05);
#36 = AXIS2_PLACEMENT_3D('',#37,#38,#39);
#37 = CARTESIAN_POINT('',(-25.,5.,-5.551115123126E-16));
#38 = DIRECTION('',(1.110223024625E-16,1.,-1.110223024625E-16));
#39 = DIRECTION('',(-1.,1.110223024625E-16,2.0004413324E-32));
#40 = FACE_BOUND('',#41,.T.);
#41 = EDGE_LOOP('',(#42));
#42 = ORIENTED_EDGE('',*,*,#43,.F.);
#43 = EDGE_CURVE('',#44,#44,#46,.T.);
#44 = VERTEX_POINT('',#45);
#45 = CARTESIAN_POINT('',(-14.,5.,0.));
#46 = CIRCLE('',#47,14.);
#47 = AXIS2_PLACEMENT_3D('',#48,#49,#50);
#48 = CARTESIAN_POINT('',(5.551115123126E-16,5.,-5.551115123126E-16));
#49 = DIRECTION('',(1.110223024625E-16,1.,-1.110223024625E-16));
#50 = DIRECTION('',(-1.,1.110223024625E-16,3.965082230804E-17));
#51 = FACE_BOUND('',#52,.T.);
#52 = EDGE_LOOP('',(#53));
#53 = ORIENTED_EDGE('',*,*,#54,.F.);
#54 = EDGE_CURVE('',#55,#55,#57,.T.);
#55 = VERTEX_POINT('',#56);
#56 = CARTESIAN_POINT('',(-6.05,5.,25.));
#57 = CIRCLE('',#58,6.05);
#58 = AXIS2_PLACEMENT_3D('',#59,#60,#61);
#59 = CARTESIAN_POINT('',(5.551115123126E-16,5.,25.));
#60 = DIRECTION('',(1.110223024625E-16,1.,-1.110223024625E-16));
#61 = DIRECTION('',(-1.,1.110223024625E-16,8.466514326014E-32));
#62 = FACE_BOUND('',#63,.T.);
#63 = EDGE_LOOP('',(#64));
#64 = ORIENTED_EDGE('',*,*,#65,.F.);
#65 = EDGE_CURVE('',#66,#66,#68,.T.);
#66 = VERTEX_POINT('',#67);
#67 = CARTESIAN_POINT('',(-6.05,5.,-25.));
#68 = CIRCLE('',#69,6.05);
#69 = AXIS2_PLACEMENT_3D('',#70,#71,#72);
#70 = CARTESIAN_POINT('',(5.551115123126E-16,5.,-25.));
#71 = DIRECTION('',(1.110223024625E-16,1.,-1.110223024625E-16));
#72 = DIRECTION('',(-1.,1.110223024625E-16,-1.093170465483E-31));
#73 = FACE_BOUND('',#74,.T.);
#74 = EDGE_LOOP('',(#75));
#75 = ORIENTED_EDGE('',*,*,#76,.F.);
#76 = EDGE_CURVE('',#77,#77,#79,.T.);
#77 = VERTEX_POINT('',#78);
#78 = CARTESIAN_POINT('',(18.95,5.,-5.551115123126E-16));
#79 = CIRCLE('',#80,6.05);
#80 = AXIS2_PLACEMENT_3D('',#81,#82,#83);
#81 = CARTESIAN_POINT('',(25.,5.,-5.551115123126E-16));
#82 = DIRECTION('',(1.110223024625E-16,1.,-1.110223024625E-16));
#83 = DIRECTION('',(-1.,1.110223024625E-16,-7.698668158023E-32));
#84 = PLANE('',#85);
#85 = AXIS2_PLACEMENT_3D('',#86,#87,#88);
#86 = CARTESIAN_POINT('',(5.551115123126E-16,5.,-5.551115123126E-16));
#87 = DIRECTION('',(1.110223024625E-16,1.,-1.110223024625E-16));
#88 = DIRECTION('',(-1.,1.110223024625E-16,1.586032892322E-17));
#89 = ADVANCED_FACE('',(#90),#109,.T.);
#90 = FACE_BOUND('',#91,.F.);
#91 = EDGE_LOOP('',(#92,#100,#101,#102));
#92 = ORIENTED_EDGE('',*,*,#93,.F.);
#93 = EDGE_CURVE('',#22,#94,#96,.T.);
#94 = VERTEX_POINT('',#95);
#95 = CARTESIAN_POINT('',(-35.,4.,-4.440892098501E-16));
#96 = LINE('',#97,#98);
#97 = CARTESIAN_POINT('',(-35.,4.,-4.440892098501E-16));
#98 = VECTOR('',#99,1.);
#99 = DIRECTION('',(-0.707106781187,-0.707106781187,7.850462293419E-17)
  );
#100 = ORIENTED_EDGE('',*,*,#21,.T.);
#101 = ORIENTED_EDGE('',*,*,#93,.T.);
#102 = ORIENTED_EDGE('',*,*,#103,.F.);
#103 = EDGE_CURVE('',#94,#94,#104,.T.);
#104 = CIRCLE('',#105,35.);
#105 = AXIS2_PLACEMENT_3D('',#106,#107,#108);
#106 = CARTESIAN_POINT('',(4.440892098501E-16,4.,-4.440892098501E-16));
#107 = DIRECTION('',(1.110223024625E-16,1.,-1.110223024625E-16));
#108 = DIRECTION('',(-1.,1.110223024625E-16,1.586032892322E-17));
#109 = CONICAL_SURFACE('',#110,35.,0.785398163397);
#110 = AXIS2_PLACEMENT_3D('',#111,#112,#113);
#111 = CARTESIAN_POINT('',(4.440892098501E-16,4.,-4.440892098501E-16));
#112 = DIRECTION('',(-1.110223024625E-16,-1.,1.110223024625E-16));
#113 = DIRECTION('',(-1.,1.110223024625E-16,1.586032892322E-17));
#114 = ADVANCED_FACE('',(#115),#134,.F.);
#115 = FACE_BOUND('',#116,.T.);
#116 = EDGE_LOOP('',(#117,#125,#126,#127));
#117 = ORIENTED_EDGE('',*,*,#118,.F.);
#118 = EDGE_CURVE('',#33,#119,#121,.T.);
#119 = VERTEX_POINT('',#120);
#120 = CARTESIAN_POINT('',(-28.05,2.,-2.22044604925E-16));
#121 = LINE('',#122,#123);
#122 = CARTESIAN_POINT('',(-28.05,2.,-2.22044604925E-16));
#123 = VECTOR('',#124,1.);
#124 = DIRECTION('',(0.707106781187,-0.707106781187,7.850462293419E-17)
  );
#125 = ORIENTED_EDGE('',*,*,#32,.T.);
#126 = ORIENTED_EDGE('',*,*,#118,.T.);
#127 = ORIENTED_EDGE('',*,*,#128,.F.);
#128 = EDGE_CURVE('',#119,#119,#129,.T.);
#129 = CIRCLE('',#130,3.05);
#130 = AXIS2_PLACEMENT_3D('',#131,#132,#133);
#131 = CARTESIAN_POINT('',(-25.,2.,-2.22044604925E-16));
#132 = DIRECTION('',(1.110223024625E-16,1.,-1.110223024625E-16));
#133 = DIRECTION('',(-1.,1.110223024625E-16,2.0004413324E-32));
#134 = CONICAL_SURFACE('',#135,3.05,0.785398163397);
#135 = AXIS2_PLACEMENT_3D('',#136,#137,#138);
#136 = CARTESIAN_POINT('',(-25.,2.,-2.22044604925E-16));
#137 = DIRECTION('',(1.110223024625E-16,1.,-1.110223024625E-16));
#138 = DIRECTION('',(-1.,1.110223024625E-16,2.0004413324E-32));
#139 = ADVANCED_FACE('',(#140),#159,.T.);
#140 = FACE_BOUND('',#141,.T.);
#141 = EDGE_LOOP('',(#142,#150,#151,#152));
#142 = ORIENTED_EDGE('',*,*,#143,.F.);
#143 = EDGE_CURVE('',#44,#144,#146,.T.);
#144 = VERTEX_POINT('',#145);
#145 = CARTESIAN_POINT('',(-14.,19.,-1.554312234475E-15));
#146 = LINE('',#147,#148);
#147 = CARTESIAN_POINT('',(-14.,5.,0.));
#148 = VECTOR('',#149,1.);
#149 = DIRECTION('',(0.,1.,0.));
#150 = ORIENTED_EDGE('',*,*,#43,.T.);
#151 = ORIENTED_EDGE('',*,*,#143,.T.);
#152 = ORIENTED_EDGE('',*,*,#153,.F.);
#153 = EDGE_CURVE('',#144,#144,#154,.T.);
#154 = CIRCLE('',#155,14.);
#155 = AXIS2_PLACEMENT_3D('',#156,#157,#158);
#156 = CARTESIAN_POINT('',(2.109423746788E-15,19.,-2.109423746788E-15));
#157 = DIRECTION('',(1.110223024625E-16,1.,-1.110223024625E-16));
#158 = DIRECTION('',(-1.,1.110223024625E-16,1.586032892322E-16));
#159 = CYLINDRICAL_SURFACE('',#160,14.);
#160 = AXIS2_PLACEMENT_3D('',#161,#162,#163);
#161 = CARTESIAN_POINT('',(5.551115123126E-16,5.,-5.551115123126E-16));
#162 = DIRECTION('',(1.110223024625E-16,1.,-1.110223024625E-16));
#163 = DIRECTION('',(-1.,1.110223024625E-16,3.965082230804E-17));
#164 = ADVANCED_FACE('',(#165),#184,.F.);
#165 = FACE_BOUND('',#166,.T.);
#166 = EDGE_LOOP('',(#167,#175,#176,#177));
#167 = ORIENTED_EDGE('',*,*,#168,.F.);
#168 = EDGE_CURVE('',#55,#169,#171,.T.);
#169 = VERTEX_POINT('',#170);
#170 = CARTESIAN_POINT('',(-3.05,2.,25.));
#171 = LINE('',#172,#173);
#172 = CARTESIAN_POINT('',(-3.05,2.,25.));
#173 = VECTOR('',#174,1.);
#174 = DIRECTION('',(0.707106781187,-0.707106781187,7.850462293419E-17)
  );
#175 = ORIENTED_EDGE('',*,*,#54,.T.);
#176 = ORIENTED_EDGE('',*,*,#168,.T.);
#177 = ORIENTED_EDGE('',*,*,#178,.F.);
#178 = EDGE_CURVE('',#169,#169,#179,.T.);
#179 = CIRCLE('',#180,3.05);
#180 = AXIS2_PLACEMENT_3D('',#181,#182,#183);
#181 = CARTESIAN_POINT('',(2.22044604925E-16,2.,25.));
#182 = DIRECTION('',(1.110223024625E-16,1.,-1.110223024625E-16));
#183 = DIRECTION('',(-1.,1.110223024625E-16,8.466514326014E-32));
#184 = CONICAL_SURFACE('',#185,3.05,0.785398163397);
#185 = AXIS2_PLACEMENT_3D('',#186,#187,#188);
#186 = CARTESIAN_POINT('',(2.22044604925E-16,2.,25.));
#187 = DIRECTION('',(1.110223024625E-16,1.,-1.110223024625E-16));
#188 = DIRECTION('',(-1.,1.110223024625E-16,8.466514326014E-32));
#189 = ADVANCED_FACE('',(#190),#209,.F.);
#190 = FACE_BOUND('',#191,.T.);
#191 = EDGE_LOOP('',(#192,#200,#201,#202));
#192 = ORIENTED_EDGE('',*,*,#193,.F.);
#193 = EDGE_CURVE('',#66,#194,#196,.T.);
#194 = VERTEX_POINT('',#195);
#195 = CARTESIAN_POINT('',(-3.05,2.,-25.));
#196 = LINE('',#197,#198);
#197 = CARTESIAN_POINT('',(-3.05,2.,-25.));
#198 = VECTOR('',#199,1.);
#199 = DIRECTION('',(0.707106781187,-0.707106781187,7.850462293419E-17)
  );
#200 = ORIENTED_EDGE('',*,*,#65,.T.);
#201 = ORIENTED_EDGE('',*,*,#193,.T.);
#202 = ORIENTED_EDGE('',*,*,#203,.F.);
#203 = EDGE_CURVE('',#194,#194,#204,.T.);
#204 = CIRCLE('',#205,3.05);
#205 = AXIS2_PLACEMENT_3D('',#206,#207,#208);
#206 = CARTESIAN_POINT('',(2.22044604925E-16,2.,-25.));
#207 = DIRECTION('',(1.110223024625E-16,1.,-1.110223024625E-16));
#208 = DIRECTION('',(-1.,1.110223024625E-16,-1.093170465483E-31));
#209 = CONICAL_SURFACE('',#210,3.05,0.785398163397);
#210 = AXIS2_PLACEMENT_3D('',#211,#212,#213);
#211 = CARTESIAN_POINT('',(2.22044604925E-16,2.,-25.));
#212 = DIRECTION('',(1.110223024625E-16,1.,-1.110223024625E-16));
#213 = DIRECTION('',(-1.,1.110223024625E-16,-1.093170465483E-31));
#214 = ADVANCED_FACE('',(#215),#234,.F.);
#215 = FACE_BOUND('',#216,.T.);
#216 = EDGE_LOOP('',(#217,#225,#226,#227));
#217 = ORIENTED_EDGE('',*,*,#218,.F.);
#218 = EDGE_CURVE('',#77,#219,#221,.T.);
#219 = VERTEX_POINT('',#220);
#220 = CARTESIAN_POINT('',(21.95,2.,-2.22044604925E-16));
#221 = LINE('',#222,#223);
#222 = CARTESIAN_POINT('',(21.95,2.,-2.22044604925E-16));
#223 = VECTOR('',#224,1.);
#224 = DIRECTION('',(0.707106781187,-0.707106781187,7.850462293419E-17)
  );
#225 = ORIENTED_EDGE('',*,*,#76,.T.);
#226 = ORIENTED_EDGE('',*,*,#218,.T.);
#227 = ORIENTED_EDGE('',*,*,#228,.F.);
#228 = EDGE_CURVE('',#219,#219,#229,.T.);
#229 = CIRCLE('',#230,3.05);
#230 = AXIS2_PLACEMENT_3D('',#231,#232,#233);
#231 = CARTESIAN_POINT('',(25.,2.,-2.22044604925E-16));
#232 = DIRECTION('',(1.110223024625E-16,1.,-1.110223024625E-16));
#233 = DIRECTION('',(-1.,1.110223024625E-16,-7.698668158023E-32));
#234 = CONICAL_SURFACE('',#235,3.05,0.785398163397);
#235 = AXIS2_PLACEMENT_3D('',#236,#237,#238);
#236 = CARTESIAN_POINT('',(25.,2.,-2.22044604925E-16));
#237 = DIRECTION('',(1.110223024625E-16,1.,-1.110223024625E-16));
#238 = DIRECTION('',(-1.,1.110223024625E-16,-7.698668158023E-32));
#239 = ADVANCED_FACE('',(#240),#259,.T.);
#240 = FACE_BOUND('',#241,.T.);
#241 = EDGE_LOOP('',(#242,#250,#257,#258));
#242 = ORIENTED_EDGE('',*,*,#243,.F.);
#243 = EDGE_CURVE('',#244,#94,#246,.T.);
#244 = VERTEX_POINT('',#245);
#245 = CARTESIAN_POINT('',(-35.,0.,0.));
#246 = LINE('',#247,#248);
#247 = CARTESIAN_POINT('',(-35.,0.,0.));
#248 = VECTOR('',#249,1.);
#249 = DIRECTION('',(0.,1.,0.));
#250 = ORIENTED_EDGE('',*,*,#251,.T.);
#251 = EDGE_CURVE('',#244,#244,#252,.T.);
#252 = CIRCLE('',#253,35.);
#253 = AXIS2_PLACEMENT_3D('',#254,#255,#256);
#254 = CARTESIAN_POINT('',(-4.314083075427E-31,-3.885780586188E-15,
    4.314083075427E-31));
#255 = DIRECTION('',(1.110223024625E-16,1.,-1.110223024625E-16));
#256 = DIRECTION('',(-1.,1.110223024625E-16,-1.232595164408E-32));
#257 = ORIENTED_EDGE('',*,*,#243,.T.);
#258 = ORIENTED_EDGE('',*,*,#103,.F.);
#259 = CYLINDRICAL_SURFACE('',#260,35.);
#260 = AXIS2_PLACEMENT_3D('',#261,#262,#263);
#261 = CARTESIAN_POINT('',(-4.314083075427E-31,-3.885780586188E-15,
    4.314083075427E-31));
#262 = DIRECTION('',(1.110223024625E-16,1.,-1.110223024625E-16));
#263 = DIRECTION('',(-1.,1.110223024625E-16,-1.232595164408E-32));
#264 = ADVANCED_FACE('',(#265),#284,.F.);
#265 = FACE_BOUND('',#266,.F.);
#266 = EDGE_LOOP('',(#267,#275,#282,#283));
#267 = ORIENTED_EDGE('',*,*,#268,.T.);
#268 = EDGE_CURVE('',#119,#269,#271,.T.);
#269 = VERTEX_POINT('',#270);
#270 = CARTESIAN_POINT('',(-28.05,-4.385380947269E-16,5.551115123126E-16
    ));
#271 = LINE('',#272,#273);
#272 = CARTESIAN_POINT('',(-28.05,5.,-5.551115123126E-16));
#273 = VECTOR('',#274,1.);
#274 = DIRECTION('',(-1.110223024625E-16,-1.,2.22044604925E-16));
#275 = ORIENTED_EDGE('',*,*,#276,.T.);
#276 = EDGE_CURVE('',#269,#269,#277,.T.);
#277 = CIRCLE('',#278,3.05);
#278 = AXIS2_PLACEMENT_3D('',#279,#280,#281);
#279 = CARTESIAN_POINT('',(-25.,-7.771561172376E-16,5.551115123126E-16)
  );
#280 = DIRECTION('',(1.110223024625E-16,1.,-2.22044604925E-16));
#281 = DIRECTION('',(-1.,1.110223024625E-16,-1.232595164408E-32));
#282 = ORIENTED_EDGE('',*,*,#268,.F.);
#283 = ORIENTED_EDGE('',*,*,#128,.F.);
#284 = CYLINDRICAL_SURFACE('',#285,3.05);
#285 = AXIS2_PLACEMENT_3D('',#286,#287,#288);
#286 = CARTESIAN_POINT('',(-25.,5.,-5.551115123126E-16));
#287 = DIRECTION('',(1.110223024625E-16,1.,-2.22044604925E-16));
#288 = DIRECTION('',(-1.,1.110223024625E-16,-1.232595164408E-32));
#289 = ADVANCED_FACE('',(#290),#309,.T.);
#290 = FACE_BOUND('',#291,.T.);
#291 = EDGE_LOOP('',(#292,#300,#301,#302));
#292 = ORIENTED_EDGE('',*,*,#293,.F.);
#293 = EDGE_CURVE('',#144,#294,#296,.T.);
#294 = VERTEX_POINT('',#295);
#295 = CARTESIAN_POINT('',(-13.,20.,-1.704985359246E-15));
#296 = LINE('',#297,#298);
#297 = CARTESIAN_POINT('',(-14.,19.,-1.554312234475E-15));
#298 = VECTOR('',#299,1.);
#299 = DIRECTION('',(0.707106781187,0.707106781187,-1.065419882678E-16)
  );
#300 = ORIENTED_EDGE('',*,*,#153,.T.);
#301 = ORIENTED_EDGE('',*,*,#293,.T.);
#302 = ORIENTED_EDGE('',*,*,#303,.F.);
#303 = EDGE_CURVE('',#294,#294,#304,.T.);
#304 = CIRCLE('',#305,13.);
#305 = AXIS2_PLACEMENT_3D('',#306,#307,#308);
#306 = CARTESIAN_POINT('',(2.22044604925E-15,20.,-2.22044604925E-15));
#307 = DIRECTION('',(1.110223024625E-16,1.,-1.110223024625E-16));
#308 = DIRECTION('',(-1.,1.110223024625E-16,1.586032892322E-16));
#309 = CONICAL_SURFACE('',#310,14.,0.785398163397);
#310 = AXIS2_PLACEMENT_3D('',#311,#312,#313);
#311 = CARTESIAN_POINT('',(2.109423746788E-15,19.,-2.109423746788E-15));
#312 = DIRECTION('',(-1.110223024625E-16,-1.,1.110223024625E-16));
#313 = DIRECTION('',(-1.,1.110223024625E-16,1.586032892322E-16));
#314 = ADVANCED_FACE('',(#315),#334,.F.);
#315 = FACE_BOUND('',#316,.F.);
#316 = EDGE_LOOP('',(#317,#325,#332,#333));
#317 = ORIENTED_EDGE('',*,*,#318,.T.);
#318 = EDGE_CURVE('',#169,#319,#321,.T.);
#319 = VERTEX_POINT('',#320);
#320 = CARTESIAN_POINT('',(-3.05,2.337019466836E-15,25.));
#321 = LINE('',#322,#323);
#322 = CARTESIAN_POINT('',(-3.05,5.,25.));
#323 = VECTOR('',#324,1.);
#324 = DIRECTION('',(-1.110223024625E-16,-1.,2.22044604925E-16));
#325 = ORIENTED_EDGE('',*,*,#326,.T.);
#326 = EDGE_CURVE('',#319,#319,#327,.T.);
#327 = CIRCLE('',#328,3.05);
#328 = AXIS2_PLACEMENT_3D('',#329,#330,#331);
#329 = CARTESIAN_POINT('',(1.232595164408E-32,1.998401444325E-15,25.));
#330 = DIRECTION('',(1.110223024625E-16,1.,-2.22044604925E-16));
#331 = DIRECTION('',(-1.,1.110223024625E-16,-1.232595164408E-32));
#332 = ORIENTED_EDGE('',*,*,#318,.F.);
#333 = ORIENTED_EDGE('',*,*,#178,.F.);
#334 = CYLINDRICAL_SURFACE('',#335,3.05);
#335 = AXIS2_PLACEMENT_3D('',#336,#337,#338);
#336 = CARTESIAN_POINT('',(5.551115123126E-16,5.,25.));
#337 = DIRECTION('',(1.110223024625E-16,1.,-2.22044604925E-16));
#338 = DIRECTION('',(-1.,1.110223024625E-16,-1.232595164408E-32));
#339 = ADVANCED_FACE('',(#340),#359,.F.);
#340 = FACE_BOUND('',#341,.F.);
#341 = EDGE_LOOP('',(#342,#350,#357,#358));
#342 = ORIENTED_EDGE('',*,*,#343,.T.);
#343 = EDGE_CURVE('',#194,#344,#346,.T.);
#344 = VERTEX_POINT('',#345);
#345 = CARTESIAN_POINT('',(-3.05,-8.765210779416E-15,-25.));
#346 = LINE('',#347,#348);
#347 = CARTESIAN_POINT('',(-3.05,5.,-25.));
#348 = VECTOR('',#349,1.);
#349 = DIRECTION('',(-1.110223024625E-16,-1.,2.22044604925E-16));
#350 = ORIENTED_EDGE('',*,*,#351,.T.);
#351 = EDGE_CURVE('',#344,#344,#352,.T.);
#352 = CIRCLE('',#353,3.05);
#353 = AXIS2_PLACEMENT_3D('',#354,#355,#356);
#354 = CARTESIAN_POINT('',(-6.039716305598E-31,-9.103828801926E-15,-25.)
  );
#355 = DIRECTION('',(1.110223024625E-16,1.,-2.22044604925E-16));
#356 = DIRECTION('',(-1.,1.110223024625E-16,-1.232595164408E-32));
#357 = ORIENTED_EDGE('',*,*,#343,.F.);
#358 = ORIENTED_EDGE('',*,*,#203,.F.);
#359 = CYLINDRICAL_SURFACE('',#360,3.05);
#360 = AXIS2_PLACEMENT_3D('',#361,#362,#363);
#361 = CARTESIAN_POINT('',(5.551115123126E-16,5.,-25.));
#362 = DIRECTION('',(1.110223024625E-16,1.,-2.22044604925E-16));
#363 = DIRECTION('',(-1.,1.110223024625E-16,-1.232595164408E-32));
#364 = ADVANCED_FACE('',(#365),#384,.F.);
#365 = FACE_BOUND('',#366,.F.);
#366 = EDGE_LOOP('',(#367,#375,#382,#383));
#367 = ORIENTED_EDGE('',*,*,#368,.T.);
#368 = EDGE_CURVE('',#219,#369,#371,.T.);
#369 = VERTEX_POINT('',#370);
#370 = CARTESIAN_POINT('',(21.95,-5.989653217853E-15,5.551115123126E-16)
  );
#371 = LINE('',#372,#373);
#372 = CARTESIAN_POINT('',(21.95,5.,-5.551115123126E-16));
#373 = VECTOR('',#374,1.);
#374 = DIRECTION('',(-1.110223024625E-16,-1.,2.22044604925E-16));
#375 = ORIENTED_EDGE('',*,*,#376,.T.);
#376 = EDGE_CURVE('',#369,#369,#377,.T.);
#377 = CIRCLE('',#378,3.05);
#378 = AXIS2_PLACEMENT_3D('',#379,#380,#381);
#379 = CARTESIAN_POINT('',(25.,-6.328271240363E-15,5.551115123126E-16));
#380 = DIRECTION('',(1.110223024625E-16,1.,-2.22044604925E-16));
#381 = DIRECTION('',(-1.,1.110223024625E-16,-1.232595164408E-32));
#382 = ORIENTED_EDGE('',*,*,#368,.F.);
#383 = ORIENTED_EDGE('',*,*,#228,.F.);
#384 = CYLINDRICAL_SURFACE('',#385,3.05);
#385 = AXIS2_PLACEMENT_3D('',#386,#387,#388);
#386 = CARTESIAN_POINT('',(25.,5.,-5.551115123126E-16));
#387 = DIRECTION('',(1.110223024625E-16,1.,-2.22044604925E-16));
#388 = DIRECTION('',(-1.,1.110223024625E-16,-1.232595164408E-32));
#389 = ADVANCED_FACE('',(#390,#393,#396,#399,#410,#413),#416,.T.);
#390 = FACE_BOUND('',#391,.T.);
#391 = EDGE_LOOP('',(#392));
#392 = ORIENTED_EDGE('',*,*,#251,.F.);
#393 = FACE_BOUND('',#394,.T.);
#394 = EDGE_LOOP('',(#395));
#395 = ORIENTED_EDGE('',*,*,#351,.T.);
#396 = FACE_BOUND('',#397,.T.);
#397 = EDGE_LOOP('',(#398));
#398 = ORIENTED_EDGE('',*,*,#276,.T.);
#399 = FACE_BOUND('',#400,.T.);
#400 = EDGE_LOOP('',(#401));
#401 = ORIENTED_EDGE('',*,*,#402,.T.);
#402 = EDGE_CURVE('',#403,#403,#405,.T.);
#403 = VERTEX_POINT('',#404);
#404 = CARTESIAN_POINT('',(-10.,0.,0.));
#405 = CIRCLE('',#406,10.);
#406 = AXIS2_PLACEMENT_3D('',#407,#408,#409);
#407 = CARTESIAN_POINT('',(-1.232595164408E-31,-1.110223024625E-15,
    1.232595164408E-31));
#408 = DIRECTION('',(1.110223024625E-16,1.,-1.110223024625E-16));
#409 = DIRECTION('',(-1.,1.110223024625E-16,-1.232595164408E-32));
#410 = FACE_BOUND('',#411,.T.);
#411 = EDGE_LOOP('',(#412));
#412 = ORIENTED_EDGE('',*,*,#376,.T.);
#413 = FACE_BOUND('',#414,.T.);
#414 = EDGE_LOOP('',(#415));
#415 = ORIENTED_EDGE('',*,*,#326,.T.);
#416 = PLANE('',#417);
#417 = AXIS2_PLACEMENT_3D('',#418,#419,#420);
#418 = CARTESIAN_POINT('',(-1.232595164408E-31,-1.110223024625E-15,
    1.232595164408E-31));
#419 = DIRECTION('',(-1.110223024625E-16,-1.,1.110223024625E-16));
#420 = DIRECTION('',(1.,-1.110223024625E-16,1.232595164408E-32));
#421 = ADVANCED_FACE('',(#422,#425),#436,.T.);
#422 = FACE_BOUND('',#423,.T.);
#423 = EDGE_LOOP('',(#424));
#424 = ORIENTED_EDGE('',*,*,#303,.T.);
#425 = FACE_BOUND('',#426,.T.);
#426 = EDGE_LOOP('',(#427));
#427 = ORIENTED_EDGE('',*,*,#428,.F.);
#428 = EDGE_CURVE('',#429,#429,#431,.T.);
#429 = VERTEX_POINT('',#430);
#430 = CARTESIAN_POINT('',(-5.1,20.,0.));
#431 = CIRCLE('',#432,5.1);
#432 = AXIS2_PLACEMENT_3D('',#433,#434,#435);
#433 = CARTESIAN_POINT('',(2.22044604925E-15,20.,-2.22044604925E-15));
#434 = DIRECTION('',(1.110223024625E-16,1.,-1.110223024625E-16));
#435 = DIRECTION('',(-1.,1.110223024625E-16,4.353815782844E-16));
#436 = PLANE('',#437);
#437 = AXIS2_PLACEMENT_3D('',#438,#439,#440);
#438 = CARTESIAN_POINT('',(2.22044604925E-15,20.,-2.22044604925E-15));
#439 = DIRECTION('',(1.110223024625E-16,1.,-1.110223024625E-16));
#440 = DIRECTION('',(-1.,1.110223024625E-16,1.586032892322E-16));
#441 = ADVANCED_FACE('',(#442),#461,.F.);
#442 = FACE_BOUND('',#443,.T.);
#443 = EDGE_LOOP('',(#444,#453,#459,#460));
#444 = ORIENTED_EDGE('',*,*,#445,.T.);
#445 = EDGE_CURVE('',#446,#446,#448,.T.);
#446 = VERTEX_POINT('',#447);
#447 = CARTESIAN_POINT('',(-10.,15.,0.));
#448 = CIRCLE('',#449,10.);
#449 = AXIS2_PLACEMENT_3D('',#450,#451,#452);
#450 = CARTESIAN_POINT('',(1.665334536938E-15,15.,-1.665334536938E-15));
#451 = DIRECTION('',(1.110223024625E-16,1.,-1.110223024625E-16));
#452 = DIRECTION('',(-1.,1.110223024625E-16,1.665334536938E-16));
#453 = ORIENTED_EDGE('',*,*,#454,.T.);
#454 = EDGE_CURVE('',#446,#403,#455,.T.);
#455 = LINE('',#456,#457);
#456 = CARTESIAN_POINT('',(-10.,15.,0.));
#457 = VECTOR('',#458,1.);
#458 = DIRECTION('',(0.,-1.,0.));
#459 = ORIENTED_EDGE('',*,*,#402,.F.);
#460 = ORIENTED_EDGE('',*,*,#454,.F.);
#461 = CYLINDRICAL_SURFACE('',#462,10.);
#462 = AXIS2_PLACEMENT_3D('',#463,#464,#465);
#463 = CARTESIAN_POINT('',(1.665334536938E-15,15.,-1.665334536938E-15));
#464 = DIRECTION('',(-1.110223024625E-16,-1.,1.110223024625E-16));
#465 = DIRECTION('',(-1.,1.110223024625E-16,1.665334536938E-16));
#466 = ADVANCED_FACE('',(#467),#486,.F.);
#467 = FACE_BOUND('',#468,.T.);
#468 = EDGE_LOOP('',(#469,#470,#478,#485));
#469 = ORIENTED_EDGE('',*,*,#428,.T.);
#470 = ORIENTED_EDGE('',*,*,#471,.T.);
#471 = EDGE_CURVE('',#429,#472,#474,.T.);
#472 = VERTEX_POINT('',#473);
#473 = CARTESIAN_POINT('',(-5.1,15.,0.));
#474 = LINE('',#475,#476);
#475 = CARTESIAN_POINT('',(-5.1,20.,0.));
#476 = VECTOR('',#477,1.);
#477 = DIRECTION('',(0.,-1.,0.));
#478 = ORIENTED_EDGE('',*,*,#479,.F.);
#479 = EDGE_CURVE('',#472,#472,#480,.T.);
#480 = CIRCLE('',#481,5.1);
#481 = AXIS2_PLACEMENT_3D('',#482,#483,#484);
#482 = CARTESIAN_POINT('',(1.665334536938E-15,15.,-1.665334536938E-15));
#483 = DIRECTION('',(1.110223024625E-16,1.,-1.110223024625E-16));
#484 = DIRECTION('',(-1.,1.110223024625E-16,3.265361837133E-16));
#485 = ORIENTED_EDGE('',*,*,#471,.F.);
#486 = CYLINDRICAL_SURFACE('',#487,5.1);
#487 = AXIS2_PLACEMENT_3D('',#488,#489,#490);
#488 = CARTESIAN_POINT('',(2.22044604925E-15,20.,-2.22044604925E-15));
#489 = DIRECTION('',(-1.110223024625E-16,-1.,1.110223024625E-16));
#490 = DIRECTION('',(-1.,1.110223024625E-16,4.353815782844E-16));
#491 = ADVANCED_FACE('',(#492,#495),#498,.T.);
#492 = FACE_BOUND('',#493,.T.);
#493 = EDGE_LOOP('',(#494));
#494 = ORIENTED_EDGE('',*,*,#479,.T.);
#495 = FACE_BOUND('',#496,.T.);
#496 = EDGE_LOOP('',(#497));
#497 = ORIENTED_EDGE('',*,*,#445,.F.);
#498 = PLANE('',#499);
#499 = AXIS2_PLACEMENT_3D('',#500,#501,#502);
#500 = CARTESIAN_POINT('',(1.665334536938E-15,15.,-1.665334536938E-15));
#501 = DIRECTION('',(-1.110223024625E-16,-1.,1.110223024625E-16));
#502 = DIRECTION('',(1.,-1.110223024625E-16,-3.265361837133E-16));
#503 = ( GEOMETRIC_REPRESENTATION_CONTEXT(3) 
GLOBAL_UNCERTAINTY_ASSIGNED_CONTEXT((#507)) GLOBAL_UNIT_ASSIGNED_CONTEXT
((#504,#505,#506)) REPRESENTATION_CONTEXT('Context #1',
  '3D Context with UNIT and UNCERTAINTY') );
#504 = ( LENGTH_UNIT() NAMED_UNIT(*) SI_UNIT(.MILLI.,.METRE.) );
#505 = ( NAMED_UNIT(*) PLANE_ANGLE_UNIT() SI_UNIT($,.RADIAN.) );
#506 = ( NAMED_UNIT(*) SI_UNIT($,.STERADIAN.) SOLID_ANGLE_UNIT() );
#507 = UNCERTAINTY_MEASURE_WITH_UNIT(LENGTH_MEASURE(1.E-07),#504,
  'distance_accuracy_value','confusion accuracy');
#508 = PRODUCT_RELATED_PRODUCT_CATEGORY('part',$,(#7));
#509 = MECHANICAL_DESIGN_GEOMETRIC_PRESENTATION_REPRESENTATION('',(#510)
  ,#503);
#510 = STYLED_ITEM('color',(#511),#15);
#511 = PRESENTATION_STYLE_ASSIGNMENT((#512,#518));
#512 = SURFACE_STYLE_USAGE(.BOTH.,#513);
#513 = SURFACE_SIDE_STYLE('',(#514));
#514 = SURFACE_STYLE_FILL_AREA(#515);
#515 = FILL_AREA_STYLE('',(#516));
#516 = FILL_AREA_STYLE_COLOUR('',#517);
#517 = COLOUR_RGB('',0.800000010877,0.800000010877,0.800000010877);
#518 = CURVE_STYLE('',#519,POSITIVE_LENGTH_MEASURE(0.1),#520);
#519 = DRAUGHTING_PRE_DEFINED_CURVE_FONT('continuous');
#520 = COLOUR_RGB('',9.803921802644E-02,9.803921802644E-02,
  9.803921802644E-02);
ENDSEC;
END-ISO-10303-21;
