ISO-10303-21;
HEADER;
FILE_DESCRIPTION(('CATIA V5 STEP'),'2;1');

FILE_NAME('X:\\SIC - Groupe Atlantic\\210030 - GABARIT DE POINTAGE GAMME 4000\\3D\\STEP\\210030 04 025 - 0 - BUTEE BASSE.stp','2022-07-05T07:55:04+00:00',('none'),('none'),'CATIA Version 5 Release 19 SP 5 (IN-10)','CATIA V5 STEP AP203 Edition 2','none');

FILE_SCHEMA(('AP203_CONFIGURATION_CONTROLLED_3D_DESIGN_OF_MECHANICAL_PARTS_AND_ASSEMBLIES_MIM_LF  { 1 0 10303 403 2 1 2}'));

ENDSEC;
/* file written by CATIA V5R19 */
DATA;
#5=PRODUCT('210030 04 025 - BUTEE BASSE','','',(#2)) ;
#2=PRODUCT_CONTEXT(' ',#1,'mechanical') ;
#1=APPLICATION_CONTEXT('configuration controlled 3D design of mechanical parts and assemblies') ;
#14=PRODUCT_DEFINITION('',' ',#6,#3) ;
#3=PRODUCT_DEFINITION_CONTEXT('part definition',#1,' ') ;
#15=PRODUCT_DEFINITION_SHAPE(' ',' ',#14) ;
#513=SHAPE_REPRESENTATION_RELATIONSHIP(' ',' ',#24,#512) ;
#34=STYLED_ITEM(' ',(#33),#26) ;
#33=PRESENTATION_STYLE_ASSIGNMENT((#32)) ;
#32=SURFACE_STYLE_USAGE(.BOTH.,#31) ;
#31=SURFACE_SIDE_STYLE(' ',(#30)) ;
#30=SURFACE_STYLE_FILL_AREA(#29) ;
#29=FILL_AREA_STYLE(' ',(#28)) ;
#28=FILL_AREA_STYLE_COLOUR(' ',#27) ;
#43=VECTOR('Line Direction',#42,1.) ;
#59=VECTOR('Line Direction',#58,1.) ;
#100=VECTOR('Line Direction',#99,1.) ;
#116=VECTOR('Line Direction',#115,1.) ;
#157=VECTOR('Line Direction',#156,1.) ;
#166=VECTOR('Line Direction',#165,1.) ;
#173=VECTOR('Line Direction',#172,1.) ;
#180=VECTOR('Line Direction',#179,1.) ;
#197=VECTOR('Line Direction',#196,1.) ;
#206=VECTOR('Line Direction',#205,1.) ;
#213=VECTOR('Line Direction',#212,1.) ;
#218=VECTOR('Line Direction',#217,1.) ;
#225=VECTOR('Line Direction',#224,1.) ;
#252=VECTOR('Line Direction',#251,1.) ;
#259=VECTOR('Line Direction',#258,1.) ;
#266=VECTOR('Line Direction',#265,1.) ;
#273=VECTOR('Line Direction',#272,1.) ;
#280=VECTOR('Line Direction',#279,1.) ;
#307=VECTOR('Line Direction',#306,1.) ;
#324=VECTOR('Line Direction',#323,1.) ;
#341=VECTOR('Line Direction',#340,1.) ;
#348=VECTOR('Line Direction',#347,1.) ;
#355=VECTOR('Line Direction',#354,1.) ;
#374=VECTOR('Line Direction',#373,1.) ;
#381=VECTOR('Line Direction',#380,1.) ;
#388=VECTOR('Line Direction',#387,1.) ;
#405=VECTOR('Line Direction',#404,1.) ;
#414=VECTOR('Line Direction',#413,1.) ;
#419=VECTOR('Line Direction',#418,1.) ;
#438=VECTOR('Line Direction',#437,1.) ;
#445=VECTOR('Line Direction',#444,1.) ;
#464=VECTOR('Line Direction',#463,1.) ;
#471=VECTOR('Line Direction',#470,1.) ;
#488=VECTOR('Line Direction',#487,1.) ;
#37=DIRECTION('Axis2P3D Direction',(0.,0.,-1.)) ;
#38=DIRECTION('Axis2P3D XDirection',(-0.87758256189,0.479425538604,-0.)) ;
#42=DIRECTION('Vector Direction',(0.,0.,-1.)) ;
#51=DIRECTION('Axis2P3D Direction',(0.,0.,-1.)) ;
#58=DIRECTION('Vector Direction',(0.,0.,-1.)) ;
#65=DIRECTION('Axis2P3D Direction',(0.,0.,-1.)) ;
#77=DIRECTION('Axis2P3D Direction',(0.,0.,-1.)) ;
#82=DIRECTION('Axis2P3D Direction',(0.,0.,-1.)) ;
#94=DIRECTION('Axis2P3D Direction',(0.,0.,-1.)) ;
#95=DIRECTION('Axis2P3D XDirection',(0.87758256189,-0.479425538604,0.)) ;
#99=DIRECTION('Vector Direction',(0.,0.,-1.)) ;
#108=DIRECTION('Axis2P3D Direction',(0.,0.,-1.)) ;
#115=DIRECTION('Vector Direction',(0.,0.,-1.)) ;
#122=DIRECTION('Axis2P3D Direction',(0.,0.,-1.)) ;
#134=DIRECTION('Axis2P3D Direction',(0.,0.,-1.)) ;
#139=DIRECTION('Axis2P3D Direction',(0.,0.,-1.)) ;
#151=DIRECTION('Axis2P3D Direction',(-0.707106781187,-0.707106781187,-0.)) ;
#152=DIRECTION('Axis2P3D XDirection',(0.,0.,-1.)) ;
#156=DIRECTION('Vector Direction',(0.,0.,-1.)) ;
#165=DIRECTION('Vector Direction',(0.707106781187,-0.707106781187,0.)) ;
#172=DIRECTION('Vector Direction',(0.,0.,-1.)) ;
#179=DIRECTION('Vector Direction',(0.707106781187,-0.707106781187,0.)) ;
#191=DIRECTION('Axis2P3D Direction',(-0.,0.,1.)) ;
#192=DIRECTION('Axis2P3D XDirection',(0.,-1.,0.)) ;
#196=DIRECTION('Vector Direction',(0.,-1.,0.)) ;
#205=DIRECTION('Vector Direction',(1.,0.,0.)) ;
#212=DIRECTION('Vector Direction',(0.,-1.,0.)) ;
#217=DIRECTION('Vector Direction',(1.,0.,0.)) ;
#224=DIRECTION('Vector Direction',(-0.707106781187,-0.707106781187,0.)) ;
#246=DIRECTION('Axis2P3D Direction',(0.,0.,-1.)) ;
#247=DIRECTION('Axis2P3D XDirection',(0.,1.,0.)) ;
#251=DIRECTION('Vector Direction',(1.,0.,0.)) ;
#258=DIRECTION('Vector Direction',(0.,1.,0.)) ;
#265=DIRECTION('Vector Direction',(1.,0.,0.)) ;
#272=DIRECTION('Vector Direction',(0.,1.,0.)) ;
#279=DIRECTION('Vector Direction',(-0.707106781187,-0.707106781187,0.)) ;
#301=DIRECTION('Axis2P3D Direction',(0.,1.,0.)) ;
#302=DIRECTION('Axis2P3D XDirection',(0.,0.,1.)) ;
#306=DIRECTION('Vector Direction',(0.,0.,-1.)) ;
#318=DIRECTION('Axis2P3D Direction',(-0.707106781187,0.707106781187,0.)) ;
#319=DIRECTION('Axis2P3D XDirection',(0.,0.,-1.)) ;
#323=DIRECTION('Vector Direction',(0.,0.,-1.)) ;
#335=DIRECTION('Axis2P3D Direction',(1.,0.,0.)) ;
#336=DIRECTION('Axis2P3D XDirection',(0.,1.,0.)) ;
#340=DIRECTION('Vector Direction',(0.,0.,1.)) ;
#347=DIRECTION('Vector Direction',(0.,0.,-1.)) ;
#354=DIRECTION('Vector Direction',(0.,-1.,0.)) ;
#368=DIRECTION('Axis2P3D Direction',(-0.707106781187,0.,0.707106781187)) ;
#369=DIRECTION('Axis2P3D XDirection',(0.,-1.,0.)) ;
#373=DIRECTION('Vector Direction',(0.707106781187,0.,0.707106781187)) ;
#380=DIRECTION('Vector Direction',(0.,-1.,0.)) ;
#387=DIRECTION('Vector Direction',(0.707106781187,0.,0.707106781187)) ;
#399=DIRECTION('Axis2P3D Direction',(1.,0.,0.)) ;
#400=DIRECTION('Axis2P3D XDirection',(0.,1.,0.)) ;
#404=DIRECTION('Vector Direction',(0.,-1.,0.)) ;
#413=DIRECTION('Vector Direction',(0.,0.,-1.)) ;
#418=DIRECTION('Vector Direction',(0.,0.,1.)) ;
#432=DIRECTION('Axis2P3D Direction',(0.,-1.,0.)) ;
#433=DIRECTION('Axis2P3D XDirection',(0.,0.,-1.)) ;
#437=DIRECTION('Vector Direction',(1.,0.,0.)) ;
#444=DIRECTION('Vector Direction',(-0.707106781187,0.,0.707106781187)) ;
#458=DIRECTION('Axis2P3D Direction',(0.,0.,-1.)) ;
#459=DIRECTION('Axis2P3D XDirection',(0.,1.,0.)) ;
#463=DIRECTION('Vector Direction',(1.,0.,0.)) ;
#470=DIRECTION('Vector Direction',(0.,-1.,0.)) ;
#482=DIRECTION('Axis2P3D Direction',(0.,1.,0.)) ;
#483=DIRECTION('Axis2P3D XDirection',(0.,0.,1.)) ;
#487=DIRECTION('Vector Direction',(-0.707106781187,0.,0.707106781187)) ;
#501=DIRECTION('Axis2P3D Direction',(-0.707106781187,-0.,-0.707106781187)) ;
#502=DIRECTION('Axis2P3D XDirection',(0.,-1.,0.)) ;
#22=CARTESIAN_POINT(' ',(0.,0.,0.)) ;
#36=CARTESIAN_POINT('Axis2P3D Location',(8.,7.,4.9)) ;
#41=CARTESIAN_POINT('Line Origine',(10.4133520452,5.68157976884,-1.5)) ;
#45=CARTESIAN_POINT('Vertex',(10.4133520452,5.68157976884,0.)) ;
#47=CARTESIAN_POINT('Vertex',(10.4133520452,5.68157976884,5.)) ;
#50=CARTESIAN_POINT('Axis2P3D Location',(8.,7.,0.)) ;
#54=CARTESIAN_POINT('Vertex',(5.5866479548,8.31842023116,0.)) ;
#57=CARTESIAN_POINT('Line Origine',(5.5866479548,8.31842023116,-1.5)) ;
#61=CARTESIAN_POINT('Vertex',(5.5866479548,8.31842023116,5.)) ;
#64=CARTESIAN_POINT('Axis2P3D Location',(8.,7.,5.)) ;
#76=CARTESIAN_POINT('Axis2P3D Location',(8.,7.,0.)) ;
#81=CARTESIAN_POINT('Axis2P3D Location',(8.,7.,5.)) ;
#93=CARTESIAN_POINT('Axis2P3D Location',(-8.,7.,4.9)) ;
#98=CARTESIAN_POINT('Line Origine',(-10.4133520452,8.31842023116,-1.5)) ;
#102=CARTESIAN_POINT('Vertex',(-10.4133520452,8.31842023116,0.)) ;
#104=CARTESIAN_POINT('Vertex',(-10.4133520452,8.31842023116,5.)) ;
#107=CARTESIAN_POINT('Axis2P3D Location',(-8.,7.,0.)) ;
#111=CARTESIAN_POINT('Vertex',(-5.5866479548,5.68157976884,0.)) ;
#114=CARTESIAN_POINT('Line Origine',(-5.5866479548,5.68157976884,-1.5)) ;
#118=CARTESIAN_POINT('Vertex',(-5.5866479548,5.68157976884,5.)) ;
#121=CARTESIAN_POINT('Axis2P3D Location',(-8.,7.,5.)) ;
#133=CARTESIAN_POINT('Axis2P3D Location',(-8.,7.,0.)) ;
#138=CARTESIAN_POINT('Axis2P3D Location',(-8.,7.,5.)) ;
#150=CARTESIAN_POINT('Axis2P3D Location',(12.,14.,7.6)) ;
#155=CARTESIAN_POINT('Line Origine',(14.,12.,-1.5)) ;
#159=CARTESIAN_POINT('Vertex',(14.,12.,0.)) ;
#161=CARTESIAN_POINT('Vertex',(14.,12.,5.)) ;
#164=CARTESIAN_POINT('Line Origine',(13.,13.,2.6645352591E-015)) ;
#168=CARTESIAN_POINT('Vertex',(12.,14.,0.)) ;
#171=CARTESIAN_POINT('Line Origine',(12.,14.,-1.5)) ;
#175=CARTESIAN_POINT('Vertex',(12.,14.,5.)) ;
#178=CARTESIAN_POINT('Line Origine',(13.,13.,5.)) ;
#190=CARTESIAN_POINT('Axis2P3D Location',(0.,14.,5.)) ;
#195=CARTESIAN_POINT('Line Origine',(-14.,4.75,5.)) ;
#199=CARTESIAN_POINT('Vertex',(-14.,12.,5.)) ;
#201=CARTESIAN_POINT('Vertex',(-14.,-2.5,5.)) ;
#204=CARTESIAN_POINT('Line Origine',(0.,-2.5,5.)) ;
#208=CARTESIAN_POINT('Vertex',(14.,-2.5,5.)) ;
#211=CARTESIAN_POINT('Line Origine',(14.,4.75,5.)) ;
#216=CARTESIAN_POINT('Line Origine',(-1.7763568394E-015,14.,5.)) ;
#220=CARTESIAN_POINT('Vertex',(-12.,14.,5.)) ;
#223=CARTESIAN_POINT('Line Origine',(-13.,13.,5.)) ;
#245=CARTESIAN_POINT('Axis2P3D Location',(0.,0.,0.)) ;
#250=CARTESIAN_POINT('Line Origine',(-1.7763568394E-015,14.,0.)) ;
#254=CARTESIAN_POINT('Vertex',(-12.,14.,0.)) ;
#257=CARTESIAN_POINT('Line Origine',(14.,6.,0.)) ;
#261=CARTESIAN_POINT('Vertex',(14.,0.,0.)) ;
#264=CARTESIAN_POINT('Line Origine',(0.,0.,0.)) ;
#268=CARTESIAN_POINT('Vertex',(-14.,0.,0.)) ;
#271=CARTESIAN_POINT('Line Origine',(-14.,6.,0.)) ;
#275=CARTESIAN_POINT('Vertex',(-14.,12.,0.)) ;
#278=CARTESIAN_POINT('Line Origine',(-13.,13.,0.)) ;
#300=CARTESIAN_POINT('Axis2P3D Location',(0.,14.,0.)) ;
#305=CARTESIAN_POINT('Line Origine',(-12.,14.,2.5)) ;
#317=CARTESIAN_POINT('Axis2P3D Location',(-12.,14.,7.6)) ;
#322=CARTESIAN_POINT('Line Origine',(-14.,12.,-1.5)) ;
#334=CARTESIAN_POINT('Axis2P3D Location',(14.,0.,0.)) ;
#339=CARTESIAN_POINT('Line Origine',(14.,0.,-3.)) ;
#343=CARTESIAN_POINT('Vertex',(14.,0.,-6.)) ;
#346=CARTESIAN_POINT('Line Origine',(14.,-2.5,-0.5)) ;
#350=CARTESIAN_POINT('Vertex',(14.,-2.5,-6.)) ;
#353=CARTESIAN_POINT('Line Origine',(14.,-1.25,-6.)) ;
#367=CARTESIAN_POINT('Axis2P3D Location',(12.,14.9,-8.)) ;
#372=CARTESIAN_POINT('Line Origine',(13.,-2.5,-7.)) ;
#376=CARTESIAN_POINT('Vertex',(12.,-2.5,-8.)) ;
#379=CARTESIAN_POINT('Line Origine',(12.,4.75,-8.)) ;
#383=CARTESIAN_POINT('Vertex',(12.,0.,-8.)) ;
#386=CARTESIAN_POINT('Line Origine',(13.,8.881784197E-015,-7.)) ;
#398=CARTESIAN_POINT('Axis2P3D Location',(-14.,0.,0.)) ;
#403=CARTESIAN_POINT('Line Origine',(-14.,-1.25,-6.)) ;
#407=CARTESIAN_POINT('Vertex',(-14.,-2.5,-6.)) ;
#409=CARTESIAN_POINT('Vertex',(-14.,0.,-6.)) ;
#412=CARTESIAN_POINT('Line Origine',(-14.,-2.5,-0.5)) ;
#417=CARTESIAN_POINT('Line Origine',(-14.,0.,-3.)) ;
#431=CARTESIAN_POINT('Axis2P3D Location',(0.,-2.5,5.)) ;
#436=CARTESIAN_POINT('Line Origine',(-1.7763568394E-015,-2.5,-8.)) ;
#440=CARTESIAN_POINT('Vertex',(-12.,-2.5,-8.)) ;
#443=CARTESIAN_POINT('Line Origine',(-13.,-2.5,-7.)) ;
#457=CARTESIAN_POINT('Axis2P3D Location',(0.,-2.5,-8.)) ;
#462=CARTESIAN_POINT('Line Origine',(-1.7763568394E-015,0.,-8.)) ;
#466=CARTESIAN_POINT('Vertex',(-12.,0.,-8.)) ;
#469=CARTESIAN_POINT('Line Origine',(-12.,-1.25,-8.)) ;
#481=CARTESIAN_POINT('Axis2P3D Location',(0.,0.,-8.)) ;
#486=CARTESIAN_POINT('Line Origine',(-13.,0.,-7.)) ;
#500=CARTESIAN_POINT('Axis2P3D Location',(-12.,14.9,-8.)) ;
#514=MECHANICAL_DESIGN_GEOMETRIC_PRESENTATION_REPRESENTATION(' ',(#34),#21) ;
#24=SHAPE_REPRESENTATION(' ',(#23),#21) ;
#23=AXIS2_PLACEMENT_3D(' ',#22,$,$) ;
#39=AXIS2_PLACEMENT_3D('Cylinder Axis2P3D',#36,#37,#38) ;
#52=AXIS2_PLACEMENT_3D('Circle Axis2P3D',#50,#51,$) ;
#66=AXIS2_PLACEMENT_3D('Circle Axis2P3D',#64,#65,$) ;
#78=AXIS2_PLACEMENT_3D('Circle Axis2P3D',#76,#77,$) ;
#83=AXIS2_PLACEMENT_3D('Circle Axis2P3D',#81,#82,$) ;
#96=AXIS2_PLACEMENT_3D('Cylinder Axis2P3D',#93,#94,#95) ;
#109=AXIS2_PLACEMENT_3D('Circle Axis2P3D',#107,#108,$) ;
#123=AXIS2_PLACEMENT_3D('Circle Axis2P3D',#121,#122,$) ;
#135=AXIS2_PLACEMENT_3D('Circle Axis2P3D',#133,#134,$) ;
#140=AXIS2_PLACEMENT_3D('Circle Axis2P3D',#138,#139,$) ;
#153=AXIS2_PLACEMENT_3D('Plane Axis2P3D',#150,#151,#152) ;
#193=AXIS2_PLACEMENT_3D('Plane Axis2P3D',#190,#191,#192) ;
#248=AXIS2_PLACEMENT_3D('Plane Axis2P3D',#245,#246,#247) ;
#303=AXIS2_PLACEMENT_3D('Plane Axis2P3D',#300,#301,#302) ;
#320=AXIS2_PLACEMENT_3D('Plane Axis2P3D',#317,#318,#319) ;
#337=AXIS2_PLACEMENT_3D('Plane Axis2P3D',#334,#335,#336) ;
#370=AXIS2_PLACEMENT_3D('Plane Axis2P3D',#367,#368,#369) ;
#401=AXIS2_PLACEMENT_3D('Plane Axis2P3D',#398,#399,#400) ;
#434=AXIS2_PLACEMENT_3D('Plane Axis2P3D',#431,#432,#433) ;
#460=AXIS2_PLACEMENT_3D('Plane Axis2P3D',#457,#458,#459) ;
#484=AXIS2_PLACEMENT_3D('Plane Axis2P3D',#481,#482,#483) ;
#503=AXIS2_PLACEMENT_3D('Plane Axis2P3D',#500,#501,#502) ;
#13=DATE_AND_TIME(#11,#12) ;
#12=LOCAL_TIME(9,55,4.,#10) ;
#10=COORDINATED_UNIVERSAL_TIME_OFFSET(0,0,.AHEAD.) ;
#7=PRODUCT_CATEGORY('part','specification') ;
#11=CALENDAR_DATE(2022,5,7) ;
#8=PRODUCT_RELATED_PRODUCT_CATEGORY('part',$,(#5)) ;
#20=UNCERTAINTY_MEASURE_WITH_UNIT(LENGTH_MEASURE(0.005),#16,'distance_accuracy_value','CONFUSED CURVE UNCERTAINTY') ;
#239=FACE_BOUND('',#236,.T.) ;
#243=FACE_BOUND('',#240,.T.) ;
#294=FACE_BOUND('',#291,.T.) ;
#298=FACE_BOUND('',#295,.T.) ;
#49=EDGE_CURVE('',#46,#48,#44,.F.) ;
#56=EDGE_CURVE('',#46,#55,#53,.T.) ;
#63=EDGE_CURVE('',#55,#62,#60,.F.) ;
#68=EDGE_CURVE('',#62,#48,#67,.F.) ;
#80=EDGE_CURVE('',#55,#46,#79,.T.) ;
#85=EDGE_CURVE('',#48,#62,#84,.F.) ;
#106=EDGE_CURVE('',#103,#105,#101,.F.) ;
#113=EDGE_CURVE('',#103,#112,#110,.T.) ;
#120=EDGE_CURVE('',#112,#119,#117,.F.) ;
#125=EDGE_CURVE('',#119,#105,#124,.F.) ;
#137=EDGE_CURVE('',#112,#103,#136,.T.) ;
#142=EDGE_CURVE('',#105,#119,#141,.F.) ;
#163=EDGE_CURVE('',#160,#162,#158,.F.) ;
#170=EDGE_CURVE('',#160,#169,#167,.F.) ;
#177=EDGE_CURVE('',#169,#176,#174,.F.) ;
#182=EDGE_CURVE('',#176,#162,#181,.T.) ;
#203=EDGE_CURVE('',#200,#202,#198,.T.) ;
#210=EDGE_CURVE('',#202,#209,#207,.T.) ;
#215=EDGE_CURVE('',#162,#209,#214,.T.) ;
#222=EDGE_CURVE('',#221,#176,#219,.T.) ;
#227=EDGE_CURVE('',#200,#221,#226,.F.) ;
#256=EDGE_CURVE('',#255,#169,#253,.T.) ;
#263=EDGE_CURVE('',#262,#160,#260,.T.) ;
#270=EDGE_CURVE('',#269,#262,#267,.T.) ;
#277=EDGE_CURVE('',#269,#276,#274,.T.) ;
#282=EDGE_CURVE('',#255,#276,#281,.T.) ;
#309=EDGE_CURVE('',#255,#221,#308,.F.) ;
#326=EDGE_CURVE('',#276,#200,#325,.F.) ;
#345=EDGE_CURVE('',#344,#262,#342,.T.) ;
#352=EDGE_CURVE('',#209,#351,#349,.T.) ;
#357=EDGE_CURVE('',#351,#344,#356,.F.) ;
#378=EDGE_CURVE('',#351,#377,#375,.F.) ;
#385=EDGE_CURVE('',#377,#384,#382,.F.) ;
#390=EDGE_CURVE('',#384,#344,#389,.T.) ;
#411=EDGE_CURVE('',#408,#410,#406,.F.) ;
#416=EDGE_CURVE('',#202,#408,#415,.T.) ;
#421=EDGE_CURVE('',#410,#269,#420,.T.) ;
#442=EDGE_CURVE('',#441,#377,#439,.T.) ;
#447=EDGE_CURVE('',#441,#408,#446,.T.) ;
#468=EDGE_CURVE('',#467,#384,#465,.T.) ;
#473=EDGE_CURVE('',#441,#467,#472,.F.) ;
#490=EDGE_CURVE('',#410,#467,#489,.F.) ;
#154=PLANE('Plane',#153) ;
#194=PLANE('Plane',#193) ;
#249=PLANE('Plane',#248) ;
#304=PLANE('Plane',#303) ;
#321=PLANE('Plane',#320) ;
#338=PLANE('Plane',#337) ;
#371=PLANE('Plane',#370) ;
#402=PLANE('Plane',#401) ;
#435=PLANE('Plane',#434) ;
#461=PLANE('Plane',#460) ;
#485=PLANE('Plane',#484) ;
#504=PLANE('Plane',#503) ;
#70=ORIENTED_EDGE('',*,*,#49,.F.) ;
#71=ORIENTED_EDGE('',*,*,#56,.T.) ;
#72=ORIENTED_EDGE('',*,*,#63,.T.) ;
#73=ORIENTED_EDGE('',*,*,#68,.T.) ;
#87=ORIENTED_EDGE('',*,*,#63,.F.) ;
#88=ORIENTED_EDGE('',*,*,#80,.T.) ;
#89=ORIENTED_EDGE('',*,*,#49,.T.) ;
#90=ORIENTED_EDGE('',*,*,#85,.T.) ;
#127=ORIENTED_EDGE('',*,*,#106,.F.) ;
#128=ORIENTED_EDGE('',*,*,#113,.T.) ;
#129=ORIENTED_EDGE('',*,*,#120,.T.) ;
#130=ORIENTED_EDGE('',*,*,#125,.T.) ;
#144=ORIENTED_EDGE('',*,*,#120,.F.) ;
#145=ORIENTED_EDGE('',*,*,#137,.T.) ;
#146=ORIENTED_EDGE('',*,*,#106,.T.) ;
#147=ORIENTED_EDGE('',*,*,#142,.T.) ;
#184=ORIENTED_EDGE('',*,*,#163,.F.) ;
#185=ORIENTED_EDGE('',*,*,#170,.T.) ;
#186=ORIENTED_EDGE('',*,*,#177,.T.) ;
#187=ORIENTED_EDGE('',*,*,#182,.T.) ;
#229=ORIENTED_EDGE('',*,*,#203,.T.) ;
#230=ORIENTED_EDGE('',*,*,#210,.T.) ;
#231=ORIENTED_EDGE('',*,*,#215,.F.) ;
#232=ORIENTED_EDGE('',*,*,#182,.F.) ;
#233=ORIENTED_EDGE('',*,*,#222,.F.) ;
#234=ORIENTED_EDGE('',*,*,#227,.F.) ;
#237=ORIENTED_EDGE('',*,*,#85,.F.) ;
#238=ORIENTED_EDGE('',*,*,#68,.F.) ;
#241=ORIENTED_EDGE('',*,*,#142,.F.) ;
#242=ORIENTED_EDGE('',*,*,#125,.F.) ;
#284=ORIENTED_EDGE('',*,*,#256,.T.) ;
#285=ORIENTED_EDGE('',*,*,#170,.F.) ;
#286=ORIENTED_EDGE('',*,*,#263,.F.) ;
#287=ORIENTED_EDGE('',*,*,#270,.F.) ;
#288=ORIENTED_EDGE('',*,*,#277,.T.) ;
#289=ORIENTED_EDGE('',*,*,#282,.F.) ;
#292=ORIENTED_EDGE('',*,*,#80,.F.) ;
#293=ORIENTED_EDGE('',*,*,#56,.F.) ;
#296=ORIENTED_EDGE('',*,*,#137,.F.) ;
#297=ORIENTED_EDGE('',*,*,#113,.F.) ;
#311=ORIENTED_EDGE('',*,*,#222,.T.) ;
#312=ORIENTED_EDGE('',*,*,#177,.F.) ;
#313=ORIENTED_EDGE('',*,*,#256,.F.) ;
#314=ORIENTED_EDGE('',*,*,#309,.T.) ;
#328=ORIENTED_EDGE('',*,*,#227,.T.) ;
#329=ORIENTED_EDGE('',*,*,#309,.F.) ;
#330=ORIENTED_EDGE('',*,*,#282,.T.) ;
#331=ORIENTED_EDGE('',*,*,#326,.T.) ;
#359=ORIENTED_EDGE('',*,*,#345,.T.) ;
#360=ORIENTED_EDGE('',*,*,#263,.T.) ;
#361=ORIENTED_EDGE('',*,*,#163,.T.) ;
#362=ORIENTED_EDGE('',*,*,#215,.T.) ;
#363=ORIENTED_EDGE('',*,*,#352,.T.) ;
#364=ORIENTED_EDGE('',*,*,#357,.T.) ;
#392=ORIENTED_EDGE('',*,*,#357,.F.) ;
#393=ORIENTED_EDGE('',*,*,#378,.T.) ;
#394=ORIENTED_EDGE('',*,*,#385,.T.) ;
#395=ORIENTED_EDGE('',*,*,#390,.T.) ;
#423=ORIENTED_EDGE('',*,*,#411,.F.) ;
#424=ORIENTED_EDGE('',*,*,#416,.F.) ;
#425=ORIENTED_EDGE('',*,*,#203,.F.) ;
#426=ORIENTED_EDGE('',*,*,#326,.F.) ;
#427=ORIENTED_EDGE('',*,*,#277,.F.) ;
#428=ORIENTED_EDGE('',*,*,#421,.F.) ;
#449=ORIENTED_EDGE('',*,*,#442,.T.) ;
#450=ORIENTED_EDGE('',*,*,#378,.F.) ;
#451=ORIENTED_EDGE('',*,*,#352,.F.) ;
#452=ORIENTED_EDGE('',*,*,#210,.F.) ;
#453=ORIENTED_EDGE('',*,*,#416,.T.) ;
#454=ORIENTED_EDGE('',*,*,#447,.F.) ;
#475=ORIENTED_EDGE('',*,*,#468,.T.) ;
#476=ORIENTED_EDGE('',*,*,#385,.F.) ;
#477=ORIENTED_EDGE('',*,*,#442,.F.) ;
#478=ORIENTED_EDGE('',*,*,#473,.T.) ;
#492=ORIENTED_EDGE('',*,*,#421,.T.) ;
#493=ORIENTED_EDGE('',*,*,#270,.T.) ;
#494=ORIENTED_EDGE('',*,*,#345,.F.) ;
#495=ORIENTED_EDGE('',*,*,#390,.F.) ;
#496=ORIENTED_EDGE('',*,*,#468,.F.) ;
#497=ORIENTED_EDGE('',*,*,#490,.F.) ;
#506=ORIENTED_EDGE('',*,*,#490,.T.) ;
#507=ORIENTED_EDGE('',*,*,#473,.F.) ;
#508=ORIENTED_EDGE('',*,*,#447,.T.) ;
#509=ORIENTED_EDGE('',*,*,#411,.T.) ;
#35=CLOSED_SHELL('Closed Shell',(#75,#92,#132,#149,#189,#244,#299,#316,#333,#366,#397,#430,#456,#480,#499,#511)) ;
#512=ADVANCED_BREP_SHAPE_REPRESENTATION('NONE',(#26),#21) ;
#6=PRODUCT_DEFINITION_FORMATION_WITH_SPECIFIED_SOURCE('',' ',#5,.NOT_KNOWN.) ;
#44=LINE('Line',#41,#43) ;
#60=LINE('Line',#57,#59) ;
#101=LINE('Line',#98,#100) ;
#117=LINE('Line',#114,#116) ;
#158=LINE('Line',#155,#157) ;
#167=LINE('Line',#164,#166) ;
#174=LINE('Line',#171,#173) ;
#181=LINE('Line',#178,#180) ;
#198=LINE('Line',#195,#197) ;
#207=LINE('Line',#204,#206) ;
#214=LINE('Line',#211,#213) ;
#219=LINE('Line',#216,#218) ;
#226=LINE('Line',#223,#225) ;
#253=LINE('Line',#250,#252) ;
#260=LINE('Line',#257,#259) ;
#267=LINE('Line',#264,#266) ;
#274=LINE('Line',#271,#273) ;
#281=LINE('Line',#278,#280) ;
#308=LINE('Line',#305,#307) ;
#325=LINE('Line',#322,#324) ;
#342=LINE('Line',#339,#341) ;
#349=LINE('Line',#346,#348) ;
#356=LINE('Line',#353,#355) ;
#375=LINE('Line',#372,#374) ;
#382=LINE('Line',#379,#381) ;
#389=LINE('Line',#386,#388) ;
#406=LINE('Line',#403,#405) ;
#415=LINE('Line',#412,#414) ;
#420=LINE('Line',#417,#419) ;
#439=LINE('Line',#436,#438) ;
#446=LINE('Line',#443,#445) ;
#465=LINE('Line',#462,#464) ;
#472=LINE('Line',#469,#471) ;
#489=LINE('Line',#486,#488) ;
#75=ADVANCED_FACE('Corps principal',(#74),#40,.F.) ;
#92=ADVANCED_FACE('Corps principal',(#91),#40,.F.) ;
#132=ADVANCED_FACE('Corps principal',(#131),#97,.F.) ;
#149=ADVANCED_FACE('Corps principal',(#148),#97,.F.) ;
#189=ADVANCED_FACE('Corps principal',(#188),#154,.F.) ;
#244=ADVANCED_FACE('Corps principal',(#235,#239,#243),#194,.T.) ;
#299=ADVANCED_FACE('Corps principal',(#290,#294,#298),#249,.T.) ;
#316=ADVANCED_FACE('Corps principal',(#315),#304,.T.) ;
#333=ADVANCED_FACE('Corps principal',(#332),#321,.T.) ;
#366=ADVANCED_FACE('Corps principal',(#365),#338,.T.) ;
#397=ADVANCED_FACE('Corps principal',(#396),#371,.F.) ;
#430=ADVANCED_FACE('Corps principal',(#429),#402,.F.) ;
#456=ADVANCED_FACE('Corps principal',(#455),#435,.T.) ;
#480=ADVANCED_FACE('Corps principal',(#479),#461,.T.) ;
#499=ADVANCED_FACE('Corps principal',(#498),#485,.T.) ;
#511=ADVANCED_FACE('Corps principal',(#510),#504,.T.) ;
#53=CIRCLE('generated circle',#52,2.75) ;
#67=CIRCLE('generated circle',#66,2.75) ;
#79=CIRCLE('generated circle',#78,2.75) ;
#84=CIRCLE('generated circle',#83,2.75) ;
#110=CIRCLE('generated circle',#109,2.75) ;
#124=CIRCLE('generated circle',#123,2.75) ;
#136=CIRCLE('generated circle',#135,2.75) ;
#141=CIRCLE('generated circle',#140,2.75) ;
#40=CYLINDRICAL_SURFACE('generated cylinder',#39,2.75) ;
#97=CYLINDRICAL_SURFACE('generated cylinder',#96,2.75) ;
#46=VERTEX_POINT('',#45) ;
#48=VERTEX_POINT('',#47) ;
#55=VERTEX_POINT('',#54) ;
#62=VERTEX_POINT('',#61) ;
#103=VERTEX_POINT('',#102) ;
#105=VERTEX_POINT('',#104) ;
#112=VERTEX_POINT('',#111) ;
#119=VERTEX_POINT('',#118) ;
#160=VERTEX_POINT('',#159) ;
#162=VERTEX_POINT('',#161) ;
#169=VERTEX_POINT('',#168) ;
#176=VERTEX_POINT('',#175) ;
#200=VERTEX_POINT('',#199) ;
#202=VERTEX_POINT('',#201) ;
#209=VERTEX_POINT('',#208) ;
#221=VERTEX_POINT('',#220) ;
#255=VERTEX_POINT('',#254) ;
#262=VERTEX_POINT('',#261) ;
#269=VERTEX_POINT('',#268) ;
#276=VERTEX_POINT('',#275) ;
#344=VERTEX_POINT('',#343) ;
#351=VERTEX_POINT('',#350) ;
#377=VERTEX_POINT('',#376) ;
#384=VERTEX_POINT('',#383) ;
#408=VERTEX_POINT('',#407) ;
#410=VERTEX_POINT('',#409) ;
#441=VERTEX_POINT('',#440) ;
#467=VERTEX_POINT('',#466) ;
#27=COLOUR_RGB('Colour',0.823529411765,0.823529411765,1.) ;
#26=MANIFOLD_SOLID_BREP('Corps principal',#35) ;
#25=SHAPE_DEFINITION_REPRESENTATION(#15,#24) ;
#9=PRODUCT_CATEGORY_RELATIONSHIP(' ',' ',#7,#8) ;
#18=PLANE_ANGLE_MEASURE_WITH_UNIT(PLANE_ANGLE_MEASURE(0.0174532925199),#17) ;
#4=APPLICATION_PROTOCOL_DEFINITION('draft international standard','configuration_control_3d_design_ed2_mim',2004,#1) ;
#69=EDGE_LOOP('',(#70,#71,#72,#73)) ;
#86=EDGE_LOOP('',(#87,#88,#89,#90)) ;
#126=EDGE_LOOP('',(#127,#128,#129,#130)) ;
#143=EDGE_LOOP('',(#144,#145,#146,#147)) ;
#183=EDGE_LOOP('',(#184,#185,#186,#187)) ;
#228=EDGE_LOOP('',(#229,#230,#231,#232,#233,#234)) ;
#236=EDGE_LOOP('',(#237,#238)) ;
#240=EDGE_LOOP('',(#241,#242)) ;
#283=EDGE_LOOP('',(#284,#285,#286,#287,#288,#289)) ;
#291=EDGE_LOOP('',(#292,#293)) ;
#295=EDGE_LOOP('',(#296,#297)) ;
#310=EDGE_LOOP('',(#311,#312,#313,#314)) ;
#327=EDGE_LOOP('',(#328,#329,#330,#331)) ;
#358=EDGE_LOOP('',(#359,#360,#361,#362,#363,#364)) ;
#391=EDGE_LOOP('',(#392,#393,#394,#395)) ;
#422=EDGE_LOOP('',(#423,#424,#425,#426,#427,#428)) ;
#448=EDGE_LOOP('',(#449,#450,#451,#452,#453,#454)) ;
#474=EDGE_LOOP('',(#475,#476,#477,#478)) ;
#491=EDGE_LOOP('',(#492,#493,#494,#495,#496,#497)) ;
#505=EDGE_LOOP('',(#506,#507,#508,#509)) ;
#74=FACE_OUTER_BOUND('',#69,.T.) ;
#91=FACE_OUTER_BOUND('',#86,.T.) ;
#131=FACE_OUTER_BOUND('',#126,.T.) ;
#148=FACE_OUTER_BOUND('',#143,.T.) ;
#188=FACE_OUTER_BOUND('',#183,.T.) ;
#235=FACE_OUTER_BOUND('',#228,.T.) ;
#290=FACE_OUTER_BOUND('',#283,.T.) ;
#315=FACE_OUTER_BOUND('',#310,.T.) ;
#332=FACE_OUTER_BOUND('',#327,.T.) ;
#365=FACE_OUTER_BOUND('',#358,.T.) ;
#396=FACE_OUTER_BOUND('',#391,.T.) ;
#429=FACE_OUTER_BOUND('',#422,.T.) ;
#455=FACE_OUTER_BOUND('',#448,.T.) ;
#479=FACE_OUTER_BOUND('',#474,.T.) ;
#498=FACE_OUTER_BOUND('',#491,.T.) ;
#510=FACE_OUTER_BOUND('',#505,.T.) ;
#16=(LENGTH_UNIT()NAMED_UNIT(*)SI_UNIT(.MILLI.,.METRE.)) ;
#17=(NAMED_UNIT(*)PLANE_ANGLE_UNIT()SI_UNIT($,.RADIAN.)) ;
#19=(NAMED_UNIT(*)SI_UNIT($,.STERADIAN.)SOLID_ANGLE_UNIT()) ;
#21=(GEOMETRIC_REPRESENTATION_CONTEXT(3)GLOBAL_UNCERTAINTY_ASSIGNED_CONTEXT((#20))GLOBAL_UNIT_ASSIGNED_CONTEXT((#16,#17,#19))REPRESENTATION_CONTEXT(' ',' ')) ;
ENDSEC;
END-ISO-10303-21;
