ISO-10303-21;
HEADER;
FILE_DESCRIPTION(('CATIA V5 STEP'),'2;1');

FILE_NAME('X:\\SIC - Groupe Atlantic\\210030 - GABARIT DE POINTAGE GAMME 4000\\3D\\STEP\\210030 06 026 - 0 - SUPPORT AMORTISSEUR.stp','2022-07-05T11:21:15+00:00',('none'),('none'),'CATIA Version 5 Release 19 SP 5 (IN-10)','CATIA V5 STEP AP203 Edition 2','none');

FILE_SCHEMA(('AP203_CONFIGURATION_CONTROLLED_3D_DESIGN_OF_MECHANICAL_PARTS_AND_ASSEMBLIES_MIM_LF  { 1 0 10303 403 2 1 2}'));

ENDSEC;
/* file written by CATIA V5R19 */
DATA;
#5=PRODUCT('210030 06 026 - SUPPORT AMORTISSEUR','','',(#2)) ;
#2=PRODUCT_CONTEXT(' ',#1,'mechanical') ;
#1=APPLICATION_CONTEXT('configuration controlled 3D design of mechanical parts and assemblies') ;
#14=PRODUCT_DEFINITION('',' ',#6,#3) ;
#3=PRODUCT_DEFINITION_CONTEXT('part definition',#1,' ') ;
#15=PRODUCT_DEFINITION_SHAPE(' ',' ',#14) ;
#583=SHAPE_REPRESENTATION_RELATIONSHIP(' ',' ',#24,#582) ;
#34=STYLED_ITEM(' ',(#33),#26) ;
#33=PRESENTATION_STYLE_ASSIGNMENT((#32)) ;
#32=SURFACE_STYLE_USAGE(.BOTH.,#31) ;
#31=SURFACE_SIDE_STYLE(' ',(#30)) ;
#30=SURFACE_STYLE_FILL_AREA(#29) ;
#29=FILL_AREA_STYLE(' ',(#28)) ;
#28=FILL_AREA_STYLE_COLOUR(' ',#27) ;
#94=VECTOR('Line Direction',#93,1.) ;
#99=VECTOR('Line Direction',#98,1.) ;
#128=VECTOR('Line Direction',#127,1.) ;
#144=VECTOR('Line Direction',#143,1.) ;
#194=VECTOR('Line Direction',#193,1.) ;
#199=VECTOR('Line Direction',#198,1.) ;
#228=VECTOR('Line Direction',#227,1.) ;
#237=VECTOR('Line Direction',#236,1.) ;
#244=VECTOR('Line Direction',#243,1.) ;
#251=VECTOR('Line Direction',#250,1.) ;
#336=VECTOR('Line Direction',#335,1.) ;
#341=VECTOR('Line Direction',#340,1.) ;
#370=VECTOR('Line Direction',#369,1.) ;
#375=VECTOR('Line Direction',#374,1.) ;
#399=VECTOR('Line Direction',#398,1.) ;
#406=VECTOR('Line Direction',#405,1.) ;
#413=VECTOR('Line Direction',#412,1.) ;
#430=VECTOR('Line Direction',#429,1.) ;
#439=VECTOR('Line Direction',#438,1.) ;
#444=VECTOR('Line Direction',#443,1.) ;
#461=VECTOR('Line Direction',#460,1.) ;
#468=VECTOR('Line Direction',#467,1.) ;
#475=VECTOR('Line Direction',#474,1.) ;
#492=VECTOR('Line Direction',#491,1.) ;
#499=VECTOR('Line Direction',#498,1.) ;
#522=VECTOR('Line Direction',#521,1.) ;
#529=VECTOR('Line Direction',#528,1.) ;
#552=VECTOR('Line Direction',#551,1.) ;
#37=DIRECTION('Axis2P3D Direction',(-0.,1.,0.)) ;
#38=DIRECTION('Axis2P3D XDirection',(1.,0.,0.)) ;
#42=DIRECTION('Axis2P3D Direction',(-0.,1.,0.)) ;
#51=DIRECTION('Axis2P3D Direction',(-0.,1.,0.)) ;
#60=DIRECTION('Axis2P3D Direction',(-0.,1.,0.)) ;
#69=DIRECTION('Axis2P3D Direction',(-0.,1.,0.)) ;
#79=DIRECTION('Axis2P3D Direction',(-0.,1.,0.)) ;
#80=DIRECTION('Axis2P3D XDirection',(0.87758256189,0.,-0.479425538604)) ;
#84=DIRECTION('Axis2P3D Direction',(-0.,1.,0.)) ;
#93=DIRECTION('Vector Direction',(0.,1.,0.)) ;
#98=DIRECTION('Vector Direction',(0.,1.,0.)) ;
#110=DIRECTION('Axis2P3D Direction',(-0.,1.,0.)) ;
#122=DIRECTION('Axis2P3D Direction',(0.,-0.,-1.)) ;
#123=DIRECTION('Axis2P3D XDirection',(0.87758256189,-0.479425538604,0.)) ;
#127=DIRECTION('Vector Direction',(0.,0.,-1.)) ;
#136=DIRECTION('Axis2P3D Direction',(0.,-0.,-1.)) ;
#143=DIRECTION('Vector Direction',(0.,0.,-1.)) ;
#150=DIRECTION('Axis2P3D Direction',(0.,-0.,-1.)) ;
#162=DIRECTION('Axis2P3D Direction',(0.,-0.,-1.)) ;
#167=DIRECTION('Axis2P3D Direction',(0.,-0.,-1.)) ;
#179=DIRECTION('Axis2P3D Direction',(-0.,1.,0.)) ;
#180=DIRECTION('Axis2P3D XDirection',(0.87758256189,0.,-0.479425538604)) ;
#184=DIRECTION('Axis2P3D Direction',(-0.,1.,0.)) ;
#193=DIRECTION('Vector Direction',(0.,1.,0.)) ;
#198=DIRECTION('Vector Direction',(0.,1.,0.)) ;
#210=DIRECTION('Axis2P3D Direction',(-0.,1.,0.)) ;
#222=DIRECTION('Axis2P3D Direction',(0.,1.,-0.)) ;
#223=DIRECTION('Axis2P3D XDirection',(-1.,0.,0.)) ;
#227=DIRECTION('Vector Direction',(0.,0.,1.)) ;
#236=DIRECTION('Vector Direction',(-1.,0.,0.)) ;
#243=DIRECTION('Vector Direction',(0.,0.,1.)) ;
#250=DIRECTION('Vector Direction',(-1.,0.,0.)) ;
#261=DIRECTION('Axis2P3D Direction',(0.,1.,-0.)) ;
#270=DIRECTION('Axis2P3D Direction',(0.,1.,-0.)) ;
#284=DIRECTION('Axis2P3D Direction',(-0.,1.,0.)) ;
#293=DIRECTION('Axis2P3D Direction',(-0.,1.,0.)) ;
#302=DIRECTION('Axis2P3D Direction',(-0.,1.,0.)) ;
#311=DIRECTION('Axis2P3D Direction',(-0.,1.,0.)) ;
#321=DIRECTION('Axis2P3D Direction',(-0.,1.,0.)) ;
#322=DIRECTION('Axis2P3D XDirection',(0.87758256189,0.,-0.479425538604)) ;
#326=DIRECTION('Axis2P3D Direction',(-0.,1.,0.)) ;
#335=DIRECTION('Vector Direction',(0.,1.,0.)) ;
#340=DIRECTION('Vector Direction',(0.,1.,0.)) ;
#352=DIRECTION('Axis2P3D Direction',(-0.,1.,0.)) ;
#364=DIRECTION('Axis2P3D Direction',(-0.,1.,0.)) ;
#365=DIRECTION('Axis2P3D XDirection',(0.87758256189,0.,-0.479425538604)) ;
#369=DIRECTION('Vector Direction',(0.,1.,0.)) ;
#374=DIRECTION('Vector Direction',(0.,1.,0.)) ;
#393=DIRECTION('Axis2P3D Direction',(1.,0.,0.)) ;
#394=DIRECTION('Axis2P3D XDirection',(0.,1.,0.)) ;
#398=DIRECTION('Vector Direction',(0.,1.,0.)) ;
#405=DIRECTION('Vector Direction',(0.,1.,0.)) ;
#412=DIRECTION('Vector Direction',(0.,0.,-1.)) ;
#424=DIRECTION('Axis2P3D Direction',(-0.707106781187,0.707106781187,0.)) ;
#425=DIRECTION('Axis2P3D XDirection',(0.,0.,-1.)) ;
#429=DIRECTION('Vector Direction',(0.,0.,-1.)) ;
#438=DIRECTION('Vector Direction',(-0.707106781187,-0.707106781187,0.)) ;
#443=DIRECTION('Vector Direction',(-0.707106781187,-0.707106781187,0.)) ;
#455=DIRECTION('Axis2P3D Direction',(-1.,0.,0.)) ;
#456=DIRECTION('Axis2P3D XDirection',(0.,-1.,0.)) ;
#460=DIRECTION('Vector Direction',(0.,-1.,0.)) ;
#467=DIRECTION('Vector Direction',(0.,-1.,0.)) ;
#474=DIRECTION('Vector Direction',(0.,0.,1.)) ;
#486=DIRECTION('Axis2P3D Direction',(0.,0.,1.)) ;
#487=DIRECTION('Axis2P3D XDirection',(1.,0.,0.)) ;
#491=DIRECTION('Vector Direction',(0.707106781187,-0.707106781187,0.)) ;
#498=DIRECTION('Vector Direction',(1.,0.,0.)) ;
#516=DIRECTION('Axis2P3D Direction',(0.,0.,1.)) ;
#517=DIRECTION('Axis2P3D XDirection',(1.,0.,0.)) ;
#521=DIRECTION('Vector Direction',(1.,0.,0.)) ;
#528=DIRECTION('Vector Direction',(0.707106781187,-0.707106781187,0.)) ;
#546=DIRECTION('Axis2P3D Direction',(0.,-1.,0.)) ;
#547=DIRECTION('Axis2P3D XDirection',(1.,0.,0.)) ;
#551=DIRECTION('Vector Direction',(0.,0.,1.)) ;
#571=DIRECTION('Axis2P3D Direction',(0.707106781187,0.707106781187,-0.)) ;
#572=DIRECTION('Axis2P3D XDirection',(0.,0.,1.)) ;
#22=CARTESIAN_POINT(' ',(0.,0.,0.)) ;
#36=CARTESIAN_POINT('Axis2P3D Location',(-8.5,-14.,0.)) ;
#41=CARTESIAN_POINT('Axis2P3D Location',(-12.,-14.,0.)) ;
#45=CARTESIAN_POINT('Vertex',(-7.1732959096,-14.,-2.63684046232)) ;
#47=CARTESIAN_POINT('Vertex',(-16.8267040904,-14.,2.63684046232)) ;
#50=CARTESIAN_POINT('Axis2P3D Location',(-12.,-14.,0.)) ;
#59=CARTESIAN_POINT('Axis2P3D Location',(-12.,-14.,0.)) ;
#63=CARTESIAN_POINT('Vertex',(-15.0715389666,-14.,1.67798938511)) ;
#65=CARTESIAN_POINT('Vertex',(-8.92846103338,-14.,-1.67798938511)) ;
#68=CARTESIAN_POINT('Axis2P3D Location',(-12.,-14.,0.)) ;
#78=CARTESIAN_POINT('Axis2P3D Location',(-12.,-19.9,0.)) ;
#83=CARTESIAN_POINT('Axis2P3D Location',(-12.,0.,0.)) ;
#87=CARTESIAN_POINT('Vertex',(-8.92846103338,0.,-1.67798938511)) ;
#89=CARTESIAN_POINT('Vertex',(-15.0715389666,0.,1.67798938511)) ;
#92=CARTESIAN_POINT('Line Origine',(-15.0715389666,-5.89999999989,1.67798938511)) ;
#97=CARTESIAN_POINT('Line Origine',(-8.92846103338,-5.89999999989,-1.67798938511)) ;
#109=CARTESIAN_POINT('Axis2P3D Location',(-12.,0.,0.)) ;
#121=CARTESIAN_POINT('Axis2P3D Location',(1.,-10.,7.9)) ;
#126=CARTESIAN_POINT('Line Origine',(5.8267040904,-12.6368404623,0.)) ;
#130=CARTESIAN_POINT('Vertex',(5.8267040904,-12.6368404623,-8.)) ;
#132=CARTESIAN_POINT('Vertex',(5.8267040904,-12.6368404623,8.)) ;
#135=CARTESIAN_POINT('Axis2P3D Location',(1.,-10.,-8.)) ;
#139=CARTESIAN_POINT('Vertex',(-3.8267040904,-7.36315953768,-8.)) ;
#142=CARTESIAN_POINT('Line Origine',(-3.8267040904,-7.36315953768,0.)) ;
#146=CARTESIAN_POINT('Vertex',(-3.8267040904,-7.36315953768,8.)) ;
#149=CARTESIAN_POINT('Axis2P3D Location',(1.,-10.,8.)) ;
#161=CARTESIAN_POINT('Axis2P3D Location',(1.,-10.,-8.)) ;
#166=CARTESIAN_POINT('Axis2P3D Location',(1.,-10.,8.)) ;
#178=CARTESIAN_POINT('Axis2P3D Location',(-12.,-19.9,0.)) ;
#183=CARTESIAN_POINT('Axis2P3D Location',(-12.,-20.,0.)) ;
#187=CARTESIAN_POINT('Vertex',(-16.8267040904,-20.,2.63684046232)) ;
#189=CARTESIAN_POINT('Vertex',(-7.1732959096,-20.,-2.63684046232)) ;
#192=CARTESIAN_POINT('Line Origine',(-7.1732959096,-17.1550000001,-2.63684046232)) ;
#197=CARTESIAN_POINT('Line Origine',(-16.8267040904,-17.1550000001,2.63684046232)) ;
#209=CARTESIAN_POINT('Axis2P3D Location',(-12.,-20.,0.)) ;
#221=CARTESIAN_POINT('Axis2P3D Location',(10.,0.,0.)) ;
#226=CARTESIAN_POINT('Line Origine',(10.,0.,0.)) ;
#230=CARTESIAN_POINT('Vertex',(10.,0.,-8.)) ;
#232=CARTESIAN_POINT('Vertex',(10.,0.,8.)) ;
#235=CARTESIAN_POINT('Line Origine',(-14.,0.,-8.)) ;
#239=CARTESIAN_POINT('Vertex',(-38.,0.,-8.)) ;
#242=CARTESIAN_POINT('Line Origine',(-38.,0.,0.)) ;
#246=CARTESIAN_POINT('Vertex',(-38.,0.,8.)) ;
#249=CARTESIAN_POINT('Line Origine',(-14.,0.,8.)) ;
#260=CARTESIAN_POINT('Axis2P3D Location',(-30.,0.,-3.67394039744E-015)) ;
#264=CARTESIAN_POINT('Vertex',(-33.0715389666,0.,1.67798938511)) ;
#266=CARTESIAN_POINT('Vertex',(-26.9284610334,0.,-1.67798938511)) ;
#269=CARTESIAN_POINT('Axis2P3D Location',(-30.,0.,-4.11802960729E-015)) ;
#283=CARTESIAN_POINT('Axis2P3D Location',(-30.,-14.,-3.67394039744E-015)) ;
#287=CARTESIAN_POINT('Vertex',(-25.1732959096,-14.,-2.63684046232)) ;
#289=CARTESIAN_POINT('Vertex',(-34.8267040904,-14.,2.63684046232)) ;
#292=CARTESIAN_POINT('Axis2P3D Location',(-30.,-14.,-3.67394039744E-015)) ;
#301=CARTESIAN_POINT('Axis2P3D Location',(-30.,-14.,-3.67394039744E-015)) ;
#305=CARTESIAN_POINT('Vertex',(-33.0715389666,-14.,1.67798938511)) ;
#307=CARTESIAN_POINT('Vertex',(-26.9284610334,-14.,-1.67798938511)) ;
#310=CARTESIAN_POINT('Axis2P3D Location',(-30.,-14.,-3.67394039744E-015)) ;
#320=CARTESIAN_POINT('Axis2P3D Location',(-30.,-19.9,-3.67394039744E-015)) ;
#325=CARTESIAN_POINT('Axis2P3D Location',(-30.,-20.,-3.67394039744E-015)) ;
#329=CARTESIAN_POINT('Vertex',(-25.1732959096,-20.,-2.63684046232)) ;
#331=CARTESIAN_POINT('Vertex',(-34.8267040904,-20.,2.63684046232)) ;
#334=CARTESIAN_POINT('Line Origine',(-34.8267040904,-17.1550000001,2.63684046232)) ;
#339=CARTESIAN_POINT('Line Origine',(-25.1732959096,-17.1550000001,-2.63684046232)) ;
#351=CARTESIAN_POINT('Axis2P3D Location',(-30.,-20.,-3.67394039744E-015)) ;
#363=CARTESIAN_POINT('Axis2P3D Location',(-30.,-19.9,-3.67394039744E-015)) ;
#368=CARTESIAN_POINT('Line Origine',(-33.0715389666,-5.89999999989,1.67798938511)) ;
#373=CARTESIAN_POINT('Line Origine',(-26.9284610334,-5.89999999989,-1.67798938511)) ;
#392=CARTESIAN_POINT('Axis2P3D Location',(10.,-20.,0.)) ;
#397=CARTESIAN_POINT('Line Origine',(10.,-9.5,-8.)) ;
#401=CARTESIAN_POINT('Vertex',(10.,-19.,-8.)) ;
#404=CARTESIAN_POINT('Line Origine',(10.,-9.5,8.)) ;
#408=CARTESIAN_POINT('Vertex',(10.,-19.,8.)) ;
#411=CARTESIAN_POINT('Line Origine',(10.,-19.,0.)) ;
#423=CARTESIAN_POINT('Axis2P3D Location',(10.,-19.,11.2)) ;
#428=CARTESIAN_POINT('Line Origine',(9.,-20.,0.)) ;
#432=CARTESIAN_POINT('Vertex',(9.,-20.,-8.)) ;
#434=CARTESIAN_POINT('Vertex',(9.,-20.,8.)) ;
#437=CARTESIAN_POINT('Line Origine',(9.5,-19.5,-8.)) ;
#442=CARTESIAN_POINT('Line Origine',(9.5,-19.5,8.)) ;
#454=CARTESIAN_POINT('Axis2P3D Location',(-38.,1.172395514E-013,0.)) ;
#459=CARTESIAN_POINT('Line Origine',(-38.,-9.5,8.)) ;
#463=CARTESIAN_POINT('Vertex',(-38.,-19.,8.)) ;
#466=CARTESIAN_POINT('Line Origine',(-38.,-9.5,-8.)) ;
#470=CARTESIAN_POINT('Vertex',(-38.,-19.,-8.)) ;
#473=CARTESIAN_POINT('Line Origine',(-38.,-19.,0.)) ;
#485=CARTESIAN_POINT('Axis2P3D Location',(0.,0.,-8.)) ;
#490=CARTESIAN_POINT('Line Origine',(-37.5,-19.5,-8.)) ;
#494=CARTESIAN_POINT('Vertex',(-37.,-20.,-8.)) ;
#497=CARTESIAN_POINT('Line Origine',(-14.,-20.,-8.)) ;
#515=CARTESIAN_POINT('Axis2P3D Location',(0.,0.,8.)) ;
#520=CARTESIAN_POINT('Line Origine',(-14.,-20.,8.)) ;
#524=CARTESIAN_POINT('Vertex',(-37.,-20.,8.)) ;
#527=CARTESIAN_POINT('Line Origine',(-37.5,-19.5,8.)) ;
#545=CARTESIAN_POINT('Axis2P3D Location',(-38.,-20.,0.)) ;
#550=CARTESIAN_POINT('Line Origine',(-37.,-20.,0.)) ;
#570=CARTESIAN_POINT('Axis2P3D Location',(-38.,-19.,-11.2)) ;
#584=MECHANICAL_DESIGN_GEOMETRIC_PRESENTATION_REPRESENTATION(' ',(#34),#21) ;
#24=SHAPE_REPRESENTATION(' ',(#23),#21) ;
#23=AXIS2_PLACEMENT_3D(' ',#22,$,$) ;
#39=AXIS2_PLACEMENT_3D('Plane Axis2P3D',#36,#37,#38) ;
#43=AXIS2_PLACEMENT_3D('Circle Axis2P3D',#41,#42,$) ;
#52=AXIS2_PLACEMENT_3D('Circle Axis2P3D',#50,#51,$) ;
#61=AXIS2_PLACEMENT_3D('Circle Axis2P3D',#59,#60,$) ;
#70=AXIS2_PLACEMENT_3D('Circle Axis2P3D',#68,#69,$) ;
#81=AXIS2_PLACEMENT_3D('Cylinder Axis2P3D',#78,#79,#80) ;
#85=AXIS2_PLACEMENT_3D('Circle Axis2P3D',#83,#84,$) ;
#111=AXIS2_PLACEMENT_3D('Circle Axis2P3D',#109,#110,$) ;
#124=AXIS2_PLACEMENT_3D('Cylinder Axis2P3D',#121,#122,#123) ;
#137=AXIS2_PLACEMENT_3D('Circle Axis2P3D',#135,#136,$) ;
#151=AXIS2_PLACEMENT_3D('Circle Axis2P3D',#149,#150,$) ;
#163=AXIS2_PLACEMENT_3D('Circle Axis2P3D',#161,#162,$) ;
#168=AXIS2_PLACEMENT_3D('Circle Axis2P3D',#166,#167,$) ;
#181=AXIS2_PLACEMENT_3D('Cylinder Axis2P3D',#178,#179,#180) ;
#185=AXIS2_PLACEMENT_3D('Circle Axis2P3D',#183,#184,$) ;
#211=AXIS2_PLACEMENT_3D('Circle Axis2P3D',#209,#210,$) ;
#224=AXIS2_PLACEMENT_3D('Plane Axis2P3D',#221,#222,#223) ;
#262=AXIS2_PLACEMENT_3D('Circle Axis2P3D',#260,#261,$) ;
#271=AXIS2_PLACEMENT_3D('Circle Axis2P3D',#269,#270,$) ;
#285=AXIS2_PLACEMENT_3D('Circle Axis2P3D',#283,#284,$) ;
#294=AXIS2_PLACEMENT_3D('Circle Axis2P3D',#292,#293,$) ;
#303=AXIS2_PLACEMENT_3D('Circle Axis2P3D',#301,#302,$) ;
#312=AXIS2_PLACEMENT_3D('Circle Axis2P3D',#310,#311,$) ;
#323=AXIS2_PLACEMENT_3D('Cylinder Axis2P3D',#320,#321,#322) ;
#327=AXIS2_PLACEMENT_3D('Circle Axis2P3D',#325,#326,$) ;
#353=AXIS2_PLACEMENT_3D('Circle Axis2P3D',#351,#352,$) ;
#366=AXIS2_PLACEMENT_3D('Cylinder Axis2P3D',#363,#364,#365) ;
#395=AXIS2_PLACEMENT_3D('Plane Axis2P3D',#392,#393,#394) ;
#426=AXIS2_PLACEMENT_3D('Plane Axis2P3D',#423,#424,#425) ;
#457=AXIS2_PLACEMENT_3D('Plane Axis2P3D',#454,#455,#456) ;
#488=AXIS2_PLACEMENT_3D('Plane Axis2P3D',#485,#486,#487) ;
#518=AXIS2_PLACEMENT_3D('Plane Axis2P3D',#515,#516,#517) ;
#548=AXIS2_PLACEMENT_3D('Plane Axis2P3D',#545,#546,#547) ;
#573=AXIS2_PLACEMENT_3D('Plane Axis2P3D',#570,#571,#572) ;
#13=DATE_AND_TIME(#11,#12) ;
#12=LOCAL_TIME(13,21,15.,#10) ;
#10=COORDINATED_UNIVERSAL_TIME_OFFSET(0,0,.AHEAD.) ;
#7=PRODUCT_CATEGORY('part','specification') ;
#11=CALENDAR_DATE(2022,5,7) ;
#8=PRODUCT_RELATED_PRODUCT_CATEGORY('part',$,(#5)) ;
#20=UNCERTAINTY_MEASURE_WITH_UNIT(LENGTH_MEASURE(0.005),#16,'distance_accuracy_value','CONFUSED CURVE UNCERTAINTY') ;
#76=FACE_BOUND('',#73,.T.) ;
#277=FACE_BOUND('',#274,.T.) ;
#281=FACE_BOUND('',#278,.T.) ;
#318=FACE_BOUND('',#315,.T.) ;
#513=FACE_BOUND('',#510,.T.) ;
#543=FACE_BOUND('',#540,.T.) ;
#564=FACE_BOUND('',#561,.T.) ;
#568=FACE_BOUND('',#565,.T.) ;
#49=EDGE_CURVE('',#46,#48,#44,.T.) ;
#54=EDGE_CURVE('',#48,#46,#53,.T.) ;
#67=EDGE_CURVE('',#64,#66,#62,.T.) ;
#72=EDGE_CURVE('',#66,#64,#71,.T.) ;
#91=EDGE_CURVE('',#88,#90,#86,.T.) ;
#96=EDGE_CURVE('',#90,#64,#95,.F.) ;
#101=EDGE_CURVE('',#88,#66,#100,.F.) ;
#113=EDGE_CURVE('',#90,#88,#112,.T.) ;
#134=EDGE_CURVE('',#131,#133,#129,.F.) ;
#141=EDGE_CURVE('',#140,#131,#138,.F.) ;
#148=EDGE_CURVE('',#140,#147,#145,.F.) ;
#153=EDGE_CURVE('',#147,#133,#152,.F.) ;
#165=EDGE_CURVE('',#131,#140,#164,.F.) ;
#170=EDGE_CURVE('',#133,#147,#169,.F.) ;
#191=EDGE_CURVE('',#188,#190,#186,.F.) ;
#196=EDGE_CURVE('',#46,#190,#195,.F.) ;
#201=EDGE_CURVE('',#48,#188,#200,.F.) ;
#213=EDGE_CURVE('',#190,#188,#212,.F.) ;
#234=EDGE_CURVE('',#231,#233,#229,.T.) ;
#241=EDGE_CURVE('',#231,#240,#238,.T.) ;
#248=EDGE_CURVE('',#240,#247,#245,.T.) ;
#253=EDGE_CURVE('',#233,#247,#252,.T.) ;
#268=EDGE_CURVE('',#265,#267,#263,.T.) ;
#273=EDGE_CURVE('',#267,#265,#272,.T.) ;
#291=EDGE_CURVE('',#288,#290,#286,.T.) ;
#296=EDGE_CURVE('',#290,#288,#295,.T.) ;
#309=EDGE_CURVE('',#306,#308,#304,.T.) ;
#314=EDGE_CURVE('',#308,#306,#313,.T.) ;
#333=EDGE_CURVE('',#330,#332,#328,.F.) ;
#338=EDGE_CURVE('',#290,#332,#337,.F.) ;
#343=EDGE_CURVE('',#288,#330,#342,.F.) ;
#355=EDGE_CURVE('',#332,#330,#354,.F.) ;
#372=EDGE_CURVE('',#265,#306,#371,.F.) ;
#377=EDGE_CURVE('',#267,#308,#376,.F.) ;
#403=EDGE_CURVE('',#402,#231,#400,.T.) ;
#410=EDGE_CURVE('',#409,#233,#407,.T.) ;
#415=EDGE_CURVE('',#402,#409,#414,.F.) ;
#436=EDGE_CURVE('',#433,#435,#431,.F.) ;
#441=EDGE_CURVE('',#433,#402,#440,.F.) ;
#446=EDGE_CURVE('',#409,#435,#445,.T.) ;
#465=EDGE_CURVE('',#247,#464,#462,.T.) ;
#472=EDGE_CURVE('',#240,#471,#469,.T.) ;
#477=EDGE_CURVE('',#471,#464,#476,.T.) ;
#496=EDGE_CURVE('',#471,#495,#493,.T.) ;
#501=EDGE_CURVE('',#495,#433,#500,.T.) ;
#526=EDGE_CURVE('',#525,#435,#523,.T.) ;
#531=EDGE_CURVE('',#525,#464,#530,.F.) ;
#554=EDGE_CURVE('',#495,#525,#553,.T.) ;
#40=PLANE('Plane',#39) ;
#225=PLANE('Plane',#224) ;
#396=PLANE('Plane',#395) ;
#427=PLANE('Plane',#426) ;
#458=PLANE('Plane',#457) ;
#489=PLANE('Plane',#488) ;
#519=PLANE('Plane',#518) ;
#549=PLANE('Plane',#548) ;
#574=PLANE('Plane',#573) ;
#56=ORIENTED_EDGE('',*,*,#49,.F.) ;
#57=ORIENTED_EDGE('',*,*,#54,.F.) ;
#74=ORIENTED_EDGE('',*,*,#67,.T.) ;
#75=ORIENTED_EDGE('',*,*,#72,.T.) ;
#103=ORIENTED_EDGE('',*,*,#91,.T.) ;
#104=ORIENTED_EDGE('',*,*,#96,.T.) ;
#105=ORIENTED_EDGE('',*,*,#72,.F.) ;
#106=ORIENTED_EDGE('',*,*,#101,.F.) ;
#115=ORIENTED_EDGE('',*,*,#113,.T.) ;
#116=ORIENTED_EDGE('',*,*,#101,.T.) ;
#117=ORIENTED_EDGE('',*,*,#67,.F.) ;
#118=ORIENTED_EDGE('',*,*,#96,.F.) ;
#155=ORIENTED_EDGE('',*,*,#134,.F.) ;
#156=ORIENTED_EDGE('',*,*,#141,.F.) ;
#157=ORIENTED_EDGE('',*,*,#148,.T.) ;
#158=ORIENTED_EDGE('',*,*,#153,.T.) ;
#172=ORIENTED_EDGE('',*,*,#148,.F.) ;
#173=ORIENTED_EDGE('',*,*,#165,.F.) ;
#174=ORIENTED_EDGE('',*,*,#134,.T.) ;
#175=ORIENTED_EDGE('',*,*,#170,.T.) ;
#203=ORIENTED_EDGE('',*,*,#191,.T.) ;
#204=ORIENTED_EDGE('',*,*,#196,.F.) ;
#205=ORIENTED_EDGE('',*,*,#49,.T.) ;
#206=ORIENTED_EDGE('',*,*,#201,.T.) ;
#215=ORIENTED_EDGE('',*,*,#213,.T.) ;
#216=ORIENTED_EDGE('',*,*,#201,.F.) ;
#217=ORIENTED_EDGE('',*,*,#54,.T.) ;
#218=ORIENTED_EDGE('',*,*,#196,.T.) ;
#255=ORIENTED_EDGE('',*,*,#234,.F.) ;
#256=ORIENTED_EDGE('',*,*,#241,.T.) ;
#257=ORIENTED_EDGE('',*,*,#248,.T.) ;
#258=ORIENTED_EDGE('',*,*,#253,.F.) ;
#275=ORIENTED_EDGE('',*,*,#268,.F.) ;
#276=ORIENTED_EDGE('',*,*,#273,.F.) ;
#279=ORIENTED_EDGE('',*,*,#91,.F.) ;
#280=ORIENTED_EDGE('',*,*,#113,.F.) ;
#298=ORIENTED_EDGE('',*,*,#291,.F.) ;
#299=ORIENTED_EDGE('',*,*,#296,.F.) ;
#316=ORIENTED_EDGE('',*,*,#309,.T.) ;
#317=ORIENTED_EDGE('',*,*,#314,.T.) ;
#345=ORIENTED_EDGE('',*,*,#333,.T.) ;
#346=ORIENTED_EDGE('',*,*,#338,.F.) ;
#347=ORIENTED_EDGE('',*,*,#296,.T.) ;
#348=ORIENTED_EDGE('',*,*,#343,.T.) ;
#357=ORIENTED_EDGE('',*,*,#355,.T.) ;
#358=ORIENTED_EDGE('',*,*,#343,.F.) ;
#359=ORIENTED_EDGE('',*,*,#291,.T.) ;
#360=ORIENTED_EDGE('',*,*,#338,.T.) ;
#379=ORIENTED_EDGE('',*,*,#273,.T.) ;
#380=ORIENTED_EDGE('',*,*,#372,.T.) ;
#381=ORIENTED_EDGE('',*,*,#314,.F.) ;
#382=ORIENTED_EDGE('',*,*,#377,.F.) ;
#386=ORIENTED_EDGE('',*,*,#268,.T.) ;
#387=ORIENTED_EDGE('',*,*,#377,.T.) ;
#388=ORIENTED_EDGE('',*,*,#309,.F.) ;
#389=ORIENTED_EDGE('',*,*,#372,.F.) ;
#417=ORIENTED_EDGE('',*,*,#403,.T.) ;
#418=ORIENTED_EDGE('',*,*,#234,.T.) ;
#419=ORIENTED_EDGE('',*,*,#410,.F.) ;
#420=ORIENTED_EDGE('',*,*,#415,.F.) ;
#448=ORIENTED_EDGE('',*,*,#436,.F.) ;
#449=ORIENTED_EDGE('',*,*,#441,.T.) ;
#450=ORIENTED_EDGE('',*,*,#415,.T.) ;
#451=ORIENTED_EDGE('',*,*,#446,.T.) ;
#479=ORIENTED_EDGE('',*,*,#465,.F.) ;
#480=ORIENTED_EDGE('',*,*,#248,.F.) ;
#481=ORIENTED_EDGE('',*,*,#472,.T.) ;
#482=ORIENTED_EDGE('',*,*,#477,.T.) ;
#503=ORIENTED_EDGE('',*,*,#496,.F.) ;
#504=ORIENTED_EDGE('',*,*,#472,.F.) ;
#505=ORIENTED_EDGE('',*,*,#241,.F.) ;
#506=ORIENTED_EDGE('',*,*,#403,.F.) ;
#507=ORIENTED_EDGE('',*,*,#441,.F.) ;
#508=ORIENTED_EDGE('',*,*,#501,.F.) ;
#511=ORIENTED_EDGE('',*,*,#165,.T.) ;
#512=ORIENTED_EDGE('',*,*,#141,.T.) ;
#533=ORIENTED_EDGE('',*,*,#526,.T.) ;
#534=ORIENTED_EDGE('',*,*,#446,.F.) ;
#535=ORIENTED_EDGE('',*,*,#410,.T.) ;
#536=ORIENTED_EDGE('',*,*,#253,.T.) ;
#537=ORIENTED_EDGE('',*,*,#465,.T.) ;
#538=ORIENTED_EDGE('',*,*,#531,.F.) ;
#541=ORIENTED_EDGE('',*,*,#153,.F.) ;
#542=ORIENTED_EDGE('',*,*,#170,.F.) ;
#556=ORIENTED_EDGE('',*,*,#501,.T.) ;
#557=ORIENTED_EDGE('',*,*,#436,.T.) ;
#558=ORIENTED_EDGE('',*,*,#526,.F.) ;
#559=ORIENTED_EDGE('',*,*,#554,.F.) ;
#562=ORIENTED_EDGE('',*,*,#333,.F.) ;
#563=ORIENTED_EDGE('',*,*,#355,.F.) ;
#566=ORIENTED_EDGE('',*,*,#191,.F.) ;
#567=ORIENTED_EDGE('',*,*,#213,.F.) ;
#576=ORIENTED_EDGE('',*,*,#477,.F.) ;
#577=ORIENTED_EDGE('',*,*,#496,.T.) ;
#578=ORIENTED_EDGE('',*,*,#554,.T.) ;
#579=ORIENTED_EDGE('',*,*,#531,.T.) ;
#35=CLOSED_SHELL('Closed Shell',(#77,#108,#120,#160,#177,#208,#220,#282,#319,#350,#362,#384,#391,#422,#453,#484,#514,#544,#569,#581)) ;
#582=ADVANCED_BREP_SHAPE_REPRESENTATION('NONE',(#26),#21) ;
#6=PRODUCT_DEFINITION_FORMATION_WITH_SPECIFIED_SOURCE('',' ',#5,.NOT_KNOWN.) ;
#95=LINE('Line',#92,#94) ;
#100=LINE('Line',#97,#99) ;
#129=LINE('Line',#126,#128) ;
#145=LINE('Line',#142,#144) ;
#195=LINE('Line',#192,#194) ;
#200=LINE('Line',#197,#199) ;
#229=LINE('Line',#226,#228) ;
#238=LINE('Line',#235,#237) ;
#245=LINE('Line',#242,#244) ;
#252=LINE('Line',#249,#251) ;
#337=LINE('Line',#334,#336) ;
#342=LINE('Line',#339,#341) ;
#371=LINE('Line',#368,#370) ;
#376=LINE('Line',#373,#375) ;
#400=LINE('Line',#397,#399) ;
#407=LINE('Line',#404,#406) ;
#414=LINE('Line',#411,#413) ;
#431=LINE('Line',#428,#430) ;
#440=LINE('Line',#437,#439) ;
#445=LINE('Line',#442,#444) ;
#462=LINE('Line',#459,#461) ;
#469=LINE('Line',#466,#468) ;
#476=LINE('Line',#473,#475) ;
#493=LINE('Line',#490,#492) ;
#500=LINE('Line',#497,#499) ;
#523=LINE('Line',#520,#522) ;
#530=LINE('Line',#527,#529) ;
#553=LINE('Line',#550,#552) ;
#77=ADVANCED_FACE('Corps principal',(#58,#76),#40,.F.) ;
#108=ADVANCED_FACE('Corps principal',(#107),#82,.F.) ;
#120=ADVANCED_FACE('Corps principal',(#119),#82,.F.) ;
#160=ADVANCED_FACE('Corps principal',(#159),#125,.F.) ;
#177=ADVANCED_FACE('Corps principal',(#176),#125,.F.) ;
#208=ADVANCED_FACE('Corps principal',(#207),#182,.F.) ;
#220=ADVANCED_FACE('Corps principal',(#219),#182,.F.) ;
#282=ADVANCED_FACE('Corps principal',(#259,#277,#281),#225,.T.) ;
#319=ADVANCED_FACE('Corps principal',(#300,#318),#40,.F.) ;
#350=ADVANCED_FACE('Corps principal',(#349),#324,.F.) ;
#362=ADVANCED_FACE('Corps principal',(#361),#324,.F.) ;
#384=ADVANCED_FACE('Corps principal',(#383),#367,.F.) ;
#391=ADVANCED_FACE('Corps principal',(#390),#367,.F.) ;
#422=ADVANCED_FACE('Corps principal',(#421),#396,.T.) ;
#453=ADVANCED_FACE('Corps principal',(#452),#427,.F.) ;
#484=ADVANCED_FACE('Corps principal',(#483),#458,.T.) ;
#514=ADVANCED_FACE('Corps principal',(#509,#513),#489,.F.) ;
#544=ADVANCED_FACE('Corps principal',(#539,#543),#519,.T.) ;
#569=ADVANCED_FACE('Corps principal',(#560,#564,#568),#549,.T.) ;
#581=ADVANCED_FACE('Corps principal',(#580),#574,.F.) ;
#44=CIRCLE('generated circle',#43,5.5) ;
#53=CIRCLE('generated circle',#52,5.5) ;
#62=CIRCLE('generated circle',#61,3.5) ;
#71=CIRCLE('generated circle',#70,3.5) ;
#86=CIRCLE('generated circle',#85,3.5) ;
#112=CIRCLE('generated circle',#111,3.5) ;
#138=CIRCLE('generated circle',#137,5.5) ;
#152=CIRCLE('generated circle',#151,5.5) ;
#164=CIRCLE('generated circle',#163,5.5) ;
#169=CIRCLE('generated circle',#168,5.5) ;
#186=CIRCLE('generated circle',#185,5.5) ;
#212=CIRCLE('generated circle',#211,5.5) ;
#263=CIRCLE('generated circle',#262,3.5) ;
#272=CIRCLE('generated circle',#271,3.5) ;
#286=CIRCLE('generated circle',#285,5.5) ;
#295=CIRCLE('generated circle',#294,5.5) ;
#304=CIRCLE('generated circle',#303,3.5) ;
#313=CIRCLE('generated circle',#312,3.5) ;
#328=CIRCLE('generated circle',#327,5.5) ;
#354=CIRCLE('generated circle',#353,5.5) ;
#82=CYLINDRICAL_SURFACE('generated cylinder',#81,3.5) ;
#125=CYLINDRICAL_SURFACE('generated cylinder',#124,5.5) ;
#182=CYLINDRICAL_SURFACE('generated cylinder',#181,5.5) ;
#324=CYLINDRICAL_SURFACE('generated cylinder',#323,5.5) ;
#367=CYLINDRICAL_SURFACE('generated cylinder',#366,3.5) ;
#46=VERTEX_POINT('',#45) ;
#48=VERTEX_POINT('',#47) ;
#64=VERTEX_POINT('',#63) ;
#66=VERTEX_POINT('',#65) ;
#88=VERTEX_POINT('',#87) ;
#90=VERTEX_POINT('',#89) ;
#131=VERTEX_POINT('',#130) ;
#133=VERTEX_POINT('',#132) ;
#140=VERTEX_POINT('',#139) ;
#147=VERTEX_POINT('',#146) ;
#188=VERTEX_POINT('',#187) ;
#190=VERTEX_POINT('',#189) ;
#231=VERTEX_POINT('',#230) ;
#233=VERTEX_POINT('',#232) ;
#240=VERTEX_POINT('',#239) ;
#247=VERTEX_POINT('',#246) ;
#265=VERTEX_POINT('',#264) ;
#267=VERTEX_POINT('',#266) ;
#288=VERTEX_POINT('',#287) ;
#290=VERTEX_POINT('',#289) ;
#306=VERTEX_POINT('',#305) ;
#308=VERTEX_POINT('',#307) ;
#330=VERTEX_POINT('',#329) ;
#332=VERTEX_POINT('',#331) ;
#402=VERTEX_POINT('',#401) ;
#409=VERTEX_POINT('',#408) ;
#433=VERTEX_POINT('',#432) ;
#435=VERTEX_POINT('',#434) ;
#464=VERTEX_POINT('',#463) ;
#471=VERTEX_POINT('',#470) ;
#495=VERTEX_POINT('',#494) ;
#525=VERTEX_POINT('',#524) ;
#27=COLOUR_RGB('Colour',0.,0.501960784314,1.) ;
#26=MANIFOLD_SOLID_BREP('Corps principal',#35) ;
#25=SHAPE_DEFINITION_REPRESENTATION(#15,#24) ;
#9=PRODUCT_CATEGORY_RELATIONSHIP(' ',' ',#7,#8) ;
#18=PLANE_ANGLE_MEASURE_WITH_UNIT(PLANE_ANGLE_MEASURE(0.0174532925199),#17) ;
#4=APPLICATION_PROTOCOL_DEFINITION('draft international standard','configuration_control_3d_design_ed2_mim',2004,#1) ;
#55=EDGE_LOOP('',(#56,#57)) ;
#73=EDGE_LOOP('',(#74,#75)) ;
#102=EDGE_LOOP('',(#103,#104,#105,#106)) ;
#114=EDGE_LOOP('',(#115,#116,#117,#118)) ;
#154=EDGE_LOOP('',(#155,#156,#157,#158)) ;
#171=EDGE_LOOP('',(#172,#173,#174,#175)) ;
#202=EDGE_LOOP('',(#203,#204,#205,#206)) ;
#214=EDGE_LOOP('',(#215,#216,#217,#218)) ;
#254=EDGE_LOOP('',(#255,#256,#257,#258)) ;
#274=EDGE_LOOP('',(#275,#276)) ;
#278=EDGE_LOOP('',(#279,#280)) ;
#297=EDGE_LOOP('',(#298,#299)) ;
#315=EDGE_LOOP('',(#316,#317)) ;
#344=EDGE_LOOP('',(#345,#346,#347,#348)) ;
#356=EDGE_LOOP('',(#357,#358,#359,#360)) ;
#378=EDGE_LOOP('',(#379,#380,#381,#382)) ;
#385=EDGE_LOOP('',(#386,#387,#388,#389)) ;
#416=EDGE_LOOP('',(#417,#418,#419,#420)) ;
#447=EDGE_LOOP('',(#448,#449,#450,#451)) ;
#478=EDGE_LOOP('',(#479,#480,#481,#482)) ;
#502=EDGE_LOOP('',(#503,#504,#505,#506,#507,#508)) ;
#510=EDGE_LOOP('',(#511,#512)) ;
#532=EDGE_LOOP('',(#533,#534,#535,#536,#537,#538)) ;
#540=EDGE_LOOP('',(#541,#542)) ;
#555=EDGE_LOOP('',(#556,#557,#558,#559)) ;
#561=EDGE_LOOP('',(#562,#563)) ;
#565=EDGE_LOOP('',(#566,#567)) ;
#575=EDGE_LOOP('',(#576,#577,#578,#579)) ;
#58=FACE_OUTER_BOUND('',#55,.T.) ;
#107=FACE_OUTER_BOUND('',#102,.T.) ;
#119=FACE_OUTER_BOUND('',#114,.T.) ;
#159=FACE_OUTER_BOUND('',#154,.T.) ;
#176=FACE_OUTER_BOUND('',#171,.T.) ;
#207=FACE_OUTER_BOUND('',#202,.T.) ;
#219=FACE_OUTER_BOUND('',#214,.T.) ;
#259=FACE_OUTER_BOUND('',#254,.T.) ;
#300=FACE_OUTER_BOUND('',#297,.T.) ;
#349=FACE_OUTER_BOUND('',#344,.T.) ;
#361=FACE_OUTER_BOUND('',#356,.T.) ;
#383=FACE_OUTER_BOUND('',#378,.T.) ;
#390=FACE_OUTER_BOUND('',#385,.T.) ;
#421=FACE_OUTER_BOUND('',#416,.T.) ;
#452=FACE_OUTER_BOUND('',#447,.T.) ;
#483=FACE_OUTER_BOUND('',#478,.T.) ;
#509=FACE_OUTER_BOUND('',#502,.T.) ;
#539=FACE_OUTER_BOUND('',#532,.T.) ;
#560=FACE_OUTER_BOUND('',#555,.T.) ;
#580=FACE_OUTER_BOUND('',#575,.T.) ;
#16=(LENGTH_UNIT()NAMED_UNIT(*)SI_UNIT(.MILLI.,.METRE.)) ;
#17=(NAMED_UNIT(*)PLANE_ANGLE_UNIT()SI_UNIT($,.RADIAN.)) ;
#19=(NAMED_UNIT(*)SI_UNIT($,.STERADIAN.)SOLID_ANGLE_UNIT()) ;
#21=(GEOMETRIC_REPRESENTATION_CONTEXT(3)GLOBAL_UNCERTAINTY_ASSIGNED_CONTEXT((#20))GLOBAL_UNIT_ASSIGNED_CONTEXT((#16,#17,#19))REPRESENTATION_CONTEXT(' ',' ')) ;
ENDSEC;
END-ISO-10303-21;
