ISO-10303-21;
HEADER;
FILE_DESCRIPTION(('CATIA V5 STEP'),'2;1');

FILE_NAME('X:\\SIC - Groupe Atlantic\\210030 - GABARIT DE POINTAGE GAMME 4000\\3D\\STEP\\210030 04 024 - 0 - BUTEE HAUTE.stp','2022-07-05T07:50:20+00:00',('none'),('none'),'CATIA Version 5 Release 19 SP 5 (IN-10)','CATIA V5 STEP AP203 Edition 2','none');

FILE_SCHEMA(('AP203_CONFIGURATION_CONTROLLED_3D_DESIGN_OF_MECHANICAL_PARTS_AND_ASSEMBLIES_MIM_LF  { 1 0 10303 403 2 1 2}'));

ENDSEC;
/* file written by CATIA V5R19 */
DATA;
#5=PRODUCT('210030 04 024 - BUTEE HAUTE','','',(#2)) ;
#2=PRODUCT_CONTEXT(' ',#1,'mechanical') ;
#1=APPLICATION_CONTEXT('configuration controlled 3D design of mechanical parts and assemblies') ;
#14=PRODUCT_DEFINITION('',' ',#6,#3) ;
#3=PRODUCT_DEFINITION_CONTEXT('part definition',#1,' ') ;
#15=PRODUCT_DEFINITION_SHAPE(' ',' ',#14) ;
#513=SHAPE_REPRESENTATION_RELATIONSHIP(' ',' ',#24,#512) ;
#34=STYLED_ITEM(' ',(#33),#26) ;
#33=PRESENTATION_STYLE_ASSIGNMENT((#32)) ;
#32=SURFACE_STYLE_USAGE(.BOTH.,#31) ;
#31=SURFACE_SIDE_STYLE(' ',(#30)) ;
#30=SURFACE_STYLE_FILL_AREA(#29) ;
#29=FILL_AREA_STYLE(' ',(#28)) ;
#28=FILL_AREA_STYLE_COLOUR(' ',#27) ;
#43=VECTOR('Line Direction',#42,1.) ;
#59=VECTOR('Line Direction',#58,1.) ;
#100=VECTOR('Line Direction',#99,1.) ;
#109=VECTOR('Line Direction',#108,1.) ;
#116=VECTOR('Line Direction',#115,1.) ;
#123=VECTOR('Line Direction',#122,1.) ;
#140=VECTOR('Line Direction',#139,1.) ;
#156=VECTOR('Line Direction',#155,1.) ;
#197=VECTOR('Line Direction',#196,1.) ;
#206=VECTOR('Line Direction',#205,1.) ;
#213=VECTOR('Line Direction',#212,1.) ;
#220=VECTOR('Line Direction',#219,1.) ;
#237=VECTOR('Line Direction',#236,1.) ;
#244=VECTOR('Line Direction',#243,1.) ;
#249=VECTOR('Line Direction',#248,1.) ;
#256=VECTOR('Line Direction',#255,1.) ;
#283=VECTOR('Line Direction',#282,1.) ;
#290=VECTOR('Line Direction',#289,1.) ;
#307=VECTOR('Line Direction',#306,1.) ;
#314=VECTOR('Line Direction',#313,1.) ;
#331=VECTOR('Line Direction',#330,1.) ;
#340=VECTOR('Line Direction',#339,1.) ;
#345=VECTOR('Line Direction',#344,1.) ;
#364=VECTOR('Line Direction',#363,1.) ;
#371=VECTOR('Line Direction',#370,1.) ;
#378=VECTOR('Line Direction',#377,1.) ;
#395=VECTOR('Line Direction',#394,1.) ;
#402=VECTOR('Line Direction',#401,1.) ;
#409=VECTOR('Line Direction',#408,1.) ;
#428=VECTOR('Line Direction',#427,1.) ;
#435=VECTOR('Line Direction',#434,1.) ;
#442=VECTOR('Line Direction',#441,1.) ;
#459=VECTOR('Line Direction',#458,1.) ;
#478=VECTOR('Line Direction',#477,1.) ;
#37=DIRECTION('Axis2P3D Direction',(0.,0.,-1.)) ;
#38=DIRECTION('Axis2P3D XDirection',(-0.87758256189,0.479425538604,-0.)) ;
#42=DIRECTION('Vector Direction',(0.,0.,-1.)) ;
#51=DIRECTION('Axis2P3D Direction',(0.,0.,-1.)) ;
#58=DIRECTION('Vector Direction',(0.,0.,-1.)) ;
#65=DIRECTION('Axis2P3D Direction',(0.,0.,-1.)) ;
#77=DIRECTION('Axis2P3D Direction',(0.,0.,-1.)) ;
#82=DIRECTION('Axis2P3D Direction',(0.,0.,-1.)) ;
#94=DIRECTION('Axis2P3D Direction',(0.,1.,0.)) ;
#95=DIRECTION('Axis2P3D XDirection',(0.,0.,1.)) ;
#99=DIRECTION('Vector Direction',(1.,0.,0.)) ;
#108=DIRECTION('Vector Direction',(0.,0.,1.)) ;
#115=DIRECTION('Vector Direction',(1.,0.,0.)) ;
#122=DIRECTION('Vector Direction',(0.,0.,1.)) ;
#134=DIRECTION('Axis2P3D Direction',(0.,0.,-1.)) ;
#135=DIRECTION('Axis2P3D XDirection',(0.87758256189,-0.479425538604,0.)) ;
#139=DIRECTION('Vector Direction',(0.,0.,-1.)) ;
#148=DIRECTION('Axis2P3D Direction',(0.,0.,-1.)) ;
#155=DIRECTION('Vector Direction',(0.,0.,-1.)) ;
#162=DIRECTION('Axis2P3D Direction',(0.,0.,-1.)) ;
#174=DIRECTION('Axis2P3D Direction',(0.,0.,-1.)) ;
#179=DIRECTION('Axis2P3D Direction',(0.,0.,-1.)) ;
#191=DIRECTION('Axis2P3D Direction',(-0.707106781187,-0.707106781187,-0.)) ;
#192=DIRECTION('Axis2P3D XDirection',(0.,0.,-1.)) ;
#196=DIRECTION('Vector Direction',(0.,0.,-1.)) ;
#205=DIRECTION('Vector Direction',(0.707106781187,-0.707106781187,0.)) ;
#212=DIRECTION('Vector Direction',(0.,0.,-1.)) ;
#219=DIRECTION('Vector Direction',(0.707106781187,-0.707106781187,0.)) ;
#231=DIRECTION('Axis2P3D Direction',(0.,0.,-1.)) ;
#232=DIRECTION('Axis2P3D XDirection',(0.,1.,0.)) ;
#236=DIRECTION('Vector Direction',(1.,0.,0.)) ;
#243=DIRECTION('Vector Direction',(0.,1.,0.)) ;
#248=DIRECTION('Vector Direction',(0.,1.,0.)) ;
#255=DIRECTION('Vector Direction',(-0.707106781187,-0.707106781187,0.)) ;
#277=DIRECTION('Axis2P3D Direction',(0.,1.,0.)) ;
#278=DIRECTION('Axis2P3D XDirection',(0.,0.,1.)) ;
#282=DIRECTION('Vector Direction',(1.,0.,0.)) ;
#289=DIRECTION('Vector Direction',(0.,0.,-1.)) ;
#301=DIRECTION('Axis2P3D Direction',(-0.707106781187,0.707106781187,0.)) ;
#302=DIRECTION('Axis2P3D XDirection',(0.,0.,-1.)) ;
#306=DIRECTION('Vector Direction',(-0.707106781187,-0.707106781187,0.)) ;
#313=DIRECTION('Vector Direction',(0.,0.,-1.)) ;
#325=DIRECTION('Axis2P3D Direction',(1.,0.,0.)) ;
#326=DIRECTION('Axis2P3D XDirection',(0.,1.,0.)) ;
#330=DIRECTION('Vector Direction',(0.,0.,1.)) ;
#339=DIRECTION('Vector Direction',(0.,-1.,0.)) ;
#344=DIRECTION('Vector Direction',(0.,1.,0.)) ;
#358=DIRECTION('Axis2P3D Direction',(-0.707106781187,-0.707106781187,0.)) ;
#359=DIRECTION('Axis2P3D XDirection',(0.,0.,1.)) ;
#363=DIRECTION('Vector Direction',(-0.707106781187,0.707106781187,0.)) ;
#370=DIRECTION('Vector Direction',(0.,0.,1.)) ;
#377=DIRECTION('Vector Direction',(-0.707106781187,0.707106781187,0.)) ;
#389=DIRECTION('Axis2P3D Direction',(1.,0.,0.)) ;
#390=DIRECTION('Axis2P3D XDirection',(0.,1.,0.)) ;
#394=DIRECTION('Vector Direction',(0.,1.,0.)) ;
#401=DIRECTION('Vector Direction',(0.,-1.,0.)) ;
#408=DIRECTION('Vector Direction',(0.,0.,1.)) ;
#422=DIRECTION('Axis2P3D Direction',(0.,-1.,0.)) ;
#423=DIRECTION('Axis2P3D XDirection',(0.,0.,-1.)) ;
#427=DIRECTION('Vector Direction',(1.,0.,0.)) ;
#434=DIRECTION('Vector Direction',(1.,0.,0.)) ;
#441=DIRECTION('Vector Direction',(0.,0.,1.)) ;
#453=DIRECTION('Axis2P3D Direction',(0.,0.,-1.)) ;
#454=DIRECTION('Axis2P3D XDirection',(0.,1.,0.)) ;
#458=DIRECTION('Vector Direction',(0.707106781187,0.707106781187,0.)) ;
#472=DIRECTION('Axis2P3D Direction',(-0.,0.,1.)) ;
#473=DIRECTION('Axis2P3D XDirection',(0.,-1.,0.)) ;
#477=DIRECTION('Vector Direction',(-0.707106781187,-0.707106781187,0.)) ;
#501=DIRECTION('Axis2P3D Direction',(-0.707106781187,0.707106781187,0.)) ;
#502=DIRECTION('Axis2P3D XDirection',(0.,0.,1.)) ;
#22=CARTESIAN_POINT(' ',(0.,0.,0.)) ;
#36=CARTESIAN_POINT('Axis2P3D Location',(8.,7.,4.9)) ;
#41=CARTESIAN_POINT('Line Origine',(10.4133520452,5.68157976884,1.75)) ;
#45=CARTESIAN_POINT('Vertex',(10.4133520452,5.68157976884,0.)) ;
#47=CARTESIAN_POINT('Vertex',(10.4133520452,5.68157976884,5.)) ;
#50=CARTESIAN_POINT('Axis2P3D Location',(8.,7.,0.)) ;
#54=CARTESIAN_POINT('Vertex',(5.5866479548,8.31842023116,0.)) ;
#57=CARTESIAN_POINT('Line Origine',(5.5866479548,8.31842023116,1.75)) ;
#61=CARTESIAN_POINT('Vertex',(5.5866479548,8.31842023116,5.)) ;
#64=CARTESIAN_POINT('Axis2P3D Location',(8.,7.,5.)) ;
#76=CARTESIAN_POINT('Axis2P3D Location',(8.,7.,0.)) ;
#81=CARTESIAN_POINT('Axis2P3D Location',(8.,7.,5.)) ;
#93=CARTESIAN_POINT('Axis2P3D Location',(0.,0.,-1.5)) ;
#98=CARTESIAN_POINT('Line Origine',(0.,0.,-1.5)) ;
#102=CARTESIAN_POINT('Vertex',(-14.,0.,-1.5)) ;
#104=CARTESIAN_POINT('Vertex',(14.,0.,-1.5)) ;
#107=CARTESIAN_POINT('Line Origine',(-14.,0.,-0.75)) ;
#111=CARTESIAN_POINT('Vertex',(-14.,0.,0.)) ;
#114=CARTESIAN_POINT('Line Origine',(0.,0.,0.)) ;
#118=CARTESIAN_POINT('Vertex',(14.,0.,0.)) ;
#121=CARTESIAN_POINT('Line Origine',(14.,0.,-0.75)) ;
#133=CARTESIAN_POINT('Axis2P3D Location',(-8.,7.,4.9)) ;
#138=CARTESIAN_POINT('Line Origine',(-10.4133520452,8.31842023116,1.75)) ;
#142=CARTESIAN_POINT('Vertex',(-10.4133520452,8.31842023116,0.)) ;
#144=CARTESIAN_POINT('Vertex',(-10.4133520452,8.31842023116,5.)) ;
#147=CARTESIAN_POINT('Axis2P3D Location',(-8.,7.,0.)) ;
#151=CARTESIAN_POINT('Vertex',(-5.5866479548,5.68157976884,0.)) ;
#154=CARTESIAN_POINT('Line Origine',(-5.5866479548,5.68157976884,1.75)) ;
#158=CARTESIAN_POINT('Vertex',(-5.5866479548,5.68157976884,5.)) ;
#161=CARTESIAN_POINT('Axis2P3D Location',(-8.,7.,5.)) ;
#173=CARTESIAN_POINT('Axis2P3D Location',(-8.,7.,0.)) ;
#178=CARTESIAN_POINT('Axis2P3D Location',(-8.,7.,5.)) ;
#190=CARTESIAN_POINT('Axis2P3D Location',(13.,14.,6.3)) ;
#195=CARTESIAN_POINT('Line Origine',(14.,13.,1.75)) ;
#199=CARTESIAN_POINT('Vertex',(14.,13.,0.)) ;
#201=CARTESIAN_POINT('Vertex',(14.,13.,5.)) ;
#204=CARTESIAN_POINT('Line Origine',(13.5,13.5,2.6645352591E-015)) ;
#208=CARTESIAN_POINT('Vertex',(13.,14.,0.)) ;
#211=CARTESIAN_POINT('Line Origine',(13.,14.,1.75)) ;
#215=CARTESIAN_POINT('Vertex',(13.,14.,5.)) ;
#218=CARTESIAN_POINT('Line Origine',(13.5,13.5,5.)) ;
#230=CARTESIAN_POINT('Axis2P3D Location',(0.,0.,0.)) ;
#235=CARTESIAN_POINT('Line Origine',(-1.7763568394E-015,14.,0.)) ;
#239=CARTESIAN_POINT('Vertex',(-13.,14.,0.)) ;
#242=CARTESIAN_POINT('Line Origine',(14.,6.5,0.)) ;
#247=CARTESIAN_POINT('Line Origine',(-14.,6.5,0.)) ;
#251=CARTESIAN_POINT('Vertex',(-14.,13.,0.)) ;
#254=CARTESIAN_POINT('Line Origine',(-13.5,13.5,0.)) ;
#276=CARTESIAN_POINT('Axis2P3D Location',(0.,14.,0.)) ;
#281=CARTESIAN_POINT('Line Origine',(-1.7763568394E-015,14.,5.)) ;
#285=CARTESIAN_POINT('Vertex',(-13.,14.,5.)) ;
#288=CARTESIAN_POINT('Line Origine',(-13.,14.,2.5)) ;
#300=CARTESIAN_POINT('Axis2P3D Location',(-13.,14.,6.3)) ;
#305=CARTESIAN_POINT('Line Origine',(-13.5,13.5,5.)) ;
#309=CARTESIAN_POINT('Vertex',(-14.,13.,5.)) ;
#312=CARTESIAN_POINT('Line Origine',(-14.,13.,1.75)) ;
#324=CARTESIAN_POINT('Axis2P3D Location',(-14.,0.,0.)) ;
#329=CARTESIAN_POINT('Line Origine',(-14.,-5.,1.75)) ;
#333=CARTESIAN_POINT('Vertex',(-14.,-5.,5.)) ;
#335=CARTESIAN_POINT('Vertex',(-14.,-5.,-1.5)) ;
#338=CARTESIAN_POINT('Line Origine',(-14.,4.,5.)) ;
#343=CARTESIAN_POINT('Line Origine',(-14.,-2.5,-1.5)) ;
#357=CARTESIAN_POINT('Axis2P3D Location',(-13.,-6.,-2.8)) ;
#362=CARTESIAN_POINT('Line Origine',(-13.5,-5.5,-1.5)) ;
#366=CARTESIAN_POINT('Vertex',(-13.,-6.,-1.5)) ;
#369=CARTESIAN_POINT('Line Origine',(-13.,-6.,1.75)) ;
#373=CARTESIAN_POINT('Vertex',(-13.,-6.,5.)) ;
#376=CARTESIAN_POINT('Line Origine',(-13.5,-5.5,5.)) ;
#388=CARTESIAN_POINT('Axis2P3D Location',(14.,0.,0.)) ;
#393=CARTESIAN_POINT('Line Origine',(14.,-2.5,-1.5)) ;
#397=CARTESIAN_POINT('Vertex',(14.,-5.,-1.5)) ;
#400=CARTESIAN_POINT('Line Origine',(14.,4.,5.)) ;
#404=CARTESIAN_POINT('Vertex',(14.,-5.,5.)) ;
#407=CARTESIAN_POINT('Line Origine',(14.,-5.,1.75)) ;
#421=CARTESIAN_POINT('Axis2P3D Location',(0.,-6.,5.)) ;
#426=CARTESIAN_POINT('Line Origine',(0.,-6.,5.)) ;
#430=CARTESIAN_POINT('Vertex',(13.,-6.,5.)) ;
#433=CARTESIAN_POINT('Line Origine',(0.,-6.,-1.5)) ;
#437=CARTESIAN_POINT('Vertex',(13.,-6.,-1.5)) ;
#440=CARTESIAN_POINT('Line Origine',(13.,-6.,1.75)) ;
#452=CARTESIAN_POINT('Axis2P3D Location',(0.,-6.,-1.5)) ;
#457=CARTESIAN_POINT('Line Origine',(13.5,-5.5,-1.5)) ;
#471=CARTESIAN_POINT('Axis2P3D Location',(0.,14.,5.)) ;
#476=CARTESIAN_POINT('Line Origine',(13.5,-5.5,5.)) ;
#500=CARTESIAN_POINT('Axis2P3D Location',(13.,-6.,-2.8)) ;
#514=MECHANICAL_DESIGN_GEOMETRIC_PRESENTATION_REPRESENTATION(' ',(#34),#21) ;
#24=SHAPE_REPRESENTATION(' ',(#23),#21) ;
#23=AXIS2_PLACEMENT_3D(' ',#22,$,$) ;
#39=AXIS2_PLACEMENT_3D('Cylinder Axis2P3D',#36,#37,#38) ;
#52=AXIS2_PLACEMENT_3D('Circle Axis2P3D',#50,#51,$) ;
#66=AXIS2_PLACEMENT_3D('Circle Axis2P3D',#64,#65,$) ;
#78=AXIS2_PLACEMENT_3D('Circle Axis2P3D',#76,#77,$) ;
#83=AXIS2_PLACEMENT_3D('Circle Axis2P3D',#81,#82,$) ;
#96=AXIS2_PLACEMENT_3D('Plane Axis2P3D',#93,#94,#95) ;
#136=AXIS2_PLACEMENT_3D('Cylinder Axis2P3D',#133,#134,#135) ;
#149=AXIS2_PLACEMENT_3D('Circle Axis2P3D',#147,#148,$) ;
#163=AXIS2_PLACEMENT_3D('Circle Axis2P3D',#161,#162,$) ;
#175=AXIS2_PLACEMENT_3D('Circle Axis2P3D',#173,#174,$) ;
#180=AXIS2_PLACEMENT_3D('Circle Axis2P3D',#178,#179,$) ;
#193=AXIS2_PLACEMENT_3D('Plane Axis2P3D',#190,#191,#192) ;
#233=AXIS2_PLACEMENT_3D('Plane Axis2P3D',#230,#231,#232) ;
#279=AXIS2_PLACEMENT_3D('Plane Axis2P3D',#276,#277,#278) ;
#303=AXIS2_PLACEMENT_3D('Plane Axis2P3D',#300,#301,#302) ;
#327=AXIS2_PLACEMENT_3D('Plane Axis2P3D',#324,#325,#326) ;
#360=AXIS2_PLACEMENT_3D('Plane Axis2P3D',#357,#358,#359) ;
#391=AXIS2_PLACEMENT_3D('Plane Axis2P3D',#388,#389,#390) ;
#424=AXIS2_PLACEMENT_3D('Plane Axis2P3D',#421,#422,#423) ;
#455=AXIS2_PLACEMENT_3D('Plane Axis2P3D',#452,#453,#454) ;
#474=AXIS2_PLACEMENT_3D('Plane Axis2P3D',#471,#472,#473) ;
#503=AXIS2_PLACEMENT_3D('Plane Axis2P3D',#500,#501,#502) ;
#13=DATE_AND_TIME(#11,#12) ;
#12=LOCAL_TIME(9,50,20.,#10) ;
#10=COORDINATED_UNIVERSAL_TIME_OFFSET(0,0,.AHEAD.) ;
#7=PRODUCT_CATEGORY('part','specification') ;
#11=CALENDAR_DATE(2022,5,7) ;
#8=PRODUCT_RELATED_PRODUCT_CATEGORY('part',$,(#5)) ;
#20=UNCERTAINTY_MEASURE_WITH_UNIT(LENGTH_MEASURE(0.005),#16,'distance_accuracy_value','CONFUSED CURVE UNCERTAINTY') ;
#270=FACE_BOUND('',#267,.T.) ;
#274=FACE_BOUND('',#271,.T.) ;
#494=FACE_BOUND('',#491,.T.) ;
#498=FACE_BOUND('',#495,.T.) ;
#49=EDGE_CURVE('',#46,#48,#44,.F.) ;
#56=EDGE_CURVE('',#46,#55,#53,.T.) ;
#63=EDGE_CURVE('',#55,#62,#60,.F.) ;
#68=EDGE_CURVE('',#62,#48,#67,.F.) ;
#80=EDGE_CURVE('',#55,#46,#79,.T.) ;
#85=EDGE_CURVE('',#48,#62,#84,.F.) ;
#106=EDGE_CURVE('',#103,#105,#101,.T.) ;
#113=EDGE_CURVE('',#103,#112,#110,.T.) ;
#120=EDGE_CURVE('',#112,#119,#117,.T.) ;
#125=EDGE_CURVE('',#105,#119,#124,.T.) ;
#146=EDGE_CURVE('',#143,#145,#141,.F.) ;
#153=EDGE_CURVE('',#143,#152,#150,.T.) ;
#160=EDGE_CURVE('',#152,#159,#157,.F.) ;
#165=EDGE_CURVE('',#159,#145,#164,.F.) ;
#177=EDGE_CURVE('',#152,#143,#176,.T.) ;
#182=EDGE_CURVE('',#145,#159,#181,.F.) ;
#203=EDGE_CURVE('',#200,#202,#198,.F.) ;
#210=EDGE_CURVE('',#200,#209,#207,.F.) ;
#217=EDGE_CURVE('',#209,#216,#214,.F.) ;
#222=EDGE_CURVE('',#216,#202,#221,.T.) ;
#241=EDGE_CURVE('',#240,#209,#238,.T.) ;
#246=EDGE_CURVE('',#119,#200,#245,.T.) ;
#253=EDGE_CURVE('',#112,#252,#250,.T.) ;
#258=EDGE_CURVE('',#240,#252,#257,.T.) ;
#287=EDGE_CURVE('',#286,#216,#284,.T.) ;
#292=EDGE_CURVE('',#240,#286,#291,.F.) ;
#311=EDGE_CURVE('',#310,#286,#308,.F.) ;
#316=EDGE_CURVE('',#252,#310,#315,.F.) ;
#337=EDGE_CURVE('',#334,#336,#332,.F.) ;
#342=EDGE_CURVE('',#310,#334,#341,.T.) ;
#347=EDGE_CURVE('',#336,#103,#346,.T.) ;
#368=EDGE_CURVE('',#336,#367,#365,.F.) ;
#375=EDGE_CURVE('',#374,#367,#372,.F.) ;
#380=EDGE_CURVE('',#374,#334,#379,.T.) ;
#399=EDGE_CURVE('',#398,#105,#396,.T.) ;
#406=EDGE_CURVE('',#202,#405,#403,.T.) ;
#411=EDGE_CURVE('',#405,#398,#410,.F.) ;
#432=EDGE_CURVE('',#374,#431,#429,.T.) ;
#439=EDGE_CURVE('',#367,#438,#436,.T.) ;
#444=EDGE_CURVE('',#431,#438,#443,.F.) ;
#461=EDGE_CURVE('',#438,#398,#460,.T.) ;
#480=EDGE_CURVE('',#405,#431,#479,.T.) ;
#97=PLANE('Plane',#96) ;
#194=PLANE('Plane',#193) ;
#234=PLANE('Plane',#233) ;
#280=PLANE('Plane',#279) ;
#304=PLANE('Plane',#303) ;
#328=PLANE('Plane',#327) ;
#361=PLANE('Plane',#360) ;
#392=PLANE('Plane',#391) ;
#425=PLANE('Plane',#424) ;
#456=PLANE('Plane',#455) ;
#475=PLANE('Plane',#474) ;
#504=PLANE('Plane',#503) ;
#70=ORIENTED_EDGE('',*,*,#49,.F.) ;
#71=ORIENTED_EDGE('',*,*,#56,.T.) ;
#72=ORIENTED_EDGE('',*,*,#63,.T.) ;
#73=ORIENTED_EDGE('',*,*,#68,.T.) ;
#87=ORIENTED_EDGE('',*,*,#63,.F.) ;
#88=ORIENTED_EDGE('',*,*,#80,.T.) ;
#89=ORIENTED_EDGE('',*,*,#49,.T.) ;
#90=ORIENTED_EDGE('',*,*,#85,.T.) ;
#127=ORIENTED_EDGE('',*,*,#106,.F.) ;
#128=ORIENTED_EDGE('',*,*,#113,.T.) ;
#129=ORIENTED_EDGE('',*,*,#120,.T.) ;
#130=ORIENTED_EDGE('',*,*,#125,.F.) ;
#167=ORIENTED_EDGE('',*,*,#146,.F.) ;
#168=ORIENTED_EDGE('',*,*,#153,.T.) ;
#169=ORIENTED_EDGE('',*,*,#160,.T.) ;
#170=ORIENTED_EDGE('',*,*,#165,.T.) ;
#184=ORIENTED_EDGE('',*,*,#160,.F.) ;
#185=ORIENTED_EDGE('',*,*,#177,.T.) ;
#186=ORIENTED_EDGE('',*,*,#146,.T.) ;
#187=ORIENTED_EDGE('',*,*,#182,.T.) ;
#224=ORIENTED_EDGE('',*,*,#203,.F.) ;
#225=ORIENTED_EDGE('',*,*,#210,.T.) ;
#226=ORIENTED_EDGE('',*,*,#217,.T.) ;
#227=ORIENTED_EDGE('',*,*,#222,.T.) ;
#260=ORIENTED_EDGE('',*,*,#241,.T.) ;
#261=ORIENTED_EDGE('',*,*,#210,.F.) ;
#262=ORIENTED_EDGE('',*,*,#246,.F.) ;
#263=ORIENTED_EDGE('',*,*,#120,.F.) ;
#264=ORIENTED_EDGE('',*,*,#253,.T.) ;
#265=ORIENTED_EDGE('',*,*,#258,.F.) ;
#268=ORIENTED_EDGE('',*,*,#80,.F.) ;
#269=ORIENTED_EDGE('',*,*,#56,.F.) ;
#272=ORIENTED_EDGE('',*,*,#177,.F.) ;
#273=ORIENTED_EDGE('',*,*,#153,.F.) ;
#294=ORIENTED_EDGE('',*,*,#287,.T.) ;
#295=ORIENTED_EDGE('',*,*,#217,.F.) ;
#296=ORIENTED_EDGE('',*,*,#241,.F.) ;
#297=ORIENTED_EDGE('',*,*,#292,.T.) ;
#318=ORIENTED_EDGE('',*,*,#311,.T.) ;
#319=ORIENTED_EDGE('',*,*,#292,.F.) ;
#320=ORIENTED_EDGE('',*,*,#258,.T.) ;
#321=ORIENTED_EDGE('',*,*,#316,.T.) ;
#349=ORIENTED_EDGE('',*,*,#337,.F.) ;
#350=ORIENTED_EDGE('',*,*,#342,.F.) ;
#351=ORIENTED_EDGE('',*,*,#316,.F.) ;
#352=ORIENTED_EDGE('',*,*,#253,.F.) ;
#353=ORIENTED_EDGE('',*,*,#113,.F.) ;
#354=ORIENTED_EDGE('',*,*,#347,.F.) ;
#382=ORIENTED_EDGE('',*,*,#368,.T.) ;
#383=ORIENTED_EDGE('',*,*,#375,.F.) ;
#384=ORIENTED_EDGE('',*,*,#380,.T.) ;
#385=ORIENTED_EDGE('',*,*,#337,.T.) ;
#413=ORIENTED_EDGE('',*,*,#399,.T.) ;
#414=ORIENTED_EDGE('',*,*,#125,.T.) ;
#415=ORIENTED_EDGE('',*,*,#246,.T.) ;
#416=ORIENTED_EDGE('',*,*,#203,.T.) ;
#417=ORIENTED_EDGE('',*,*,#406,.T.) ;
#418=ORIENTED_EDGE('',*,*,#411,.T.) ;
#446=ORIENTED_EDGE('',*,*,#432,.F.) ;
#447=ORIENTED_EDGE('',*,*,#375,.T.) ;
#448=ORIENTED_EDGE('',*,*,#439,.T.) ;
#449=ORIENTED_EDGE('',*,*,#444,.F.) ;
#463=ORIENTED_EDGE('',*,*,#439,.F.) ;
#464=ORIENTED_EDGE('',*,*,#368,.F.) ;
#465=ORIENTED_EDGE('',*,*,#347,.T.) ;
#466=ORIENTED_EDGE('',*,*,#106,.T.) ;
#467=ORIENTED_EDGE('',*,*,#399,.F.) ;
#468=ORIENTED_EDGE('',*,*,#461,.F.) ;
#482=ORIENTED_EDGE('',*,*,#406,.F.) ;
#483=ORIENTED_EDGE('',*,*,#222,.F.) ;
#484=ORIENTED_EDGE('',*,*,#287,.F.) ;
#485=ORIENTED_EDGE('',*,*,#311,.F.) ;
#486=ORIENTED_EDGE('',*,*,#342,.T.) ;
#487=ORIENTED_EDGE('',*,*,#380,.F.) ;
#488=ORIENTED_EDGE('',*,*,#432,.T.) ;
#489=ORIENTED_EDGE('',*,*,#480,.F.) ;
#492=ORIENTED_EDGE('',*,*,#85,.F.) ;
#493=ORIENTED_EDGE('',*,*,#68,.F.) ;
#496=ORIENTED_EDGE('',*,*,#182,.F.) ;
#497=ORIENTED_EDGE('',*,*,#165,.F.) ;
#506=ORIENTED_EDGE('',*,*,#411,.F.) ;
#507=ORIENTED_EDGE('',*,*,#480,.T.) ;
#508=ORIENTED_EDGE('',*,*,#444,.T.) ;
#509=ORIENTED_EDGE('',*,*,#461,.T.) ;
#35=CLOSED_SHELL('Closed Shell',(#75,#92,#132,#172,#189,#229,#275,#299,#323,#356,#387,#420,#451,#470,#499,#511)) ;
#512=ADVANCED_BREP_SHAPE_REPRESENTATION('NONE',(#26),#21) ;
#6=PRODUCT_DEFINITION_FORMATION_WITH_SPECIFIED_SOURCE('',' ',#5,.NOT_KNOWN.) ;
#44=LINE('Line',#41,#43) ;
#60=LINE('Line',#57,#59) ;
#101=LINE('Line',#98,#100) ;
#110=LINE('Line',#107,#109) ;
#117=LINE('Line',#114,#116) ;
#124=LINE('Line',#121,#123) ;
#141=LINE('Line',#138,#140) ;
#157=LINE('Line',#154,#156) ;
#198=LINE('Line',#195,#197) ;
#207=LINE('Line',#204,#206) ;
#214=LINE('Line',#211,#213) ;
#221=LINE('Line',#218,#220) ;
#238=LINE('Line',#235,#237) ;
#245=LINE('Line',#242,#244) ;
#250=LINE('Line',#247,#249) ;
#257=LINE('Line',#254,#256) ;
#284=LINE('Line',#281,#283) ;
#291=LINE('Line',#288,#290) ;
#308=LINE('Line',#305,#307) ;
#315=LINE('Line',#312,#314) ;
#332=LINE('Line',#329,#331) ;
#341=LINE('Line',#338,#340) ;
#346=LINE('Line',#343,#345) ;
#365=LINE('Line',#362,#364) ;
#372=LINE('Line',#369,#371) ;
#379=LINE('Line',#376,#378) ;
#396=LINE('Line',#393,#395) ;
#403=LINE('Line',#400,#402) ;
#410=LINE('Line',#407,#409) ;
#429=LINE('Line',#426,#428) ;
#436=LINE('Line',#433,#435) ;
#443=LINE('Line',#440,#442) ;
#460=LINE('Line',#457,#459) ;
#479=LINE('Line',#476,#478) ;
#75=ADVANCED_FACE('Corps principal',(#74),#40,.F.) ;
#92=ADVANCED_FACE('Corps principal',(#91),#40,.F.) ;
#132=ADVANCED_FACE('Corps principal',(#131),#97,.T.) ;
#172=ADVANCED_FACE('Corps principal',(#171),#137,.F.) ;
#189=ADVANCED_FACE('Corps principal',(#188),#137,.F.) ;
#229=ADVANCED_FACE('Corps principal',(#228),#194,.F.) ;
#275=ADVANCED_FACE('Corps principal',(#266,#270,#274),#234,.T.) ;
#299=ADVANCED_FACE('Corps principal',(#298),#280,.T.) ;
#323=ADVANCED_FACE('Corps principal',(#322),#304,.T.) ;
#356=ADVANCED_FACE('Corps principal',(#355),#328,.F.) ;
#387=ADVANCED_FACE('Corps principal',(#386),#361,.T.) ;
#420=ADVANCED_FACE('Corps principal',(#419),#392,.T.) ;
#451=ADVANCED_FACE('Corps principal',(#450),#425,.T.) ;
#470=ADVANCED_FACE('Corps principal',(#469),#456,.T.) ;
#499=ADVANCED_FACE('Corps principal',(#490,#494,#498),#475,.T.) ;
#511=ADVANCED_FACE('Corps principal',(#510),#504,.F.) ;
#53=CIRCLE('generated circle',#52,2.75) ;
#67=CIRCLE('generated circle',#66,2.75) ;
#79=CIRCLE('generated circle',#78,2.75) ;
#84=CIRCLE('generated circle',#83,2.75) ;
#150=CIRCLE('generated circle',#149,2.75) ;
#164=CIRCLE('generated circle',#163,2.75) ;
#176=CIRCLE('generated circle',#175,2.75) ;
#181=CIRCLE('generated circle',#180,2.75) ;
#40=CYLINDRICAL_SURFACE('generated cylinder',#39,2.75) ;
#137=CYLINDRICAL_SURFACE('generated cylinder',#136,2.75) ;
#46=VERTEX_POINT('',#45) ;
#48=VERTEX_POINT('',#47) ;
#55=VERTEX_POINT('',#54) ;
#62=VERTEX_POINT('',#61) ;
#103=VERTEX_POINT('',#102) ;
#105=VERTEX_POINT('',#104) ;
#112=VERTEX_POINT('',#111) ;
#119=VERTEX_POINT('',#118) ;
#143=VERTEX_POINT('',#142) ;
#145=VERTEX_POINT('',#144) ;
#152=VERTEX_POINT('',#151) ;
#159=VERTEX_POINT('',#158) ;
#200=VERTEX_POINT('',#199) ;
#202=VERTEX_POINT('',#201) ;
#209=VERTEX_POINT('',#208) ;
#216=VERTEX_POINT('',#215) ;
#240=VERTEX_POINT('',#239) ;
#252=VERTEX_POINT('',#251) ;
#286=VERTEX_POINT('',#285) ;
#310=VERTEX_POINT('',#309) ;
#334=VERTEX_POINT('',#333) ;
#336=VERTEX_POINT('',#335) ;
#367=VERTEX_POINT('',#366) ;
#374=VERTEX_POINT('',#373) ;
#398=VERTEX_POINT('',#397) ;
#405=VERTEX_POINT('',#404) ;
#431=VERTEX_POINT('',#430) ;
#438=VERTEX_POINT('',#437) ;
#27=COLOUR_RGB('Colour',0.823529411765,0.823529411765,1.) ;
#26=MANIFOLD_SOLID_BREP('Corps principal',#35) ;
#25=SHAPE_DEFINITION_REPRESENTATION(#15,#24) ;
#9=PRODUCT_CATEGORY_RELATIONSHIP(' ',' ',#7,#8) ;
#18=PLANE_ANGLE_MEASURE_WITH_UNIT(PLANE_ANGLE_MEASURE(0.0174532925199),#17) ;
#4=APPLICATION_PROTOCOL_DEFINITION('draft international standard','configuration_control_3d_design_ed2_mim',2004,#1) ;
#69=EDGE_LOOP('',(#70,#71,#72,#73)) ;
#86=EDGE_LOOP('',(#87,#88,#89,#90)) ;
#126=EDGE_LOOP('',(#127,#128,#129,#130)) ;
#166=EDGE_LOOP('',(#167,#168,#169,#170)) ;
#183=EDGE_LOOP('',(#184,#185,#186,#187)) ;
#223=EDGE_LOOP('',(#224,#225,#226,#227)) ;
#259=EDGE_LOOP('',(#260,#261,#262,#263,#264,#265)) ;
#267=EDGE_LOOP('',(#268,#269)) ;
#271=EDGE_LOOP('',(#272,#273)) ;
#293=EDGE_LOOP('',(#294,#295,#296,#297)) ;
#317=EDGE_LOOP('',(#318,#319,#320,#321)) ;
#348=EDGE_LOOP('',(#349,#350,#351,#352,#353,#354)) ;
#381=EDGE_LOOP('',(#382,#383,#384,#385)) ;
#412=EDGE_LOOP('',(#413,#414,#415,#416,#417,#418)) ;
#445=EDGE_LOOP('',(#446,#447,#448,#449)) ;
#462=EDGE_LOOP('',(#463,#464,#465,#466,#467,#468)) ;
#481=EDGE_LOOP('',(#482,#483,#484,#485,#486,#487,#488,#489)) ;
#491=EDGE_LOOP('',(#492,#493)) ;
#495=EDGE_LOOP('',(#496,#497)) ;
#505=EDGE_LOOP('',(#506,#507,#508,#509)) ;
#74=FACE_OUTER_BOUND('',#69,.T.) ;
#91=FACE_OUTER_BOUND('',#86,.T.) ;
#131=FACE_OUTER_BOUND('',#126,.T.) ;
#171=FACE_OUTER_BOUND('',#166,.T.) ;
#188=FACE_OUTER_BOUND('',#183,.T.) ;
#228=FACE_OUTER_BOUND('',#223,.T.) ;
#266=FACE_OUTER_BOUND('',#259,.T.) ;
#298=FACE_OUTER_BOUND('',#293,.T.) ;
#322=FACE_OUTER_BOUND('',#317,.T.) ;
#355=FACE_OUTER_BOUND('',#348,.T.) ;
#386=FACE_OUTER_BOUND('',#381,.T.) ;
#419=FACE_OUTER_BOUND('',#412,.T.) ;
#450=FACE_OUTER_BOUND('',#445,.T.) ;
#469=FACE_OUTER_BOUND('',#462,.T.) ;
#490=FACE_OUTER_BOUND('',#481,.T.) ;
#510=FACE_OUTER_BOUND('',#505,.T.) ;
#16=(LENGTH_UNIT()NAMED_UNIT(*)SI_UNIT(.MILLI.,.METRE.)) ;
#17=(NAMED_UNIT(*)PLANE_ANGLE_UNIT()SI_UNIT($,.RADIAN.)) ;
#19=(NAMED_UNIT(*)SI_UNIT($,.STERADIAN.)SOLID_ANGLE_UNIT()) ;
#21=(GEOMETRIC_REPRESENTATION_CONTEXT(3)GLOBAL_UNCERTAINTY_ASSIGNED_CONTEXT((#20))GLOBAL_UNIT_ASSIGNED_CONTEXT((#16,#17,#19))REPRESENTATION_CONTEXT(' ',' ')) ;
ENDSEC;
END-ISO-10303-21;
