ISO-10303-21;
HEADER;
/* Generated by software containing ST-Developer
 * from STEP Tools, Inc. (www.steptools.com) 
 */

FILE_DESCRIPTION(
/* description */ (''),
/* implementation_level */ '2;1');

FILE_NAME(
/* name */ 
'J:/PERSO/Ebenisterie/Entreprise/PROJETS/LESU-Lesueur/LESU01 Sejour/3_
Projet/Plans/LESU01-101 PLATINE.step',
/* time_stamp */ '2022-06-29T15:49:53+02:00',
/* author */ (''),
/* organization */ (''),
/* preprocessor_version */ 'ST-DEVELOPER v19',
/* originating_system */ 'Autodesk Translation Framework v11.7.0.108',
/* authorisation */ '');

FILE_SCHEMA (('AUTOMOTIVE_DESIGN { 1 0 10303 214 3 1 1 }'));
ENDSEC;

DATA;
#10=MECHANICAL_DESIGN_GEOMETRIC_PRESENTATION_REPRESENTATION('',(#13),#718);
#11=SHAPE_REPRESENTATION_RELATIONSHIP('SRR','None',#725,#12);
#12=ADVANCED_BREP_SHAPE_REPRESENTATION('',(#14),#717);
#13=STYLED_ITEM('',(#734),#14);
#14=MANIFOLD_SOLID_BREP('Corps1',#430);
#15=FACE_BOUND('',#69,.T.);
#16=FACE_BOUND('',#72,.T.);
#17=FACE_BOUND('',#75,.T.);
#18=FACE_BOUND('',#77,.T.);
#19=FACE_BOUND('',#78,.T.);
#20=FACE_BOUND('',#79,.T.);
#21=FACE_BOUND('',#80,.T.);
#22=FACE_BOUND('',#85,.T.);
#23=FACE_BOUND('',#91,.T.);
#24=FACE_BOUND('',#92,.T.);
#25=FACE_BOUND('',#93,.T.);
#26=FACE_BOUND('',#94,.T.);
#27=PLANE('',#456);
#28=PLANE('',#457);
#29=PLANE('',#458);
#30=PLANE('',#465);
#31=PLANE('',#467);
#32=PLANE('',#468);
#33=PLANE('',#470);
#34=PLANE('',#471);
#35=PLANE('',#475);
#36=PLANE('',#476);
#37=PLANE('',#477);
#38=PLANE('',#478);
#39=PLANE('',#479);
#40=PLANE('',#480);
#41=FACE_OUTER_BOUND('',#62,.T.);
#42=FACE_OUTER_BOUND('',#63,.T.);
#43=FACE_OUTER_BOUND('',#64,.T.);
#44=FACE_OUTER_BOUND('',#65,.T.);
#45=FACE_OUTER_BOUND('',#66,.T.);
#46=FACE_OUTER_BOUND('',#67,.T.);
#47=FACE_OUTER_BOUND('',#68,.T.);
#48=FACE_OUTER_BOUND('',#70,.T.);
#49=FACE_OUTER_BOUND('',#71,.T.);
#50=FACE_OUTER_BOUND('',#73,.T.);
#51=FACE_OUTER_BOUND('',#74,.T.);
#52=FACE_OUTER_BOUND('',#76,.T.);
#53=FACE_OUTER_BOUND('',#81,.T.);
#54=FACE_OUTER_BOUND('',#82,.T.);
#55=FACE_OUTER_BOUND('',#83,.T.);
#56=FACE_OUTER_BOUND('',#84,.T.);
#57=FACE_OUTER_BOUND('',#86,.T.);
#58=FACE_OUTER_BOUND('',#87,.T.);
#59=FACE_OUTER_BOUND('',#88,.T.);
#60=FACE_OUTER_BOUND('',#89,.T.);
#61=FACE_OUTER_BOUND('',#90,.T.);
#62=EDGE_LOOP('',(#288,#289,#290,#291));
#63=EDGE_LOOP('',(#292,#293,#294,#295));
#64=EDGE_LOOP('',(#296,#297,#298,#299));
#65=EDGE_LOOP('',(#300,#301,#302,#303));
#66=EDGE_LOOP('',(#304,#305,#306,#307));
#67=EDGE_LOOP('',(#308,#309,#310,#311));
#68=EDGE_LOOP('',(#312,#313,#314,#315,#316,#317,#318));
#69=EDGE_LOOP('',(#319));
#70=EDGE_LOOP('',(#320,#321,#322,#323,#324,#325,#326,#327));
#71=EDGE_LOOP('',(#328,#329,#330,#331,#332,#333));
#72=EDGE_LOOP('',(#334));
#73=EDGE_LOOP('',(#335,#336,#337,#338));
#74=EDGE_LOOP('',(#339,#340,#341,#342,#343,#344,#345));
#75=EDGE_LOOP('',(#346));
#76=EDGE_LOOP('',(#347,#348,#349,#350));
#77=EDGE_LOOP('',(#351));
#78=EDGE_LOOP('',(#352));
#79=EDGE_LOOP('',(#353));
#80=EDGE_LOOP('',(#354));
#81=EDGE_LOOP('',(#355,#356,#357,#358));
#82=EDGE_LOOP('',(#359,#360,#361,#362));
#83=EDGE_LOOP('',(#363,#364,#365,#366));
#84=EDGE_LOOP('',(#367,#368,#369,#370,#371,#372));
#85=EDGE_LOOP('',(#373));
#86=EDGE_LOOP('',(#374,#375,#376,#377));
#87=EDGE_LOOP('',(#378,#379,#380,#381));
#88=EDGE_LOOP('',(#382,#383,#384,#385));
#89=EDGE_LOOP('',(#386,#387,#388,#389));
#90=EDGE_LOOP('',(#390,#391,#392,#393,#394,#395,#396,#397));
#91=EDGE_LOOP('',(#398));
#92=EDGE_LOOP('',(#399));
#93=EDGE_LOOP('',(#400));
#94=EDGE_LOOP('',(#401));
#95=LINE('',#603,#136);
#96=LINE('',#609,#137);
#97=LINE('',#615,#138);
#98=LINE('',#621,#139);
#99=LINE('',#626,#140);
#100=LINE('',#628,#141);
#101=LINE('',#630,#142);
#102=LINE('',#631,#143);
#103=LINE('',#635,#144);
#104=LINE('',#637,#145);
#105=LINE('',#639,#146);
#106=LINE('',#640,#147);
#107=LINE('',#643,#148);
#108=LINE('',#645,#149);
#109=LINE('',#647,#150);
#110=LINE('',#649,#151);
#111=LINE('',#651,#152);
#112=LINE('',#657,#153);
#113=LINE('',#662,#154);
#114=LINE('',#666,#155);
#115=LINE('',#668,#156);
#116=LINE('',#670,#157);
#117=LINE('',#671,#158);
#118=LINE('',#676,#159);
#119=LINE('',#677,#160);
#120=LINE('',#680,#161);
#121=LINE('',#682,#162);
#122=LINE('',#684,#163);
#123=LINE('',#686,#164);
#124=LINE('',#687,#165);
#125=LINE('',#691,#166);
#126=LINE('',#693,#167);
#127=LINE('',#695,#168);
#128=LINE('',#699,#169);
#129=LINE('',#702,#170);
#130=LINE('',#704,#171);
#131=LINE('',#705,#172);
#132=LINE('',#707,#173);
#133=LINE('',#709,#174);
#134=LINE('',#711,#175);
#135=LINE('',#713,#176);
#136=VECTOR('',#487,2.25);
#137=VECTOR('',#494,2.25);
#138=VECTOR('',#501,2.25);
#139=VECTOR('',#508,2.25);
#140=VECTOR('',#513,10.);
#141=VECTOR('',#514,10.);
#142=VECTOR('',#515,10.);
#143=VECTOR('',#516,10.);
#144=VECTOR('',#519,10.);
#145=VECTOR('',#520,10.);
#146=VECTOR('',#521,10.);
#147=VECTOR('',#522,10.);
#148=VECTOR('',#525,10.);
#149=VECTOR('',#526,10.);
#150=VECTOR('',#527,10.);
#151=VECTOR('',#528,10.);
#152=VECTOR('',#529,10.);
#153=VECTOR('',#536,10.);
#154=VECTOR('',#541,10.);
#155=VECTOR('',#546,10.);
#156=VECTOR('',#547,10.);
#157=VECTOR('',#548,10.);
#158=VECTOR('',#549,10.);
#159=VECTOR('',#554,10.);
#160=VECTOR('',#555,10.);
#161=VECTOR('',#558,10.);
#162=VECTOR('',#559,10.);
#163=VECTOR('',#560,10.);
#164=VECTOR('',#561,10.);
#165=VECTOR('',#562,10.);
#166=VECTOR('',#567,10.);
#167=VECTOR('',#570,10.);
#168=VECTOR('',#573,2.5);
#169=VECTOR('',#578,2.5);
#170=VECTOR('',#581,10.);
#171=VECTOR('',#582,10.);
#172=VECTOR('',#583,10.);
#173=VECTOR('',#586,10.);
#174=VECTOR('',#589,10.);
#175=VECTOR('',#592,10.);
#176=VECTOR('',#595,10.);
#177=CIRCLE('',#445,2.25);
#178=CIRCLE('',#446,2.25);
#179=CIRCLE('',#448,2.25);
#180=CIRCLE('',#449,2.25);
#181=CIRCLE('',#451,2.25);
#182=CIRCLE('',#452,2.25);
#183=CIRCLE('',#454,2.25);
#184=CIRCLE('',#455,2.25);
#185=CIRCLE('',#459,6.);
#186=CIRCLE('',#460,2.5);
#187=CIRCLE('',#462,6.);
#188=CIRCLE('',#463,6.);
#189=CIRCLE('',#464,6.);
#190=CIRCLE('',#466,2.5);
#191=CIRCLE('',#469,2.5);
#192=CIRCLE('',#474,2.5);
#193=VERTEX_POINT('',#600);
#194=VERTEX_POINT('',#602);
#195=VERTEX_POINT('',#606);
#196=VERTEX_POINT('',#608);
#197=VERTEX_POINT('',#612);
#198=VERTEX_POINT('',#614);
#199=VERTEX_POINT('',#618);
#200=VERTEX_POINT('',#620);
#201=VERTEX_POINT('',#624);
#202=VERTEX_POINT('',#625);
#203=VERTEX_POINT('',#627);
#204=VERTEX_POINT('',#629);
#205=VERTEX_POINT('',#633);
#206=VERTEX_POINT('',#634);
#207=VERTEX_POINT('',#636);
#208=VERTEX_POINT('',#638);
#209=VERTEX_POINT('',#642);
#210=VERTEX_POINT('',#644);
#211=VERTEX_POINT('',#646);
#212=VERTEX_POINT('',#648);
#213=VERTEX_POINT('',#650);
#214=VERTEX_POINT('',#653);
#215=VERTEX_POINT('',#656);
#216=VERTEX_POINT('',#659);
#217=VERTEX_POINT('',#661);
#218=VERTEX_POINT('',#665);
#219=VERTEX_POINT('',#667);
#220=VERTEX_POINT('',#669);
#221=VERTEX_POINT('',#672);
#222=VERTEX_POINT('',#675);
#223=VERTEX_POINT('',#679);
#224=VERTEX_POINT('',#681);
#225=VERTEX_POINT('',#683);
#226=VERTEX_POINT('',#685);
#227=VERTEX_POINT('',#688);
#228=VERTEX_POINT('',#697);
#229=VERTEX_POINT('',#701);
#230=VERTEX_POINT('',#703);
#231=EDGE_CURVE('',#193,#193,#177,.T.);
#232=EDGE_CURVE('',#193,#194,#95,.T.);
#233=EDGE_CURVE('',#194,#194,#178,.T.);
#234=EDGE_CURVE('',#195,#195,#179,.T.);
#235=EDGE_CURVE('',#195,#196,#96,.T.);
#236=EDGE_CURVE('',#196,#196,#180,.T.);
#237=EDGE_CURVE('',#197,#197,#181,.T.);
#238=EDGE_CURVE('',#197,#198,#97,.T.);
#239=EDGE_CURVE('',#198,#198,#182,.T.);
#240=EDGE_CURVE('',#199,#199,#183,.T.);
#241=EDGE_CURVE('',#199,#200,#98,.T.);
#242=EDGE_CURVE('',#200,#200,#184,.T.);
#243=EDGE_CURVE('',#201,#202,#99,.T.);
#244=EDGE_CURVE('',#201,#203,#100,.T.);
#245=EDGE_CURVE('',#204,#203,#101,.T.);
#246=EDGE_CURVE('',#202,#204,#102,.T.);
#247=EDGE_CURVE('',#205,#206,#103,.T.);
#248=EDGE_CURVE('',#207,#205,#104,.T.);
#249=EDGE_CURVE('',#208,#207,#105,.T.);
#250=EDGE_CURVE('',#208,#206,#106,.T.);
#251=EDGE_CURVE('',#209,#207,#107,.T.);
#252=EDGE_CURVE('',#210,#209,#108,.T.);
#253=EDGE_CURVE('',#211,#210,#109,.T.);
#254=EDGE_CURVE('',#211,#212,#110,.T.);
#255=EDGE_CURVE('',#213,#212,#111,.T.);
#256=EDGE_CURVE('',#213,#208,#185,.T.);
#257=EDGE_CURVE('',#214,#214,#186,.T.);
#258=EDGE_CURVE('',#215,#213,#112,.T.);
#259=EDGE_CURVE('',#203,#215,#187,.T.);
#260=EDGE_CURVE('',#216,#201,#188,.T.);
#261=EDGE_CURVE('',#217,#216,#113,.T.);
#262=EDGE_CURVE('',#206,#217,#189,.T.);
#263=EDGE_CURVE('',#218,#202,#114,.T.);
#264=EDGE_CURVE('',#219,#218,#115,.T.);
#265=EDGE_CURVE('',#220,#219,#116,.T.);
#266=EDGE_CURVE('',#220,#216,#117,.T.);
#267=EDGE_CURVE('',#221,#221,#190,.T.);
#268=EDGE_CURVE('',#205,#222,#118,.T.);
#269=EDGE_CURVE('',#222,#209,#119,.T.);
#270=EDGE_CURVE('',#223,#215,#120,.T.);
#271=EDGE_CURVE('',#224,#223,#121,.T.);
#272=EDGE_CURVE('',#225,#224,#122,.T.);
#273=EDGE_CURVE('',#225,#226,#123,.T.);
#274=EDGE_CURVE('',#204,#226,#124,.T.);
#275=EDGE_CURVE('',#227,#227,#191,.T.);
#276=EDGE_CURVE('',#212,#223,#125,.T.);
#277=EDGE_CURVE('',#226,#218,#126,.T.);
#278=EDGE_CURVE('',#227,#221,#127,.T.);
#279=EDGE_CURVE('',#228,#228,#192,.T.);
#280=EDGE_CURVE('',#228,#214,#128,.T.);
#281=EDGE_CURVE('',#229,#217,#129,.T.);
#282=EDGE_CURVE('',#230,#229,#130,.T.);
#283=EDGE_CURVE('',#230,#222,#131,.T.);
#284=EDGE_CURVE('',#229,#220,#132,.T.);
#285=EDGE_CURVE('',#219,#225,#133,.T.);
#286=EDGE_CURVE('',#224,#211,#134,.T.);
#287=EDGE_CURVE('',#210,#230,#135,.T.);
#288=ORIENTED_EDGE('',*,*,#231,.F.);
#289=ORIENTED_EDGE('',*,*,#232,.T.);
#290=ORIENTED_EDGE('',*,*,#233,.F.);
#291=ORIENTED_EDGE('',*,*,#232,.F.);
#292=ORIENTED_EDGE('',*,*,#234,.F.);
#293=ORIENTED_EDGE('',*,*,#235,.T.);
#294=ORIENTED_EDGE('',*,*,#236,.F.);
#295=ORIENTED_EDGE('',*,*,#235,.F.);
#296=ORIENTED_EDGE('',*,*,#237,.F.);
#297=ORIENTED_EDGE('',*,*,#238,.T.);
#298=ORIENTED_EDGE('',*,*,#239,.F.);
#299=ORIENTED_EDGE('',*,*,#238,.F.);
#300=ORIENTED_EDGE('',*,*,#240,.F.);
#301=ORIENTED_EDGE('',*,*,#241,.T.);
#302=ORIENTED_EDGE('',*,*,#242,.F.);
#303=ORIENTED_EDGE('',*,*,#241,.F.);
#304=ORIENTED_EDGE('',*,*,#243,.F.);
#305=ORIENTED_EDGE('',*,*,#244,.T.);
#306=ORIENTED_EDGE('',*,*,#245,.F.);
#307=ORIENTED_EDGE('',*,*,#246,.F.);
#308=ORIENTED_EDGE('',*,*,#247,.F.);
#309=ORIENTED_EDGE('',*,*,#248,.F.);
#310=ORIENTED_EDGE('',*,*,#249,.F.);
#311=ORIENTED_EDGE('',*,*,#250,.T.);
#312=ORIENTED_EDGE('',*,*,#249,.T.);
#313=ORIENTED_EDGE('',*,*,#251,.F.);
#314=ORIENTED_EDGE('',*,*,#252,.F.);
#315=ORIENTED_EDGE('',*,*,#253,.F.);
#316=ORIENTED_EDGE('',*,*,#254,.T.);
#317=ORIENTED_EDGE('',*,*,#255,.F.);
#318=ORIENTED_EDGE('',*,*,#256,.T.);
#319=ORIENTED_EDGE('',*,*,#257,.T.);
#320=ORIENTED_EDGE('',*,*,#250,.F.);
#321=ORIENTED_EDGE('',*,*,#256,.F.);
#322=ORIENTED_EDGE('',*,*,#258,.F.);
#323=ORIENTED_EDGE('',*,*,#259,.F.);
#324=ORIENTED_EDGE('',*,*,#244,.F.);
#325=ORIENTED_EDGE('',*,*,#260,.F.);
#326=ORIENTED_EDGE('',*,*,#261,.F.);
#327=ORIENTED_EDGE('',*,*,#262,.F.);
#328=ORIENTED_EDGE('',*,*,#243,.T.);
#329=ORIENTED_EDGE('',*,*,#263,.F.);
#330=ORIENTED_EDGE('',*,*,#264,.F.);
#331=ORIENTED_EDGE('',*,*,#265,.F.);
#332=ORIENTED_EDGE('',*,*,#266,.T.);
#333=ORIENTED_EDGE('',*,*,#260,.T.);
#334=ORIENTED_EDGE('',*,*,#267,.T.);
#335=ORIENTED_EDGE('',*,*,#248,.T.);
#336=ORIENTED_EDGE('',*,*,#268,.T.);
#337=ORIENTED_EDGE('',*,*,#269,.T.);
#338=ORIENTED_EDGE('',*,*,#251,.T.);
#339=ORIENTED_EDGE('',*,*,#245,.T.);
#340=ORIENTED_EDGE('',*,*,#259,.T.);
#341=ORIENTED_EDGE('',*,*,#270,.F.);
#342=ORIENTED_EDGE('',*,*,#271,.F.);
#343=ORIENTED_EDGE('',*,*,#272,.F.);
#344=ORIENTED_EDGE('',*,*,#273,.T.);
#345=ORIENTED_EDGE('',*,*,#274,.F.);
#346=ORIENTED_EDGE('',*,*,#275,.T.);
#347=ORIENTED_EDGE('',*,*,#258,.T.);
#348=ORIENTED_EDGE('',*,*,#255,.T.);
#349=ORIENTED_EDGE('',*,*,#276,.T.);
#350=ORIENTED_EDGE('',*,*,#270,.T.);
#351=ORIENTED_EDGE('',*,*,#233,.T.);
#352=ORIENTED_EDGE('',*,*,#236,.T.);
#353=ORIENTED_EDGE('',*,*,#239,.T.);
#354=ORIENTED_EDGE('',*,*,#242,.T.);
#355=ORIENTED_EDGE('',*,*,#246,.T.);
#356=ORIENTED_EDGE('',*,*,#274,.T.);
#357=ORIENTED_EDGE('',*,*,#277,.T.);
#358=ORIENTED_EDGE('',*,*,#263,.T.);
#359=ORIENTED_EDGE('',*,*,#275,.F.);
#360=ORIENTED_EDGE('',*,*,#278,.T.);
#361=ORIENTED_EDGE('',*,*,#267,.F.);
#362=ORIENTED_EDGE('',*,*,#278,.F.);
#363=ORIENTED_EDGE('',*,*,#279,.F.);
#364=ORIENTED_EDGE('',*,*,#280,.T.);
#365=ORIENTED_EDGE('',*,*,#257,.F.);
#366=ORIENTED_EDGE('',*,*,#280,.F.);
#367=ORIENTED_EDGE('',*,*,#247,.T.);
#368=ORIENTED_EDGE('',*,*,#262,.T.);
#369=ORIENTED_EDGE('',*,*,#281,.F.);
#370=ORIENTED_EDGE('',*,*,#282,.F.);
#371=ORIENTED_EDGE('',*,*,#283,.T.);
#372=ORIENTED_EDGE('',*,*,#268,.F.);
#373=ORIENTED_EDGE('',*,*,#279,.T.);
#374=ORIENTED_EDGE('',*,*,#261,.T.);
#375=ORIENTED_EDGE('',*,*,#266,.F.);
#376=ORIENTED_EDGE('',*,*,#284,.F.);
#377=ORIENTED_EDGE('',*,*,#281,.T.);
#378=ORIENTED_EDGE('',*,*,#285,.F.);
#379=ORIENTED_EDGE('',*,*,#264,.T.);
#380=ORIENTED_EDGE('',*,*,#277,.F.);
#381=ORIENTED_EDGE('',*,*,#273,.F.);
#382=ORIENTED_EDGE('',*,*,#286,.F.);
#383=ORIENTED_EDGE('',*,*,#271,.T.);
#384=ORIENTED_EDGE('',*,*,#276,.F.);
#385=ORIENTED_EDGE('',*,*,#254,.F.);
#386=ORIENTED_EDGE('',*,*,#287,.F.);
#387=ORIENTED_EDGE('',*,*,#252,.T.);
#388=ORIENTED_EDGE('',*,*,#269,.F.);
#389=ORIENTED_EDGE('',*,*,#283,.F.);
#390=ORIENTED_EDGE('',*,*,#287,.T.);
#391=ORIENTED_EDGE('',*,*,#282,.T.);
#392=ORIENTED_EDGE('',*,*,#284,.T.);
#393=ORIENTED_EDGE('',*,*,#265,.T.);
#394=ORIENTED_EDGE('',*,*,#285,.T.);
#395=ORIENTED_EDGE('',*,*,#272,.T.);
#396=ORIENTED_EDGE('',*,*,#286,.T.);
#397=ORIENTED_EDGE('',*,*,#253,.T.);
#398=ORIENTED_EDGE('',*,*,#231,.T.);
#399=ORIENTED_EDGE('',*,*,#234,.T.);
#400=ORIENTED_EDGE('',*,*,#237,.T.);
#401=ORIENTED_EDGE('',*,*,#240,.T.);
#402=CYLINDRICAL_SURFACE('',#444,2.25);
#403=CYLINDRICAL_SURFACE('',#447,2.25);
#404=CYLINDRICAL_SURFACE('',#450,2.25);
#405=CYLINDRICAL_SURFACE('',#453,2.25);
#406=CYLINDRICAL_SURFACE('',#461,6.);
#407=CYLINDRICAL_SURFACE('',#472,2.5);
#408=CYLINDRICAL_SURFACE('',#473,2.5);
#409=ADVANCED_FACE('',(#41),#402,.F.);
#410=ADVANCED_FACE('',(#42),#403,.F.);
#411=ADVANCED_FACE('',(#43),#404,.F.);
#412=ADVANCED_FACE('',(#44),#405,.F.);
#413=ADVANCED_FACE('',(#45),#27,.F.);
#414=ADVANCED_FACE('',(#46),#28,.F.);
#415=ADVANCED_FACE('',(#47,#15),#29,.T.);
#416=ADVANCED_FACE('',(#48),#406,.F.);
#417=ADVANCED_FACE('',(#49,#16),#30,.T.);
#418=ADVANCED_FACE('',(#50),#31,.T.);
#419=ADVANCED_FACE('',(#51,#17),#32,.T.);
#420=ADVANCED_FACE('',(#52,#18,#19,#20,#21),#33,.T.);
#421=ADVANCED_FACE('',(#53),#34,.T.);
#422=ADVANCED_FACE('',(#54),#407,.F.);
#423=ADVANCED_FACE('',(#55),#408,.F.);
#424=ADVANCED_FACE('',(#56,#22),#35,.T.);
#425=ADVANCED_FACE('',(#57),#36,.T.);
#426=ADVANCED_FACE('',(#58),#37,.T.);
#427=ADVANCED_FACE('',(#59),#38,.T.);
#428=ADVANCED_FACE('',(#60),#39,.T.);
#429=ADVANCED_FACE('',(#61,#23,#24,#25,#26),#40,.T.);
#430=CLOSED_SHELL('',(#409,#410,#411,#412,#413,#414,#415,#416,#417,#418,
#419,#420,#421,#422,#423,#424,#425,#426,#427,#428,#429));
#431=DERIVED_UNIT_ELEMENT(#433,1.);
#432=DERIVED_UNIT_ELEMENT(#720,-3.);
#433=(
MASS_UNIT()
NAMED_UNIT(*)
SI_UNIT(.KILO.,.GRAM.)
);
#434=DERIVED_UNIT((#431,#432));
#435=MEASURE_REPRESENTATION_ITEM('density measure',
POSITIVE_RATIO_MEASURE(7850.),#434);
#436=PROPERTY_DEFINITION_REPRESENTATION(#441,#438);
#437=PROPERTY_DEFINITION_REPRESENTATION(#442,#439);
#438=REPRESENTATION('material name',(#440),#717);
#439=REPRESENTATION('density',(#435),#717);
#440=DESCRIPTIVE_REPRESENTATION_ITEM('Acier','Acier');
#441=PROPERTY_DEFINITION('material property','material name',#727);
#442=PROPERTY_DEFINITION('material property','density of part',#727);
#443=AXIS2_PLACEMENT_3D('placement',#598,#481,#482);
#444=AXIS2_PLACEMENT_3D('',#599,#483,#484);
#445=AXIS2_PLACEMENT_3D('',#601,#485,#486);
#446=AXIS2_PLACEMENT_3D('',#604,#488,#489);
#447=AXIS2_PLACEMENT_3D('',#605,#490,#491);
#448=AXIS2_PLACEMENT_3D('',#607,#492,#493);
#449=AXIS2_PLACEMENT_3D('',#610,#495,#496);
#450=AXIS2_PLACEMENT_3D('',#611,#497,#498);
#451=AXIS2_PLACEMENT_3D('',#613,#499,#500);
#452=AXIS2_PLACEMENT_3D('',#616,#502,#503);
#453=AXIS2_PLACEMENT_3D('',#617,#504,#505);
#454=AXIS2_PLACEMENT_3D('',#619,#506,#507);
#455=AXIS2_PLACEMENT_3D('',#622,#509,#510);
#456=AXIS2_PLACEMENT_3D('',#623,#511,#512);
#457=AXIS2_PLACEMENT_3D('',#632,#517,#518);
#458=AXIS2_PLACEMENT_3D('',#641,#523,#524);
#459=AXIS2_PLACEMENT_3D('',#652,#530,#531);
#460=AXIS2_PLACEMENT_3D('',#654,#532,#533);
#461=AXIS2_PLACEMENT_3D('',#655,#534,#535);
#462=AXIS2_PLACEMENT_3D('',#658,#537,#538);
#463=AXIS2_PLACEMENT_3D('',#660,#539,#540);
#464=AXIS2_PLACEMENT_3D('',#663,#542,#543);
#465=AXIS2_PLACEMENT_3D('',#664,#544,#545);
#466=AXIS2_PLACEMENT_3D('',#673,#550,#551);
#467=AXIS2_PLACEMENT_3D('',#674,#552,#553);
#468=AXIS2_PLACEMENT_3D('',#678,#556,#557);
#469=AXIS2_PLACEMENT_3D('',#689,#563,#564);
#470=AXIS2_PLACEMENT_3D('',#690,#565,#566);
#471=AXIS2_PLACEMENT_3D('',#692,#568,#569);
#472=AXIS2_PLACEMENT_3D('',#694,#571,#572);
#473=AXIS2_PLACEMENT_3D('',#696,#574,#575);
#474=AXIS2_PLACEMENT_3D('',#698,#576,#577);
#475=AXIS2_PLACEMENT_3D('',#700,#579,#580);
#476=AXIS2_PLACEMENT_3D('',#706,#584,#585);
#477=AXIS2_PLACEMENT_3D('',#708,#587,#588);
#478=AXIS2_PLACEMENT_3D('',#710,#590,#591);
#479=AXIS2_PLACEMENT_3D('',#712,#593,#594);
#480=AXIS2_PLACEMENT_3D('',#714,#596,#597);
#481=DIRECTION('axis',(0.,0.,1.));
#482=DIRECTION('refdir',(1.,0.,0.));
#483=DIRECTION('center_axis',(1.,0.,0.));
#484=DIRECTION('ref_axis',(0.,-1.,0.));
#485=DIRECTION('center_axis',(1.,0.,0.));
#486=DIRECTION('ref_axis',(0.,-1.,0.));
#487=DIRECTION('',(1.,0.,0.));
#488=DIRECTION('center_axis',(-1.,0.,0.));
#489=DIRECTION('ref_axis',(0.,-1.,0.));
#490=DIRECTION('center_axis',(1.,0.,0.));
#491=DIRECTION('ref_axis',(0.,-1.,0.));
#492=DIRECTION('center_axis',(1.,0.,0.));
#493=DIRECTION('ref_axis',(0.,-1.,0.));
#494=DIRECTION('',(1.,0.,0.));
#495=DIRECTION('center_axis',(-1.,0.,0.));
#496=DIRECTION('ref_axis',(0.,-1.,0.));
#497=DIRECTION('center_axis',(1.,0.,0.));
#498=DIRECTION('ref_axis',(0.,-1.,0.));
#499=DIRECTION('center_axis',(1.,0.,0.));
#500=DIRECTION('ref_axis',(0.,-1.,0.));
#501=DIRECTION('',(1.,0.,0.));
#502=DIRECTION('center_axis',(-1.,0.,0.));
#503=DIRECTION('ref_axis',(0.,-1.,0.));
#504=DIRECTION('center_axis',(1.,0.,0.));
#505=DIRECTION('ref_axis',(0.,-1.,0.));
#506=DIRECTION('center_axis',(1.,0.,0.));
#507=DIRECTION('ref_axis',(0.,-1.,0.));
#508=DIRECTION('',(1.,0.,0.));
#509=DIRECTION('center_axis',(-1.,0.,0.));
#510=DIRECTION('ref_axis',(0.,-1.,0.));
#511=DIRECTION('center_axis',(-0.839010616854099,-0.544115047399081,0.));
#512=DIRECTION('ref_axis',(-0.544115047399081,0.839010616854099,0.));
#513=DIRECTION('',(0.544115047399081,-0.839010616854099,0.));
#514=DIRECTION('',(0.,0.,1.));
#515=DIRECTION('',(-0.544115047399081,0.839010616854099,0.));
#516=DIRECTION('',(0.,0.,1.));
#517=DIRECTION('center_axis',(-0.839010616854099,-0.544115047399081,0.));
#518=DIRECTION('ref_axis',(-0.544115047399081,0.839010616854099,0.));
#519=DIRECTION('',(-0.544115047399081,0.839010616854099,0.));
#520=DIRECTION('',(0.,0.,1.));
#521=DIRECTION('',(0.544115047399081,-0.839010616854099,-3.72595561894551E-17));
#522=DIRECTION('',(0.,0.,1.));
#523=DIRECTION('center_axis',(0.,4.44089209850063E-17,-1.));
#524=DIRECTION('ref_axis',(0.,1.,4.44089209850063E-17));
#525=DIRECTION('',(0.,1.,4.44089209850063E-17));
#526=DIRECTION('',(1.,0.,0.));
#527=DIRECTION('',(0.,-1.,-4.44089209850063E-17));
#528=DIRECTION('',(1.,0.,0.));
#529=DIRECTION('',(0.,1.,4.44089209850063E-17));
#530=DIRECTION('center_axis',(0.,-4.44089209850063E-17,1.));
#531=DIRECTION('ref_axis',(-1.,0.,0.));
#532=DIRECTION('center_axis',(0.,-4.44089209850063E-17,1.));
#533=DIRECTION('ref_axis',(-1.,0.,0.));
#534=DIRECTION('center_axis',(0.,0.,-1.));
#535=DIRECTION('ref_axis',(-1.,0.,0.));
#536=DIRECTION('',(0.,0.,-1.));
#537=DIRECTION('center_axis',(0.,0.,-1.));
#538=DIRECTION('ref_axis',(-1.,0.,0.));
#539=DIRECTION('center_axis',(0.,0.,1.));
#540=DIRECTION('ref_axis',(-1.,0.,0.));
#541=DIRECTION('',(0.,0.,1.));
#542=DIRECTION('center_axis',(0.,0.,-1.));
#543=DIRECTION('ref_axis',(-1.,0.,0.));
#544=DIRECTION('center_axis',(0.,0.,-1.));
#545=DIRECTION('ref_axis',(0.,1.,0.));
#546=DIRECTION('',(0.,1.,0.));
#547=DIRECTION('',(1.,0.,0.));
#548=DIRECTION('',(0.,-1.,0.));
#549=DIRECTION('',(1.,0.,0.));
#550=DIRECTION('center_axis',(0.,0.,1.));
#551=DIRECTION('ref_axis',(-1.,0.,0.));
#552=DIRECTION('center_axis',(1.,0.,0.));
#553=DIRECTION('ref_axis',(0.,0.,-1.));
#554=DIRECTION('',(0.,-1.,0.));
#555=DIRECTION('',(0.,0.,-1.));
#556=DIRECTION('center_axis',(0.,0.,1.));
#557=DIRECTION('ref_axis',(0.,-1.,0.));
#558=DIRECTION('',(0.,-1.,0.));
#559=DIRECTION('',(1.,0.,0.));
#560=DIRECTION('',(0.,1.,0.));
#561=DIRECTION('',(1.,0.,0.));
#562=DIRECTION('',(0.,-1.,0.));
#563=DIRECTION('center_axis',(0.,0.,-1.));
#564=DIRECTION('ref_axis',(-1.,0.,0.));
#565=DIRECTION('center_axis',(1.,0.,0.));
#566=DIRECTION('ref_axis',(0.,0.,-1.));
#567=DIRECTION('',(0.,0.,1.));
#568=DIRECTION('center_axis',(1.,0.,0.));
#569=DIRECTION('ref_axis',(0.,0.,-1.));
#570=DIRECTION('',(0.,0.,-1.));
#571=DIRECTION('center_axis',(0.,0.,-1.));
#572=DIRECTION('ref_axis',(-1.,0.,0.));
#573=DIRECTION('',(0.,0.,-1.));
#574=DIRECTION('center_axis',(0.,0.,-1.));
#575=DIRECTION('ref_axis',(-1.,0.,0.));
#576=DIRECTION('center_axis',(0.,0.,-1.));
#577=DIRECTION('ref_axis',(-1.,0.,0.));
#578=DIRECTION('',(0.,0.,-1.));
#579=DIRECTION('center_axis',(0.,0.,1.));
#580=DIRECTION('ref_axis',(0.,-1.,0.));
#581=DIRECTION('',(1.,0.,0.));
#582=DIRECTION('',(0.,1.,0.));
#583=DIRECTION('',(1.,0.,0.));
#584=DIRECTION('center_axis',(0.,-1.,0.));
#585=DIRECTION('ref_axis',(0.,0.,-1.));
#586=DIRECTION('',(0.,0.,1.));
#587=DIRECTION('center_axis',(0.,-1.,0.));
#588=DIRECTION('ref_axis',(0.,0.,-1.));
#589=DIRECTION('',(0.,0.,1.));
#590=DIRECTION('center_axis',(0.,1.,0.));
#591=DIRECTION('ref_axis',(0.,0.,1.));
#592=DIRECTION('',(0.,0.,-1.));
#593=DIRECTION('center_axis',(0.,-1.,0.));
#594=DIRECTION('ref_axis',(0.,0.,-1.));
#595=DIRECTION('',(0.,0.,1.));
#596=DIRECTION('center_axis',(-1.,0.,0.));
#597=DIRECTION('ref_axis',(0.,-1.,0.));
#598=CARTESIAN_POINT('',(0.,0.,0.));
#599=CARTESIAN_POINT('Origin',(3.5,25.,-5.));
#600=CARTESIAN_POINT('',(-4.,27.25,-5.));
#601=CARTESIAN_POINT('Origin',(-4.,25.,-5.));
#602=CARTESIAN_POINT('',(4.,27.25,-5.));
#603=CARTESIAN_POINT('',(3.5,27.25,-5.));
#604=CARTESIAN_POINT('Origin',(4.,25.,-5.));
#605=CARTESIAN_POINT('Origin',(3.5,41.,5.));
#606=CARTESIAN_POINT('',(-4.,43.25,5.));
#607=CARTESIAN_POINT('Origin',(-4.,41.,5.));
#608=CARTESIAN_POINT('',(4.,43.25,5.));
#609=CARTESIAN_POINT('',(3.5,43.25,5.));
#610=CARTESIAN_POINT('Origin',(4.,41.,5.));
#611=CARTESIAN_POINT('Origin',(3.5,25.,5.));
#612=CARTESIAN_POINT('',(-4.,27.25,5.));
#613=CARTESIAN_POINT('Origin',(-4.,25.,5.));
#614=CARTESIAN_POINT('',(4.,27.25,5.));
#615=CARTESIAN_POINT('',(3.5,27.25,5.));
#616=CARTESIAN_POINT('Origin',(4.,25.,5.));
#617=CARTESIAN_POINT('Origin',(3.5,41.,-5.));
#618=CARTESIAN_POINT('',(-4.,43.25,-5.));
#619=CARTESIAN_POINT('Origin',(-4.,41.,-5.));
#620=CARTESIAN_POINT('',(4.,43.25,-5.));
#621=CARTESIAN_POINT('',(3.5,43.25,-5.));
#622=CARTESIAN_POINT('Origin',(4.,41.,-5.));
#623=CARTESIAN_POINT('Origin',(4.,0.812158967689397,9.5));
#624=CARTESIAN_POINT('',(0.465936298875405,6.26158915723434,4.));
#625=CARTESIAN_POINT('',(4.,0.812158967689397,4.));
#626=CARTESIAN_POINT('',(3.91417458015368,0.944499432801019,4.));
#627=CARTESIAN_POINT('',(0.465936298875405,6.26158915723434,9.5));
#628=CARTESIAN_POINT('',(0.465936298875402,6.26158915723434,9.5));
#629=CARTESIAN_POINT('',(4.,0.812158967689397,9.5));
#630=CARTESIAN_POINT('',(-7.49878295879383,18.5429698126484,9.5));
#631=CARTESIAN_POINT('',(4.,0.8121589676894,4.75));
#632=CARTESIAN_POINT('Origin',(4.,0.812158967689397,9.5));
#633=CARTESIAN_POINT('',(4.,0.812158967689397,-4.));
#634=CARTESIAN_POINT('',(0.465936298875405,6.26158915723434,-4.));
#635=CARTESIAN_POINT('',(1.17506477080628,5.1681323239644,-4.));
#636=CARTESIAN_POINT('',(4.,0.812158967689397,-9.5));
#637=CARTESIAN_POINT('',(4.,0.8121589676894,4.75));
#638=CARTESIAN_POINT('',(0.465936298875405,6.26158915723434,-9.5));
#639=CARTESIAN_POINT('',(3.91417458015368,0.944499432801018,-9.5));
#640=CARTESIAN_POINT('',(0.465936298875402,6.26158915723434,9.5));
#641=CARTESIAN_POINT('Origin',(-4.,-4.,-9.5));
#642=CARTESIAN_POINT('',(4.,-4.,-9.5));
#643=CARTESIAN_POINT('',(4.,46.,-9.5));
#644=CARTESIAN_POINT('',(-4.,-4.,-9.5));
#645=CARTESIAN_POINT('',(-4.,-4.,-9.5));
#646=CARTESIAN_POINT('',(-4.,46.,-9.5));
#647=CARTESIAN_POINT('',(-4.,46.,-9.5));
#648=CARTESIAN_POINT('',(4.,46.,-9.5));
#649=CARTESIAN_POINT('',(-4.,46.,-9.5));
#650=CARTESIAN_POINT('',(4.,15.33575446094,-9.5));
#651=CARTESIAN_POINT('',(4.,46.,-9.5));
#652=CARTESIAN_POINT('Origin',(5.5,9.52627944162883,-9.5));
#653=CARTESIAN_POINT('',(2.5,3.06161699786838E-16,-9.5));
#654=CARTESIAN_POINT('Origin',(0.,0.,-9.5));
#655=CARTESIAN_POINT('Origin',(5.5,9.52627944162883,9.5));
#656=CARTESIAN_POINT('',(4.,15.33575446094,9.5));
#657=CARTESIAN_POINT('',(4.,15.33575446094,9.5));
#658=CARTESIAN_POINT('Origin',(5.5,9.52627944162883,9.5));
#659=CARTESIAN_POINT('',(-0.302626221467414,8.,4.));
#660=CARTESIAN_POINT('Origin',(5.5,9.52627944162883,4.));
#661=CARTESIAN_POINT('',(-0.302626221467414,8.,-4.));
#662=CARTESIAN_POINT('',(-0.302626221467414,8.,9.5));
#663=CARTESIAN_POINT('Origin',(5.5,9.52627944162883,-4.));
#664=CARTESIAN_POINT('Origin',(-4.,-4.,4.));
#665=CARTESIAN_POINT('',(4.,-4.,4.));
#666=CARTESIAN_POINT('',(4.,8.,4.));
#667=CARTESIAN_POINT('',(-4.,-4.,4.));
#668=CARTESIAN_POINT('',(-4.,-4.,4.));
#669=CARTESIAN_POINT('',(-4.,8.,4.));
#670=CARTESIAN_POINT('',(-4.,8.,4.));
#671=CARTESIAN_POINT('',(-4.,8.,4.));
#672=CARTESIAN_POINT('',(2.5,3.06161699786838E-16,4.));
#673=CARTESIAN_POINT('Origin',(0.,0.,4.));
#674=CARTESIAN_POINT('Origin',(4.,21.,0.));
#675=CARTESIAN_POINT('',(4.,-4.,-4.));
#676=CARTESIAN_POINT('',(4.,-4.,-4.));
#677=CARTESIAN_POINT('',(4.,-4.,-9.5));
#678=CARTESIAN_POINT('Origin',(-4.,46.,9.5));
#679=CARTESIAN_POINT('',(4.,46.,9.5));
#680=CARTESIAN_POINT('',(4.,-4.,9.5));
#681=CARTESIAN_POINT('',(-4.,46.,9.5));
#682=CARTESIAN_POINT('',(-4.,46.,9.5));
#683=CARTESIAN_POINT('',(-4.,-4.,9.5));
#684=CARTESIAN_POINT('',(-4.,-4.,9.5));
#685=CARTESIAN_POINT('',(4.,-4.,9.5));
#686=CARTESIAN_POINT('',(-4.,-4.,9.5));
#687=CARTESIAN_POINT('',(4.,-4.,9.5));
#688=CARTESIAN_POINT('',(2.5,3.06161699786838E-16,9.5));
#689=CARTESIAN_POINT('Origin',(0.,0.,9.5));
#690=CARTESIAN_POINT('Origin',(4.,21.,0.));
#691=CARTESIAN_POINT('',(4.,46.,9.5));
#692=CARTESIAN_POINT('Origin',(4.,21.,0.));
#693=CARTESIAN_POINT('',(4.,-4.,-9.5));
#694=CARTESIAN_POINT('Origin',(0.,0.,9.5));
#695=CARTESIAN_POINT('',(2.5,-3.06161699786838E-16,9.5));
#696=CARTESIAN_POINT('Origin',(0.,0.,9.5));
#697=CARTESIAN_POINT('',(2.5,-3.06161699786838E-16,-4.));
#698=CARTESIAN_POINT('Origin',(0.,0.,-4.));
#699=CARTESIAN_POINT('',(2.5,-3.06161699786838E-16,9.5));
#700=CARTESIAN_POINT('Origin',(-4.,8.,-4.));
#701=CARTESIAN_POINT('',(-4.,8.,-4.));
#702=CARTESIAN_POINT('',(-4.,8.,-4.));
#703=CARTESIAN_POINT('',(-4.,-4.,-4.));
#704=CARTESIAN_POINT('',(-4.,-4.,-4.));
#705=CARTESIAN_POINT('',(-4.,-4.,-4.));
#706=CARTESIAN_POINT('Origin',(-4.,8.,4.));
#707=CARTESIAN_POINT('',(-4.,8.,-4.));
#708=CARTESIAN_POINT('Origin',(-4.,-4.,9.5));
#709=CARTESIAN_POINT('',(-4.,-4.,-9.5));
#710=CARTESIAN_POINT('Origin',(-4.,46.,-9.5));
#711=CARTESIAN_POINT('',(-4.,46.,9.5));
#712=CARTESIAN_POINT('Origin',(-4.,-4.,-4.));
#713=CARTESIAN_POINT('',(-4.,-4.,-9.5));
#714=CARTESIAN_POINT('Origin',(-4.,21.,0.));
#715=UNCERTAINTY_MEASURE_WITH_UNIT(LENGTH_MEASURE(0.01),#719,
'DISTANCE_ACCURACY_VALUE',
'Maximum model space distance between geometric entities at asserted c
onnectivities');
#716=UNCERTAINTY_MEASURE_WITH_UNIT(LENGTH_MEASURE(0.01),#719,
'DISTANCE_ACCURACY_VALUE',
'Maximum model space distance between geometric entities at asserted c
onnectivities');
#717=(
GEOMETRIC_REPRESENTATION_CONTEXT(3)
GLOBAL_UNCERTAINTY_ASSIGNED_CONTEXT((#715))
GLOBAL_UNIT_ASSIGNED_CONTEXT((#719,#721,#722))
REPRESENTATION_CONTEXT('','3D')
);
#718=(
GEOMETRIC_REPRESENTATION_CONTEXT(3)
GLOBAL_UNCERTAINTY_ASSIGNED_CONTEXT((#716))
GLOBAL_UNIT_ASSIGNED_CONTEXT((#719,#721,#722))
REPRESENTATION_CONTEXT('','3D')
);
#719=(
LENGTH_UNIT()
NAMED_UNIT(*)
SI_UNIT(.MILLI.,.METRE.)
);
#720=(
LENGTH_UNIT()
NAMED_UNIT(*)
SI_UNIT($,.METRE.)
);
#721=(
NAMED_UNIT(*)
PLANE_ANGLE_UNIT()
SI_UNIT($,.RADIAN.)
);
#722=(
NAMED_UNIT(*)
SI_UNIT($,.STERADIAN.)
SOLID_ANGLE_UNIT()
);
#723=SHAPE_DEFINITION_REPRESENTATION(#724,#725);
#724=PRODUCT_DEFINITION_SHAPE('',$,#727);
#725=SHAPE_REPRESENTATION('',(#443),#717);
#726=PRODUCT_DEFINITION_CONTEXT('part definition',#731,'design');
#727=PRODUCT_DEFINITION('LESU01-101 PLATINE','LESU01-101 PLATINE',#728,
#726);
#728=PRODUCT_DEFINITION_FORMATION('',$,#733);
#729=PRODUCT_RELATED_PRODUCT_CATEGORY('LESU01-101 PLATINE',
'LESU01-101 PLATINE',(#733));
#730=APPLICATION_PROTOCOL_DEFINITION('international standard',
'automotive_design',2009,#731);
#731=APPLICATION_CONTEXT(
'Core Data for Automotive Mechanical Design Process');
#732=PRODUCT_CONTEXT('part definition',#731,'mechanical');
#733=PRODUCT('LESU01-101 PLATINE','LESU01-101 PLATINE',$,(#732));
#734=PRESENTATION_STYLE_ASSIGNMENT((#735));
#735=SURFACE_STYLE_USAGE(.BOTH.,#736);
#736=SURFACE_SIDE_STYLE('',(#737));
#737=SURFACE_STYLE_FILL_AREA(#738);
#738=FILL_AREA_STYLE('Acier - Satin\X\E9',(#739));
#739=FILL_AREA_STYLE_COLOUR('Acier - Satin\X\E9',#740);
#740=COLOUR_RGB('Acier - Satin\X\E9',0.627450980392157,0.627450980392157,
0.627450980392157);
ENDSEC;
END-ISO-10303-21;
