ISO-10303-21;
HEADER;
FILE_DESCRIPTION (( 'STEP AP203' ),
    '1' );
FILE_NAME ('Entretoise-gauche-avant.STEP',
    '2022-06-26T19:04:35',
    ( '' ),
    ( '' ),
    'SwSTEP 2.0',
    'SolidWorks 2020',
    '' );
FILE_SCHEMA (( 'CONFIG_CONTROL_DESIGN' ));
ENDSEC;

DATA;
#1 = CARTESIAN_POINT ( 'NONE',  ( 8.500000000000000000, 1.040949779275250140E-15, 19.00000000000000000 ) ) ;
#2 = UNCERTAINTY_MEASURE_WITH_UNIT (LENGTH_MEASURE( 1.000000000000000082E-05 ), #115, 'distance_accuracy_value', 'NONE');
#3 = CC_DESIGN_PERSON_AND_ORGANIZATION_ASSIGNMENT ( #145, #120, ( #67 ) ) ;
#4 = ORIENTED_EDGE ( 'NONE', *, *, #45, .T. ) ;
#5 = ORIENTED_EDGE ( 'NONE', *, *, #225, .T. ) ;
#6 = DIRECTION ( 'NONE',  ( -0.000000000000000000, -0.000000000000000000, -1.000000000000000000 ) ) ;
#7 = CARTESIAN_POINT ( 'NONE',  ( 8.500000000000000000, 1.040949779275250140E-15, 19.00000000000000000 ) ) ;
#8 = VECTOR ( 'NONE', #224, 1000.000000000000000 ) ;
#9 = CARTESIAN_POINT ( 'NONE',  ( -8.500000000000000000, 0.000000000000000000, 19.00000000000000000 ) ) ;
#10 = PLANE ( 'NONE',  #93 ) ;
#11 = CARTESIAN_POINT ( 'NONE',  ( 0.000000000000000000, 0.000000000000000000, 19.00000000000000000 ) ) ;
#12 = DIRECTION ( 'NONE',  ( -0.000000000000000000, -0.000000000000000000, -1.000000000000000000 ) ) ;
#13 = MECHANICAL_CONTEXT ( 'NONE', #150, 'mechanical' ) ;
#14 = COORDINATED_UNIVERSAL_TIME_OFFSET ( 1, 0, .AHEAD. ) ;
#15 = PERSON_AND_ORGANIZATION ( #57, #229 ) ;
#16 = PERSON_AND_ORGANIZATION_ROLE ( 'design_supplier' ) ;
#17 = PERSON_AND_ORGANIZATION ( #57, #229 ) ;
#18 = EDGE_CURVE ( 'NONE', #95, #77, #155, .T. ) ;
#19 = ORIENTED_EDGE ( 'NONE', *, *, #225, .F. ) ;
#20 = LOCAL_TIME ( 21, 4, 35.00000000000000000, #141 ) ;
#21 = ORIENTED_EDGE ( 'NONE', *, *, #209, .F. ) ;
#22 = EDGE_LOOP ( 'NONE', ( #52, #215 ) ) ;
#23 = DIRECTION ( 'NONE',  ( 0.000000000000000000, 0.000000000000000000, 1.000000000000000000 ) ) ;
#24 = ORIENTED_EDGE ( 'NONE', *, *, #101, .T. ) ;
#25 = FACE_BOUND ( 'NONE', #94, .T. ) ;
#26 = FACE_OUTER_BOUND ( 'NONE', #22, .T. ) ;
#27 = APPROVAL_ROLE ( '' ) ;
#28 = PRODUCT_DEFINITION ( 'UNKNOWN', '', #165, #170 ) ;
#29 = DATE_AND_TIME ( #204, #242 ) ;
#30 = COORDINATED_UNIVERSAL_TIME_OFFSET ( 1, 0, .AHEAD. ) ;
#31 = CC_DESIGN_APPROVAL ( #220, ( #28 ) ) ;
#32 = AXIS2_PLACEMENT_3D ( 'NONE', #168, #12, #112 ) ;
#33 = ORIENTED_EDGE ( 'NONE', *, *, #166, .T. ) ;
#34 = ORIENTED_EDGE ( 'NONE', *, *, #172, .T. ) ;
#35 = DIRECTION ( 'NONE',  ( 1.000000000000000000, 0.000000000000000000, 0.000000000000000000 ) ) ;
#36 = EDGE_LOOP ( 'NONE', ( #24, #128, #192, #193 ) ) ;
#37 = CARTESIAN_POINT ( 'NONE',  ( 0.000000000000000000, 0.000000000000000000, 0.000000000000000000 ) ) ;
#38 = CYLINDRICAL_SURFACE ( 'NONE', #32, 6.000000000000000888 ) ;
#39 = CARTESIAN_POINT ( 'NONE',  ( 0.000000000000000000, 0.000000000000000000, 19.00000000000000000 ) ) ;
#40 = CARTESIAN_POINT ( 'NONE',  ( 0.000000000000000000, 0.000000000000000000, 0.000000000000000000 ) ) ;
#41 = CARTESIAN_POINT ( 'NONE',  ( 0.000000000000000000, 0.000000000000000000, 19.00000000000000000 ) ) ;
#42 = SECURITY_CLASSIFICATION_LEVEL ( 'unclassified' ) ;
#43 = CC_DESIGN_APPROVAL ( #129, ( #165 ) ) ;
#44 = DATE_AND_TIME ( #65, #198 ) ;
#45 = EDGE_CURVE ( 'NONE', #171, #234, #70, .T. ) ;
#46 = AXIS2_PLACEMENT_3D ( 'NONE', #37, #23, #98 ) ;
#47 = DIRECTION ( 'NONE',  ( 1.000000000000000000, 0.000000000000000000, 0.000000000000000000 ) ) ;
#48 = CYLINDRICAL_SURFACE ( 'NONE', #191, 8.500000000000000000 ) ;
#49 = ORIENTED_EDGE ( 'NONE', *, *, #84, .F. ) ;
#50 = ORIENTED_EDGE ( 'NONE', *, *, #18, .T. ) ;
#51 = PRODUCT ( 'Entretoise-gauche-avant', 'Entretoise-gauche-avant', '', ( #13 ) ) ;
#52 = ORIENTED_EDGE ( 'NONE', *, *, #71, .T. ) ;
#53 = APPROVAL_PERSON_ORGANIZATION ( #17, #129, #121 ) ;
#54 = DIRECTION ( 'NONE',  ( -0.000000000000000000, -0.000000000000000000, -1.000000000000000000 ) ) ;
#55 = DIRECTION ( 'NONE',  ( 0.000000000000000000, 0.000000000000000000, 1.000000000000000000 ) ) ;
#56 = CARTESIAN_POINT ( 'NONE',  ( 0.000000000000000000, 0.000000000000000000, 0.000000000000000000 ) ) ;
#57 = PERSON ( 'UNSPECIFIED', 'UNSPECIFIED', 'UNSPECIFIED', ('UNSPECIFIED'), ('UNSPECIFIED'), ('UNSPECIFIED') ) ;
#58 = DIRECTION ( 'NONE',  ( -0.000000000000000000, -0.000000000000000000, -1.000000000000000000 ) ) ;
#59 = DIRECTION ( 'NONE',  ( 1.000000000000000000, 0.000000000000000000, 0.000000000000000000 ) ) ;
#60 = CC_DESIGN_PERSON_AND_ORGANIZATION_ASSIGNMENT ( #226, #16, ( #165 ) ) ;
#61 = CIRCLE ( 'NONE', #186, 6.000000000000000888 ) ;
#62 =( NAMED_UNIT ( * ) SI_UNIT ( $, .STERADIAN. ) SOLID_ANGLE_UNIT ( ) );
#63 = CYLINDRICAL_SURFACE ( 'NONE', #246, 6.000000000000000888 ) ;
#64 = DIRECTION ( 'NONE',  ( 0.000000000000000000, 0.000000000000000000, 1.000000000000000000 ) ) ;
#65 = CALENDAR_DATE ( 2022, 26, 6 ) ;
#66 = APPLICATION_PROTOCOL_DEFINITION ( 'international standard', 'config_control_design', 1994, #150 ) ;
#67 = SECURITY_CLASSIFICATION ( '', '', #42 ) ;
#68 = PERSON_AND_ORGANIZATION_ROLE ( 'design_owner' ) ;
#69 = APPROVAL_DATE_TIME ( #29, #99 ) ;
#70 = CIRCLE ( 'NONE', #81, 6.000000000000000888 ) ;
#71 = EDGE_CURVE ( 'NONE', #233, #208, #211, .T. ) ;
#72 = CARTESIAN_POINT ( 'NONE',  ( 6.000000000000000888, 7.347880794884120722E-16, 19.00000000000000000 ) ) ;
#73 = AXIS2_PLACEMENT_3D ( 'NONE', #218, #55, #134 ) ;
#74 = ADVANCED_FACE ( 'NONE', ( #113 ), #235, .T. ) ;
#75 = EDGE_LOOP ( 'NONE', ( #49, #124, #33, #5 ) ) ;
#76 = PRODUCT_DEFINITION_SHAPE ( 'NONE', 'NONE',  #28 ) ;
#77 = VERTEX_POINT ( 'NONE', #195 ) ;
#78 = DIRECTION ( 'NONE',  ( 0.000000000000000000, 0.000000000000000000, 1.000000000000000000 ) ) ;
#79 = APPROVAL_PERSON_ORGANIZATION ( #244, #220, #185 ) ;
#80 = CARTESIAN_POINT ( 'NONE',  ( 0.000000000000000000, 0.000000000000000000, 19.00000000000000000 ) ) ;
#81 = AXIS2_PLACEMENT_3D ( 'NONE', #40, #174, #59 ) ;
#82 = CARTESIAN_POINT ( 'NONE',  ( 0.000000000000000000, 0.000000000000000000, 19.00000000000000000 ) ) ;
#83 = DIRECTION ( 'NONE',  ( 1.000000000000000000, 0.000000000000000000, 0.000000000000000000 ) ) ;
#84 = EDGE_CURVE ( 'NONE', #208, #95, #97, .T. ) ;
#85 = FACE_OUTER_BOUND ( 'NONE', #151, .T. ) ;
#86 = DIRECTION ( 'NONE',  ( -0.000000000000000000, -0.000000000000000000, -1.000000000000000000 ) ) ;
#87 = CIRCLE ( 'NONE', #46, 8.500000000000000000 ) ;
#88 = DIRECTION ( 'NONE',  ( 1.000000000000000000, 0.000000000000000000, 0.000000000000000000 ) ) ;
#89 = CALENDAR_DATE ( 2022, 26, 6 ) ;
#90 = APPROVAL_DATE_TIME ( #207, #220 ) ;
#91 = APPROVAL_PERSON_ORGANIZATION ( #163, #99, #27 ) ;
#92 = APPROVAL_DATE_TIME ( #187, #129 ) ;
#93 = AXIS2_PLACEMENT_3D ( 'NONE', #41, #64, #212 ) ;
#94 = EDGE_LOOP ( 'NONE', ( #109, #190 ) ) ;
#95 = VERTEX_POINT ( 'NONE', #219 ) ;
#96 = ORIENTED_EDGE ( 'NONE', *, *, #18, .F. ) ;
#97 = LINE ( 'NONE', #7, #216 ) ;
#98 = DIRECTION ( 'NONE',  ( 1.000000000000000000, 0.000000000000000000, 0.000000000000000000 ) ) ;
#99 = APPROVAL ( #247, 'UNSPECIFIED' ) ;
#100 = CARTESIAN_POINT ( 'NONE',  ( -8.500000000000000000, 0.000000000000000000, 19.00000000000000000 ) ) ;
#101 = EDGE_CURVE ( 'NONE', #111, #217, #61, .T. ) ;
#102 = APPLICATION_PROTOCOL_DEFINITION ( 'international standard', 'config_control_design', 1994, #249 ) ;
#103 = DIRECTION ( 'NONE',  ( 0.000000000000000000, 0.000000000000000000, 1.000000000000000000 ) ) ;
#104 = CC_DESIGN_APPROVAL ( #99, ( #67 ) ) ;
#105 = AXIS2_PLACEMENT_3D ( 'NONE', #160, #103, #47 ) ;
#106 = ADVANCED_FACE ( 'NONE', ( #157 ), #63, .F. ) ;
#107 = ORIENTED_EDGE ( 'NONE', *, *, #84, .T. ) ;
#108 = CIRCLE ( 'NONE', #169, 6.000000000000000888 ) ;
#109 = ORIENTED_EDGE ( 'NONE', *, *, #101, .F. ) ;
#110 = CARTESIAN_POINT ( 'NONE',  ( 0.000000000000000000, 0.000000000000000000, 19.00000000000000000 ) ) ;
#111 = VERTEX_POINT ( 'NONE', #156 ) ;
#112 = DIRECTION ( 'NONE',  ( -1.000000000000000000, 0.000000000000000000, 0.000000000000000000 ) ) ;
#113 = FACE_OUTER_BOUND ( 'NONE', #75, .T. ) ;
#114 = CC_DESIGN_PERSON_AND_ORGANIZATION_ASSIGNMENT ( #228, #68, ( #51 ) ) ;
#115 =( LENGTH_UNIT ( ) NAMED_UNIT ( * ) SI_UNIT ( .MILLI., .METRE. ) );
#116 = DIRECTION ( 'NONE',  ( -1.000000000000000000, 0.000000000000000000, 0.000000000000000000 ) ) ;
#117 = DIRECTION ( 'NONE',  ( 1.000000000000000000, 0.000000000000000000, 0.000000000000000000 ) ) ;
#118 = AXIS2_PLACEMENT_3D ( 'NONE', #110, #78, #135 ) ;
#119 = DATE_TIME_ROLE ( 'classification_date' ) ;
#120 = PERSON_AND_ORGANIZATION_ROLE ( 'classification_officer' ) ;
#121 = APPROVAL_ROLE ( '' ) ;
#122 = AXIS2_PLACEMENT_3D ( 'NONE', #56, #197, #35 ) ;
#123 = COORDINATED_UNIVERSAL_TIME_OFFSET ( 1, 0, .AHEAD. ) ;
#124 = ORIENTED_EDGE ( 'NONE', *, *, #71, .F. ) ;
#125 = PERSON_AND_ORGANIZATION_ROLE ( 'creator' ) ;
#126 = CIRCLE ( 'NONE', #222, 6.000000000000000888 ) ;
#127 = DIRECTION ( 'NONE',  ( 0.000000000000000000, 0.000000000000000000, 1.000000000000000000 ) ) ;
#128 = ORIENTED_EDGE ( 'NONE', *, *, #153, .T. ) ;
#129 = APPROVAL ( #230, 'UNSPECIFIED' ) ;
#130 = EDGE_LOOP ( 'NONE', ( #19, #96 ) ) ;
#131 = AXIS2_PLACEMENT_3D ( 'NONE', #11, #54, #133 ) ;
#132 = ORIENTED_EDGE ( 'NONE', *, *, #153, .F. ) ;
#133 = DIRECTION ( 'NONE',  ( -1.000000000000000000, 0.000000000000000000, 0.000000000000000000 ) ) ;
#134 = DIRECTION ( 'NONE',  ( 1.000000000000000000, 0.000000000000000000, -0.000000000000000000 ) ) ;
#135 = DIRECTION ( 'NONE',  ( 1.000000000000000000, 0.000000000000000000, 0.000000000000000000 ) ) ;
#136 = CARTESIAN_POINT ( 'NONE',  ( 0.000000000000000000, 0.000000000000000000, 19.00000000000000000 ) ) ;
#137 = EDGE_CURVE ( 'NONE', #208, #233, #248, .T. ) ;
#138 = PLANE ( 'NONE',  #73 ) ;
#139 = PERSON_AND_ORGANIZATION ( #57, #229 ) ;
#140 = VECTOR ( 'NONE', #178, 1000.000000000000000 ) ;
#141 = COORDINATED_UNIVERSAL_TIME_OFFSET ( 1, 0, .AHEAD. ) ;
#142 = CC_DESIGN_DATE_AND_TIME_ASSIGNMENT ( #245, #119, ( #67 ) ) ;
#143 = APPROVAL_STATUS ( 'not_yet_approved' ) ;
#144 = SHAPE_DEFINITION_REPRESENTATION ( #76, #236 ) ;
#145 = PERSON_AND_ORGANIZATION ( #57, #229 ) ;
#146 = ADVANCED_FACE ( 'NONE', ( #196, #202 ), #138, .F. ) ;
#147 = EDGE_CURVE ( 'NONE', #111, #171, #231, .T. ) ;
#148 = CC_DESIGN_SECURITY_CLASSIFICATION ( #67, ( #165 ) ) ;
#149 = CARTESIAN_POINT ( 'NONE',  ( 6.000000000000000888, 7.347880794884120722E-16, 19.00000000000000000 ) ) ;
#150 = APPLICATION_CONTEXT ( 'configuration controlled 3d designs of mechanical parts and assemblies' ) ;
#151 = EDGE_LOOP ( 'NONE', ( #173, #107, #50, #214 ) ) ;
#152 = ORIENTED_EDGE ( 'NONE', *, *, #147, .T. ) ;
#153 = EDGE_CURVE ( 'NONE', #217, #234, #199, .T. ) ;
#154 = DIRECTION ( 'NONE',  ( 0.000000000000000000, 0.000000000000000000, 1.000000000000000000 ) ) ;
#155 = CIRCLE ( 'NONE', #122, 8.500000000000000000 ) ;
#156 = CARTESIAN_POINT ( 'NONE',  ( -6.000000000000000888, 0.000000000000000000, 19.00000000000000000 ) ) ;
#157 = FACE_OUTER_BOUND ( 'NONE', #36, .T. ) ;
#158 = ADVANCED_FACE ( 'NONE', ( #26, #25 ), #10, .T. ) ;
#159 = DIRECTION ( 'NONE',  ( 0.000000000000000000, 0.000000000000000000, 1.000000000000000000 ) ) ;
#160 = CARTESIAN_POINT ( 'NONE',  ( 0.000000000000000000, 0.000000000000000000, 0.000000000000000000 ) ) ;
#161 = LOCAL_TIME ( 21, 4, 35.00000000000000000, #14 ) ;
#162 = COORDINATED_UNIVERSAL_TIME_OFFSET ( 1, 0, .AHEAD. ) ;
#163 = PERSON_AND_ORGANIZATION ( #57, #229 ) ;
#164 = EDGE_LOOP ( 'NONE', ( #4, #232 ) ) ;
#165 = PRODUCT_DEFINITION_FORMATION_WITH_SPECIFIED_SOURCE ( 'ANY', '', #51, .NOT_KNOWN. ) ;
#166 = EDGE_CURVE ( 'NONE', #233, #77, #223, .T. ) ;
#167 = ADVANCED_FACE ( 'NONE', ( #85 ), #48, .T. ) ;
#168 = CARTESIAN_POINT ( 'NONE',  ( 0.000000000000000000, 0.000000000000000000, 19.00000000000000000 ) ) ;
#169 = AXIS2_PLACEMENT_3D ( 'NONE', #136, #154, #221 ) ;
#170 = DESIGN_CONTEXT ( 'detailed design', #249, 'design' ) ;
#171 = VERTEX_POINT ( 'NONE', #194 ) ;
#172 = EDGE_CURVE ( 'NONE', #217, #111, #108, .T. ) ;
#173 = ORIENTED_EDGE ( 'NONE', *, *, #137, .F. ) ;
#174 = DIRECTION ( 'NONE',  ( 0.000000000000000000, 0.000000000000000000, 1.000000000000000000 ) ) ;
#175 =( NAMED_UNIT ( * ) PLANE_ANGLE_UNIT ( ) SI_UNIT ( $, .RADIAN. ) );
#176 = LOCAL_TIME ( 21, 4, 35.00000000000000000, #30 ) ;
#177 = VECTOR ( 'NONE', #58, 1000.000000000000000 ) ;
#178 = DIRECTION ( 'NONE',  ( -0.000000000000000000, -0.000000000000000000, -1.000000000000000000 ) ) ;
#179 = DIRECTION ( 'NONE',  ( 0.000000000000000000, 0.000000000000000000, 1.000000000000000000 ) ) ;
#180 = CARTESIAN_POINT ( 'NONE',  ( -6.000000000000000888, 0.000000000000000000, 19.00000000000000000 ) ) ;
#181 = CC_DESIGN_DATE_AND_TIME_ASSIGNMENT ( #44, #205, ( #28 ) ) ;
#182 = CARTESIAN_POINT ( 'NONE',  ( 0.000000000000000000, 0.000000000000000000, 19.00000000000000000 ) ) ;
#183 = AXIS2_PLACEMENT_3D ( 'NONE', #82, #159, #117 ) ;
#184 = ADVANCED_FACE ( 'NONE', ( #237 ), #38, .F. ) ;
#185 = APPROVAL_ROLE ( '' ) ;
#186 = AXIS2_PLACEMENT_3D ( 'NONE', #39, #179, #83 ) ;
#187 = DATE_AND_TIME ( #210, #176 ) ;
#188 =( GEOMETRIC_REPRESENTATION_CONTEXT ( 3 ) GLOBAL_UNCERTAINTY_ASSIGNED_CONTEXT ( ( #2 ) ) GLOBAL_UNIT_ASSIGNED_CONTEXT ( ( #115, #175, #62 ) ) REPRESENTATION_CONTEXT ( 'NONE', 'WORKASPACE' ) );
#189 = CC_DESIGN_PERSON_AND_ORGANIZATION_ASSIGNMENT ( #139, #203, ( #165 ) ) ;
#190 = ORIENTED_EDGE ( 'NONE', *, *, #172, .F. ) ;
#191 = AXIS2_PLACEMENT_3D ( 'NONE', #80, #243, #239 ) ;
#192 = ORIENTED_EDGE ( 'NONE', *, *, #45, .F. ) ;
#193 = ORIENTED_EDGE ( 'NONE', *, *, #147, .F. ) ;
#194 = CARTESIAN_POINT ( 'NONE',  ( -6.000000000000000888, 0.000000000000000000, 0.000000000000000000 ) ) ;
#195 = CARTESIAN_POINT ( 'NONE',  ( -8.500000000000000000, 0.000000000000000000, 0.000000000000000000 ) ) ;
#196 = FACE_OUTER_BOUND ( 'NONE', #130, .T. ) ;
#197 = DIRECTION ( 'NONE',  ( 0.000000000000000000, 0.000000000000000000, 1.000000000000000000 ) ) ;
#198 = LOCAL_TIME ( 21, 4, 35.00000000000000000, #162 ) ;
#199 = LINE ( 'NONE', #149, #140 ) ;
#200 = PRODUCT_RELATED_PRODUCT_CATEGORY ( 'detail', '', ( #51 ) ) ;
#201 = CARTESIAN_POINT ( 'NONE',  ( 0.000000000000000000, 0.000000000000000000, 0.000000000000000000 ) ) ;
#202 = FACE_BOUND ( 'NONE', #164, .T. ) ;
#203 = PERSON_AND_ORGANIZATION_ROLE ( 'creator' ) ;
#204 = CALENDAR_DATE ( 2022, 26, 6 ) ;
#205 = DATE_TIME_ROLE ( 'creation_date' ) ;
#206 = MANIFOLD_SOLID_BREP ( 'Boss.-Extru.1', #240 ) ;
#207 = DATE_AND_TIME ( #227, #20 ) ;
#208 = VERTEX_POINT ( 'NONE', #1 ) ;
#209 = EDGE_CURVE ( 'NONE', #234, #171, #126, .T. ) ;
#210 = CALENDAR_DATE ( 2022, 26, 6 ) ;
#211 = CIRCLE ( 'NONE', #118, 8.500000000000000000 ) ;
#212 = DIRECTION ( 'NONE',  ( 1.000000000000000000, 0.000000000000000000, -0.000000000000000000 ) ) ;
#213 = EDGE_LOOP ( 'NONE', ( #132, #34, #152, #21 ) ) ;
#214 = ORIENTED_EDGE ( 'NONE', *, *, #166, .F. ) ;
#215 = ORIENTED_EDGE ( 'NONE', *, *, #137, .T. ) ;
#216 = VECTOR ( 'NONE', #86, 1000.000000000000000 ) ;
#217 = VERTEX_POINT ( 'NONE', #72 ) ;
#218 = CARTESIAN_POINT ( 'NONE',  ( 0.000000000000000000, 0.000000000000000000, 0.000000000000000000 ) ) ;
#219 = CARTESIAN_POINT ( 'NONE',  ( 8.500000000000000000, 1.040949779275250140E-15, 0.000000000000000000 ) ) ;
#220 = APPROVAL ( #143, 'UNSPECIFIED' ) ;
#221 = DIRECTION ( 'NONE',  ( 1.000000000000000000, 0.000000000000000000, 0.000000000000000000 ) ) ;
#222 = AXIS2_PLACEMENT_3D ( 'NONE', #201, #127, #88 ) ;
#223 = LINE ( 'NONE', #100, #177 ) ;
#224 = DIRECTION ( 'NONE',  ( -0.000000000000000000, -0.000000000000000000, -1.000000000000000000 ) ) ;
#225 = EDGE_CURVE ( 'NONE', #77, #95, #87, .T. ) ;
#226 = PERSON_AND_ORGANIZATION ( #57, #229 ) ;
#227 = CALENDAR_DATE ( 2022, 26, 6 ) ;
#228 = PERSON_AND_ORGANIZATION ( #57, #229 ) ;
#229 = ORGANIZATION ( 'UNSPECIFIED', 'UNSPECIFIED', '' ) ;
#230 = APPROVAL_STATUS ( 'not_yet_approved' ) ;
#231 = LINE ( 'NONE', #180, #8 ) ;
#232 = ORIENTED_EDGE ( 'NONE', *, *, #209, .T. ) ;
#233 = VERTEX_POINT ( 'NONE', #9 ) ;
#234 = VERTEX_POINT ( 'NONE', #241 ) ;
#235 = CYLINDRICAL_SURFACE ( 'NONE', #131, 8.500000000000000000 ) ;
#236 = ADVANCED_BREP_SHAPE_REPRESENTATION ( 'Entretoise-gauche-avant', ( #206, #105 ), #188 ) ;
#237 = FACE_OUTER_BOUND ( 'NONE', #213, .T. ) ;
#238 = CC_DESIGN_PERSON_AND_ORGANIZATION_ASSIGNMENT ( #15, #125, ( #28 ) ) ;
#239 = DIRECTION ( 'NONE',  ( -1.000000000000000000, 0.000000000000000000, 0.000000000000000000 ) ) ;
#240 = CLOSED_SHELL ( 'NONE', ( #106, #167, #158, #146, #74, #184 ) ) ;
#241 = CARTESIAN_POINT ( 'NONE',  ( 6.000000000000000888, 7.347880794884120722E-16, 0.000000000000000000 ) ) ;
#242 = LOCAL_TIME ( 21, 4, 35.00000000000000000, #123 ) ;
#243 = DIRECTION ( 'NONE',  ( -0.000000000000000000, -0.000000000000000000, -1.000000000000000000 ) ) ;
#244 = PERSON_AND_ORGANIZATION ( #57, #229 ) ;
#245 = DATE_AND_TIME ( #89, #161 ) ;
#246 = AXIS2_PLACEMENT_3D ( 'NONE', #182, #6, #116 ) ;
#247 = APPROVAL_STATUS ( 'not_yet_approved' ) ;
#248 = CIRCLE ( 'NONE', #183, 8.500000000000000000 ) ;
#249 = APPLICATION_CONTEXT ( 'configuration controlled 3d designs of mechanical parts and assemblies' ) ;
ENDSEC;
END-ISO-10303-21;
