ISO-10303-21;
HEADER;
FILE_DESCRIPTION (( 'STEP AP203' ),
    '1' );
FILE_NAME ('Entretoise-arrière-couronne.STEP',
    '2022-06-26T19:01:25',
    ( '' ),
    ( '' ),
    'SwSTEP 2.0',
    'SolidWorks 2020',
    '' );
FILE_SCHEMA (( 'CONFIG_CONTROL_DESIGN' ));
ENDSEC;

DATA;
#1 = DIRECTION ( 'NONE',  ( 1.000000000000000000, 0.000000000000000000, 0.000000000000000000 ) ) ;
#2 = EDGE_LOOP ( 'NONE', ( #285, #109, #118, #120 ) ) ;
#3 = CIRCLE ( 'NONE', #194, 8.500000000000000000 ) ;
#4 = LINE ( 'NONE', #108, #116 ) ;
#5 = CC_DESIGN_PERSON_AND_ORGANIZATION_ASSIGNMENT ( #130, #292, ( #138 ) ) ;
#6 = VERTEX_POINT ( 'NONE', #97 ) ;
#7 = AXIS2_PLACEMENT_3D ( 'NONE', #167, #85, #57 ) ;
#8 = CARTESIAN_POINT ( 'NONE',  ( 0.000000000000000000, 0.000000000000000000, 41.00000000000000000 ) ) ;
#9 = AXIS2_PLACEMENT_3D ( 'NONE', #16, #319, #153 ) ;
#10 = ORIENTED_EDGE ( 'NONE', *, *, #159, .F. ) ;
#11 = LINE ( 'NONE', #152, #81 ) ;
#12 = DATE_TIME_ROLE ( 'creation_date' ) ;
#13 = FACE_OUTER_BOUND ( 'NONE', #281, .T. ) ;
#14 = EDGE_CURVE ( 'NONE', #182, #119, #323, .T. ) ;
#15 = PERSON_AND_ORGANIZATION ( #237, #308 ) ;
#16 = CARTESIAN_POINT ( 'NONE',  ( 0.000000000000000000, 0.000000000000000000, 81.00000000000000000 ) ) ;
#17 = LOCAL_TIME ( 21, 1, 25.00000000000000000, #231 ) ;
#18 = EDGE_LOOP ( 'NONE', ( #87, #168 ) ) ;
#19 = CARTESIAN_POINT ( 'NONE',  ( 0.000000000000000000, 0.000000000000000000, 41.00000000000000000 ) ) ;
#20 = ORIENTED_EDGE ( 'NONE', *, *, #14, .T. ) ;
#21 = ORIENTED_EDGE ( 'NONE', *, *, #192, .F. ) ;
#22 = EDGE_CURVE ( 'NONE', #256, #84, #280, .T. ) ;
#23 = CC_DESIGN_SECURITY_CLASSIFICATION ( #47, ( #137 ) ) ;
#24 = VERTEX_POINT ( 'NONE', #175 ) ;
#25 = EDGE_LOOP ( 'NONE', ( #178, #325 ) ) ;
#26 = EDGE_CURVE ( 'NONE', #309, #6, #75, .T. ) ;
#27 = DIRECTION ( 'NONE',  ( 1.000000000000000000, 0.000000000000000000, 0.000000000000000000 ) ) ;
#28 = CARTESIAN_POINT ( 'NONE',  ( 0.000000000000000000, 0.000000000000000000, 41.00000000000000000 ) ) ;
#29 = ADVANCED_FACE ( 'NONE', ( #172 ), #89, .F. ) ;
#30 = AXIS2_PLACEMENT_3D ( 'NONE', #218, #301, #27 ) ;
#31 = CC_DESIGN_PERSON_AND_ORGANIZATION_ASSIGNMENT ( #15, #265, ( #137 ) ) ;
#32 = APPROVAL_PERSON_ORGANIZATION ( #249, #139, #166 ) ;
#33 = DIRECTION ( 'NONE',  ( -1.000000000000000000, 0.000000000000000000, 0.000000000000000000 ) ) ;
#34 = CARTESIAN_POINT ( 'NONE',  ( 0.000000000000000000, 0.000000000000000000, 81.00000000000000000 ) ) ;
#35 = EDGE_CURVE ( 'NONE', #6, #309, #165, .T. ) ;
#36 = ORIENTED_EDGE ( 'NONE', *, *, #192, .T. ) ;
#37 = DIRECTION ( 'NONE',  ( 0.000000000000000000, 0.000000000000000000, 1.000000000000000000 ) ) ;
#38 = LOCAL_TIME ( 21, 1, 25.00000000000000000, #78 ) ;
#39 = DIRECTION ( 'NONE',  ( 1.000000000000000000, 0.000000000000000000, 0.000000000000000000 ) ) ;
#40 = ORIENTED_EDGE ( 'NONE', *, *, #253, .T. ) ;
#41 = DIRECTION ( 'NONE',  ( 1.000000000000000000, 0.000000000000000000, -0.000000000000000000 ) ) ;
#42 = DIRECTION ( 'NONE',  ( 1.000000000000000000, 0.000000000000000000, 0.000000000000000000 ) ) ;
#43 = EDGE_CURVE ( 'NONE', #210, #72, #304, .T. ) ;
#44 = SECURITY_CLASSIFICATION_LEVEL ( 'unclassified' ) ;
#45 = CARTESIAN_POINT ( 'NONE',  ( 0.000000000000000000, 0.000000000000000000, 41.00000000000000000 ) ) ;
#46 = APPROVAL_ROLE ( '' ) ;
#47 = SECURITY_CLASSIFICATION ( '', '', #44 ) ;
#48 = EDGE_LOOP ( 'NONE', ( #63, #102 ) ) ;
#49 = CIRCLE ( 'NONE', #217, 8.500000000000000000 ) ;
#50 = ORIENTED_EDGE ( 'NONE', *, *, #236, .T. ) ;
#51 = CARTESIAN_POINT ( 'NONE',  ( 6.000000000000000888, 7.347880794884120722E-16, 0.000000000000000000 ) ) ;
#52 = CC_DESIGN_APPROVAL ( #275, ( #137 ) ) ;
#53 = FACE_OUTER_BOUND ( 'NONE', #25, .T. ) ;
#54 = AXIS2_PLACEMENT_3D ( 'NONE', #125, #82, #33 ) ;
#55 = COORDINATED_UNIVERSAL_TIME_OFFSET ( 1, 0, .AHEAD. ) ;
#56 = DESIGN_CONTEXT ( 'detailed design', #208, 'design' ) ;
#57 = DIRECTION ( 'NONE',  ( -1.000000000000000000, 0.000000000000000000, 0.000000000000000000 ) ) ;
#58 = CC_DESIGN_PERSON_AND_ORGANIZATION_ASSIGNMENT ( #234, #146, ( #47 ) ) ;
#59 = ORIENTED_EDGE ( 'NONE', *, *, #253, .F. ) ;
#60 = DIRECTION ( 'NONE',  ( 0.000000000000000000, 0.000000000000000000, 1.000000000000000000 ) ) ;
#61 = CARTESIAN_POINT ( 'NONE',  ( -6.000000000000000888, 0.000000000000000000, 41.00000000000000000 ) ) ;
#62 = CARTESIAN_POINT ( 'NONE',  ( 0.000000000000000000, 0.000000000000000000, 0.000000000000000000 ) ) ;
#63 = ORIENTED_EDGE ( 'NONE', *, *, #22, .T. ) ;
#64 = DIRECTION ( 'NONE',  ( -0.000000000000000000, -0.000000000000000000, -1.000000000000000000 ) ) ;
#65 = CARTESIAN_POINT ( 'NONE',  ( 0.000000000000000000, 0.000000000000000000, 41.00000000000000000 ) ) ;
#66 = DIRECTION ( 'NONE',  ( -0.000000000000000000, -0.000000000000000000, -1.000000000000000000 ) ) ;
#67 = COORDINATED_UNIVERSAL_TIME_OFFSET ( 1, 0, .AHEAD. ) ;
#68 = FACE_OUTER_BOUND ( 'NONE', #197, .T. ) ;
#69 = ADVANCED_FACE ( 'NONE', ( #13 ), #113, .T. ) ;
#70 = AXIS2_PLACEMENT_3D ( 'NONE', #164, #273, #163 ) ;
#71 = CALENDAR_DATE ( 2022, 26, 6 ) ;
#72 = VERTEX_POINT ( 'NONE', #291 ) ;
#73 = ADVANCED_FACE ( 'NONE', ( #68 ), #155, .T. ) ;
#74 = ORIENTED_EDGE ( 'NONE', *, *, #101, .F. ) ;
#75 = CIRCLE ( 'NONE', #143, 6.000000000000000888 ) ;
#76 = FACE_OUTER_BOUND ( 'NONE', #268, .T. ) ;
#77 = CARTESIAN_POINT ( 'NONE',  ( 0.000000000000000000, 0.000000000000000000, 81.00000000000000000 ) ) ;
#78 = COORDINATED_UNIVERSAL_TIME_OFFSET ( 1, 0, .AHEAD. ) ;
#79 = AXIS2_PLACEMENT_3D ( 'NONE', #45, #133, #140 ) ;
#80 = CALENDAR_DATE ( 2022, 26, 6 ) ;
#81 = VECTOR ( 'NONE', #171, 1000.000000000000000 ) ;
#82 = DIRECTION ( 'NONE',  ( -0.000000000000000000, -0.000000000000000000, -1.000000000000000000 ) ) ;
#83 = CC_DESIGN_APPROVAL ( #139, ( #47 ) ) ;
#84 = VERTEX_POINT ( 'NONE', #326 ) ;
#85 = DIRECTION ( 'NONE',  ( -0.000000000000000000, -0.000000000000000000, -1.000000000000000000 ) ) ;
#86 = PERSON_AND_ORGANIZATION ( #237, #308 ) ;
#87 = ORIENTED_EDGE ( 'NONE', *, *, #35, .F. ) ;
#88 = CARTESIAN_POINT ( 'NONE',  ( 0.000000000000000000, 0.000000000000000000, 0.000000000000000000 ) ) ;
#89 = CYLINDRICAL_SURFACE ( 'NONE', #245, 6.000000000000000888 ) ;
#90 = VECTOR ( 'NONE', #186, 1000.000000000000000 ) ;
#91 = FACE_OUTER_BOUND ( 'NONE', #311, .T. ) ;
#92 = APPROVAL ( #174, 'UNSPECIFIED' ) ;
#93 = PERSON_AND_ORGANIZATION ( #237, #308 ) ;
#94 = DIRECTION ( 'NONE',  ( -1.000000000000000000, 0.000000000000000000, 0.000000000000000000 ) ) ;
#95 = DIRECTION ( 'NONE',  ( 0.000000000000000000, 0.000000000000000000, 1.000000000000000000 ) ) ;
#96 = PERSON_AND_ORGANIZATION ( #237, #308 ) ;
#97 = CARTESIAN_POINT ( 'NONE',  ( -6.000000000000000888, 0.000000000000000000, 81.00000000000000000 ) ) ;
#98 = PRODUCT_RELATED_PRODUCT_CATEGORY ( 'detail', '', ( #324 ) ) ;
#99 = ORIENTED_EDGE ( 'NONE', *, *, #105, .T. ) ;
#100 = CIRCLE ( 'NONE', #70, 7.500000000000000888 ) ;
#101 = EDGE_CURVE ( 'NONE', #119, #182, #100, .T. ) ;
#102 = ORIENTED_EDGE ( 'NONE', *, *, #159, .T. ) ;
#103 = DIRECTION ( 'NONE',  ( -0.000000000000000000, -0.000000000000000000, -1.000000000000000000 ) ) ;
#104 = CARTESIAN_POINT ( 'NONE',  ( 7.500000000000000888, 9.184850993605149917E-16, 41.00000000000000000 ) ) ;
#105 = EDGE_CURVE ( 'NONE', #294, #24, #49, .T. ) ;
#106 = CARTESIAN_POINT ( 'NONE',  ( 8.500000000000000000, 1.040949779275250140E-15, 81.00000000000000000 ) ) ;
#107 = ORIENTED_EDGE ( 'NONE', *, *, #222, .T. ) ;
#108 = CARTESIAN_POINT ( 'NONE',  ( 6.000000000000000888, 7.347880794884120722E-16, 41.00000000000000000 ) ) ;
#109 = ORIENTED_EDGE ( 'NONE', *, *, #22, .F. ) ;
#110 = DIRECTION ( 'NONE',  ( 1.000000000000000000, 0.000000000000000000, -0.000000000000000000 ) ) ;
#111 = DIRECTION ( 'NONE',  ( 0.000000000000000000, 0.000000000000000000, 1.000000000000000000 ) ) ;
#112 = DATE_AND_TIME ( #71, #317 ) ;
#113 = CYLINDRICAL_SURFACE ( 'NONE', #229, 8.500000000000000000 ) ;
#114 = APPROVAL_DATE_TIME ( #154, #92 ) ;
#115 = DIRECTION ( 'NONE',  ( 0.000000000000000000, 0.000000000000000000, 1.000000000000000000 ) ) ;
#116 = VECTOR ( 'NONE', #66, 1000.000000000000000 ) ;
#117 = CC_DESIGN_DATE_AND_TIME_ASSIGNMENT ( #191, #220, ( #47 ) ) ;
#118 = ORIENTED_EDGE ( 'NONE', *, *, #270, .T. ) ;
#119 = VERTEX_POINT ( 'NONE', #276 ) ;
#120 = ORIENTED_EDGE ( 'NONE', *, *, #101, .T. ) ;
#121 = AXIS2_PLACEMENT_3D ( 'NONE', #244, #103, #185 ) ;
#122 = LINE ( 'NONE', #104, #90 ) ;
#123 = CARTESIAN_POINT ( 'NONE',  ( -6.000000000000000888, 0.000000000000000000, 0.000000000000000000 ) ) ;
#124 = FACE_BOUND ( 'NONE', #320, .T. ) ;
#125 = CARTESIAN_POINT ( 'NONE',  ( 0.000000000000000000, 0.000000000000000000, 41.00000000000000000 ) ) ;
#126 = ORIENTED_EDGE ( 'NONE', *, *, #299, .F. ) ;
#127 = FACE_BOUND ( 'NONE', #18, .T. ) ;
#128 = ORIENTED_EDGE ( 'NONE', *, *, #270, .F. ) ;
#129 = CARTESIAN_POINT ( 'NONE',  ( 0.000000000000000000, 0.000000000000000000, 0.000000000000000000 ) ) ;
#130 = PERSON_AND_ORGANIZATION ( #237, #308 ) ;
#131 = DIRECTION ( 'NONE',  ( 1.000000000000000000, 0.000000000000000000, 0.000000000000000000 ) ) ;
#132 = APPROVAL_STATUS ( 'not_yet_approved' ) ;
#133 = DIRECTION ( 'NONE',  ( -0.000000000000000000, -0.000000000000000000, -1.000000000000000000 ) ) ;
#134 = CALENDAR_DATE ( 2022, 26, 6 ) ;
#135 = VERTEX_POINT ( 'NONE', #51 ) ;
#136 = EDGE_LOOP ( 'NONE', ( #74, #242 ) ) ;
#137 = PRODUCT_DEFINITION_FORMATION_WITH_SPECIFIED_SOURCE ( 'ANY', '', #324, .NOT_KNOWN. ) ;
#138 = PRODUCT_DEFINITION ( 'UNKNOWN', '', #137, #56 ) ;
#139 = APPROVAL ( #303, 'UNSPECIFIED' ) ;
#140 = DIRECTION ( 'NONE',  ( -1.000000000000000000, 0.000000000000000000, 0.000000000000000000 ) ) ;
#141 = AXIS2_PLACEMENT_3D ( 'NONE', #62, #95, #39 ) ;
#142 = PLANE ( 'NONE',  #211 ) ;
#143 = AXIS2_PLACEMENT_3D ( 'NONE', #235, #115, #42 ) ;
#144 = ADVANCED_FACE ( 'NONE', ( #76 ), #243, .T. ) ;
#145 = CARTESIAN_POINT ( 'NONE',  ( 6.000000000000000888, 7.347880794884120722E-16, 81.00000000000000000 ) ) ;
#146 = PERSON_AND_ORGANIZATION_ROLE ( 'classification_officer' ) ;
#147 = CARTESIAN_POINT ( 'NONE',  ( 0.000000000000000000, 0.000000000000000000, 0.000000000000000000 ) ) ;
#148 = ORIENTED_EDGE ( 'NONE', *, *, #264, .F. ) ;
#149 = LINE ( 'NONE', #282, #189 ) ;
#150 = CARTESIAN_POINT ( 'NONE',  ( -7.500000000000000888, 0.000000000000000000, 41.00000000000000000 ) ) ;
#151 = ORIENTED_EDGE ( 'NONE', *, *, #236, .F. ) ;
#152 = CARTESIAN_POINT ( 'NONE',  ( 8.500000000000000000, 1.040949779275250140E-15, 81.00000000000000000 ) ) ;
#153 = DIRECTION ( 'NONE',  ( 1.000000000000000000, 0.000000000000000000, 0.000000000000000000 ) ) ;
#154 = DATE_AND_TIME ( #134, #183 ) ;
#155 = CYLINDRICAL_SURFACE ( 'NONE', #79, 7.500000000000000888 ) ;
#156 = PERSON_AND_ORGANIZATION_ROLE ( 'creator' ) ;
#157 = VERTEX_POINT ( 'NONE', #123 ) ;
#158 = ORIENTED_EDGE ( 'NONE', *, *, #329, .T. ) ;
#159 = EDGE_CURVE ( 'NONE', #84, #256, #224, .T. ) ;
#160 = CIRCLE ( 'NONE', #274, 6.000000000000000888 ) ;
#161 = APPROVAL_PERSON_ORGANIZATION ( #318, #92, #46 ) ;
#162 = CC_DESIGN_PERSON_AND_ORGANIZATION_ASSIGNMENT ( #86, #200, ( #324 ) ) ;
#163 = DIRECTION ( 'NONE',  ( 1.000000000000000000, 0.000000000000000000, 0.000000000000000000 ) ) ;
#164 = CARTESIAN_POINT ( 'NONE',  ( 0.000000000000000000, 0.000000000000000000, 0.000000000000000000 ) ) ;
#165 = CIRCLE ( 'NONE', #9, 6.000000000000000888 ) ;
#166 = APPROVAL_ROLE ( '' ) ;
#167 = CARTESIAN_POINT ( 'NONE',  ( 0.000000000000000000, 0.000000000000000000, 41.00000000000000000 ) ) ;
#168 = ORIENTED_EDGE ( 'NONE', *, *, #26, .F. ) ;
#169 = DIRECTION ( 'NONE',  ( -0.000000000000000000, -0.000000000000000000, -1.000000000000000000 ) ) ;
#170 = ORIENTED_EDGE ( 'NONE', *, *, #43, .T. ) ;
#171 = DIRECTION ( 'NONE',  ( -0.000000000000000000, -0.000000000000000000, -1.000000000000000000 ) ) ;
#172 = FACE_OUTER_BOUND ( 'NONE', #321, .T. ) ;
#173 = PLANE ( 'NONE',  #266 ) ;
#174 = APPROVAL_STATUS ( 'not_yet_approved' ) ;
#175 = CARTESIAN_POINT ( 'NONE',  ( -8.500000000000000000, 0.000000000000000000, 81.00000000000000000 ) ) ;
#176 = CIRCLE ( 'NONE', #295, 6.000000000000000888 ) ;
#177 = COORDINATED_UNIVERSAL_TIME_OFFSET ( 1, 0, .AHEAD. ) ;
#178 = ORIENTED_EDGE ( 'NONE', *, *, #222, .F. ) ;
#179 = ORIENTED_EDGE ( 'NONE', *, *, #35, .T. ) ;
#180 = VECTOR ( 'NONE', #64, 1000.000000000000000 ) ;
#181 = AXIS2_PLACEMENT_3D ( 'NONE', #239, #240, #296 ) ;
#182 = VERTEX_POINT ( 'NONE', #215 ) ;
#183 = LOCAL_TIME ( 21, 1, 25.00000000000000000, #67 ) ;
#184 = EDGE_CURVE ( 'NONE', #84, #182, #122, .T. ) ;
#185 = DIRECTION ( 'NONE',  ( -1.000000000000000000, 0.000000000000000000, 0.000000000000000000 ) ) ;
#186 = DIRECTION ( 'NONE',  ( -0.000000000000000000, -0.000000000000000000, -1.000000000000000000 ) ) ;
#187 = APPROVAL_PERSON_ORGANIZATION ( #96, #275, #206 ) ;
#188 = APPROVAL_DATE_TIME ( #277, #139 ) ;
#189 = VECTOR ( 'NONE', #169, 1000.000000000000000 ) ;
#190 = ADVANCED_FACE ( 'NONE', ( #302, #53 ), #142, .F. ) ;
#191 = DATE_AND_TIME ( #80, #255 ) ;
#192 = EDGE_CURVE ( 'NONE', #294, #210, #11, .T. ) ;
#193 = FACE_OUTER_BOUND ( 'NONE', #269, .T. ) ;
#194 = AXIS2_PLACEMENT_3D ( 'NONE', #8, #111, #283 ) ;
#195 = ORIENTED_EDGE ( 'NONE', *, *, #299, .T. ) ;
#196 = CYLINDRICAL_SURFACE ( 'NONE', #54, 7.500000000000000888 ) ;
#197 = EDGE_LOOP ( 'NONE', ( #10, #228, #20, #128 ) ) ;
#198 = AXIS2_PLACEMENT_3D ( 'NONE', #19, #313, #131 ) ;
#199 = LINE ( 'NONE', #257, #180 ) ;
#200 = PERSON_AND_ORGANIZATION_ROLE ( 'design_owner' ) ;
#201 = DIRECTION ( 'NONE',  ( 0.000000000000000000, 0.000000000000000000, 1.000000000000000000 ) ) ;
#202 = APPROVAL_DATE_TIME ( #112, #275 ) ;
#203 = DIRECTION ( 'NONE',  ( 1.000000000000000000, 0.000000000000000000, 0.000000000000000000 ) ) ;
#204 =( LENGTH_UNIT ( ) NAMED_UNIT ( * ) SI_UNIT ( .MILLI., .METRE. ) );
#205 = MANIFOLD_SOLID_BREP ( 'Boss.-Extru.4', #297 ) ;
#206 = APPROVAL_ROLE ( '' ) ;
#207 = DIRECTION ( 'NONE',  ( -1.000000000000000000, 0.000000000000000000, 0.000000000000000000 ) ) ;
#208 = APPLICATION_CONTEXT ( 'configuration controlled 3d designs of mechanical parts and assemblies' ) ;
#209 = ORIENTED_EDGE ( 'NONE', *, *, #26, .T. ) ;
#210 = VERTEX_POINT ( 'NONE', #289 ) ;
#211 = AXIS2_PLACEMENT_3D ( 'NONE', #28, #201, #41 ) ;
#212 = ORIENTED_EDGE ( 'NONE', *, *, #264, .T. ) ;
#213 = AXIS2_PLACEMENT_3D ( 'NONE', #259, #232, #203 ) ;
#214 = DIRECTION ( 'NONE',  ( 1.000000000000000000, 0.000000000000000000, 0.000000000000000000 ) ) ;
#215 = CARTESIAN_POINT ( 'NONE',  ( 7.500000000000000888, 9.184850993605149917E-16, 0.000000000000000000 ) ) ;
#216 = ADVANCED_BREP_SHAPE_REPRESENTATION ( 'Entretoise-arriÞre-couronne', ( #205, #141 ), #288 ) ;
#217 = AXIS2_PLACEMENT_3D ( 'NONE', #77, #328, #214 ) ;
#218 = CARTESIAN_POINT ( 'NONE',  ( 0.000000000000000000, 0.000000000000000000, 41.00000000000000000 ) ) ;
#219 = CC_DESIGN_APPROVAL ( #92, ( #138 ) ) ;
#220 = DATE_TIME_ROLE ( 'classification_date' ) ;
#221 = PLANE ( 'NONE',  #258 ) ;
#222 = EDGE_CURVE ( 'NONE', #72, #210, #3, .T. ) ;
#223 = DIRECTION ( 'NONE',  ( 1.000000000000000000, 0.000000000000000000, -0.000000000000000000 ) ) ;
#224 = CIRCLE ( 'NONE', #30, 7.500000000000000888 ) ;
#225 = ORIENTED_EDGE ( 'NONE', *, *, #233, .F. ) ;
#226 = DIRECTION ( 'NONE',  ( 0.000000000000000000, 0.000000000000000000, 1.000000000000000000 ) ) ;
#227 = MECHANICAL_CONTEXT ( 'NONE', #305, 'mechanical' ) ;
#228 = ORIENTED_EDGE ( 'NONE', *, *, #184, .T. ) ;
#229 = AXIS2_PLACEMENT_3D ( 'NONE', #316, #263, #94 ) ;
#230 = LINE ( 'NONE', #61, #246 ) ;
#231 = COORDINATED_UNIVERSAL_TIME_OFFSET ( 1, 0, .AHEAD. ) ;
#232 = DIRECTION ( 'NONE',  ( 0.000000000000000000, 0.000000000000000000, 1.000000000000000000 ) ) ;
#233 = EDGE_CURVE ( 'NONE', #157, #135, #160, .T. ) ;
#234 = PERSON_AND_ORGANIZATION ( #237, #308 ) ;
#235 = CARTESIAN_POINT ( 'NONE',  ( 0.000000000000000000, 0.000000000000000000, 81.00000000000000000 ) ) ;
#236 = EDGE_CURVE ( 'NONE', #6, #157, #230, .T. ) ;
#237 = PERSON ( 'UNSPECIFIED', 'UNSPECIFIED', 'UNSPECIFIED', ('UNSPECIFIED'), ('UNSPECIFIED'), ('UNSPECIFIED') ) ;
#238 = CC_DESIGN_PERSON_AND_ORGANIZATION_ASSIGNMENT ( #93, #156, ( #137 ) ) ;
#239 = CARTESIAN_POINT ( 'NONE',  ( 0.000000000000000000, 0.000000000000000000, 0.000000000000000000 ) ) ;
#240 = DIRECTION ( 'NONE',  ( 0.000000000000000000, 0.000000000000000000, 1.000000000000000000 ) ) ;
#241 = CIRCLE ( 'NONE', #272, 8.500000000000000000 ) ;
#242 = ORIENTED_EDGE ( 'NONE', *, *, #14, .F. ) ;
#243 = CYLINDRICAL_SURFACE ( 'NONE', #121, 8.500000000000000000 ) ;
#244 = CARTESIAN_POINT ( 'NONE',  ( 0.000000000000000000, 0.000000000000000000, 81.00000000000000000 ) ) ;
#245 = AXIS2_PLACEMENT_3D ( 'NONE', #65, #287, #207 ) ;
#246 = VECTOR ( 'NONE', #314, 1000.000000000000000 ) ;
#247 = SHAPE_DEFINITION_REPRESENTATION ( #271, #216 ) ;
#248 = FACE_OUTER_BOUND ( 'NONE', #136, .T. ) ;
#249 = PERSON_AND_ORGANIZATION ( #237, #308 ) ;
#250 = DIRECTION ( 'NONE',  ( 0.000000000000000000, 0.000000000000000000, 1.000000000000000000 ) ) ;
#251 = ORIENTED_EDGE ( 'NONE', *, *, #329, .F. ) ;
#252 = CARTESIAN_POINT ( 'NONE',  ( 0.000000000000000000, 0.000000000000000000, 81.00000000000000000 ) ) ;
#253 = EDGE_CURVE ( 'NONE', #24, #72, #199, .T. ) ;
#254 =( NAMED_UNIT ( * ) PLANE_ANGLE_UNIT ( ) SI_UNIT ( $, .RADIAN. ) );
#255 = LOCAL_TIME ( 21, 1, 25.00000000000000000, #55 ) ;
#256 = VERTEX_POINT ( 'NONE', #150 ) ;
#257 = CARTESIAN_POINT ( 'NONE',  ( -8.500000000000000000, 0.000000000000000000, 81.00000000000000000 ) ) ;
#258 = AXIS2_PLACEMENT_3D ( 'NONE', #147, #250, #223 ) ;
#259 = CARTESIAN_POINT ( 'NONE',  ( 0.000000000000000000, 0.000000000000000000, 41.00000000000000000 ) ) ;
#260 = ADVANCED_FACE ( 'NONE', ( #91, #127 ), #173, .T. ) ;
#261 = APPLICATION_PROTOCOL_DEFINITION ( 'international standard', 'config_control_design', 1994, #305 ) ;
#262 = CALENDAR_DATE ( 2022, 26, 6 ) ;
#263 = DIRECTION ( 'NONE',  ( -0.000000000000000000, -0.000000000000000000, -1.000000000000000000 ) ) ;
#264 = EDGE_CURVE ( 'NONE', #135, #157, #176, .T. ) ;
#265 = PERSON_AND_ORGANIZATION_ROLE ( 'design_supplier' ) ;
#266 = AXIS2_PLACEMENT_3D ( 'NONE', #252, #37, #110 ) ;
#267 = ORIENTED_EDGE ( 'NONE', *, *, #233, .T. ) ;
#268 = EDGE_LOOP ( 'NONE', ( #298, #36, #170, #59 ) ) ;
#269 = EDGE_LOOP ( 'NONE', ( #251, #209, #50, #148 ) ) ;
#270 = EDGE_CURVE ( 'NONE', #256, #119, #149, .T. ) ;
#271 = PRODUCT_DEFINITION_SHAPE ( 'NONE', 'NONE',  #138 ) ;
#272 = AXIS2_PLACEMENT_3D ( 'NONE', #34, #60, #310 ) ;
#273 = DIRECTION ( 'NONE',  ( 0.000000000000000000, 0.000000000000000000, 1.000000000000000000 ) ) ;
#274 = AXIS2_PLACEMENT_3D ( 'NONE', #129, #226, #312 ) ;
#275 = APPROVAL ( #132, 'UNSPECIFIED' ) ;
#276 = CARTESIAN_POINT ( 'NONE',  ( -7.500000000000000888, 0.000000000000000000, 0.000000000000000000 ) ) ;
#277 = DATE_AND_TIME ( #278, #38 ) ;
#278 = CALENDAR_DATE ( 2022, 26, 6 ) ;
#279 = FACE_OUTER_BOUND ( 'NONE', #2, .T. ) ;
#280 = CIRCLE ( 'NONE', #198, 7.500000000000000888 ) ;
#281 = EDGE_LOOP ( 'NONE', ( #21, #126, #40, #107 ) ) ;
#282 = CARTESIAN_POINT ( 'NONE',  ( -7.500000000000000888, 0.000000000000000000, 41.00000000000000000 ) ) ;
#283 = DIRECTION ( 'NONE',  ( 1.000000000000000000, 0.000000000000000000, 0.000000000000000000 ) ) ;
#284 =( NAMED_UNIT ( * ) SI_UNIT ( $, .STERADIAN. ) SOLID_ANGLE_UNIT ( ) );
#285 = ORIENTED_EDGE ( 'NONE', *, *, #184, .F. ) ;
#286 = DIRECTION ( 'NONE',  ( 0.000000000000000000, 0.000000000000000000, 1.000000000000000000 ) ) ;
#287 = DIRECTION ( 'NONE',  ( -0.000000000000000000, -0.000000000000000000, -1.000000000000000000 ) ) ;
#288 =( GEOMETRIC_REPRESENTATION_CONTEXT ( 3 ) GLOBAL_UNCERTAINTY_ASSIGNED_CONTEXT ( ( #306 ) ) GLOBAL_UNIT_ASSIGNED_CONTEXT ( ( #204, #254, #284 ) ) REPRESENTATION_CONTEXT ( 'NONE', 'WORKASPACE' ) );
#289 = CARTESIAN_POINT ( 'NONE',  ( 8.500000000000000000, 1.040949779275250140E-15, 41.00000000000000000 ) ) ;
#290 = APPLICATION_PROTOCOL_DEFINITION ( 'international standard', 'config_control_design', 1994, #208 ) ;
#291 = CARTESIAN_POINT ( 'NONE',  ( -8.500000000000000000, 0.000000000000000000, 41.00000000000000000 ) ) ;
#292 = PERSON_AND_ORGANIZATION_ROLE ( 'creator' ) ;
#293 = ADVANCED_FACE ( 'NONE', ( #279 ), #196, .T. ) ;
#294 = VERTEX_POINT ( 'NONE', #106 ) ;
#295 = AXIS2_PLACEMENT_3D ( 'NONE', #88, #286, #1 ) ;
#296 = DIRECTION ( 'NONE',  ( 1.000000000000000000, 0.000000000000000000, 0.000000000000000000 ) ) ;
#297 = CLOSED_SHELL ( 'NONE', ( #144, #29, #73, #322, #293, #300, #260, #190, #69 ) ) ;
#298 = ORIENTED_EDGE ( 'NONE', *, *, #105, .F. ) ;
#299 = EDGE_CURVE ( 'NONE', #24, #294, #241, .T. ) ;
#300 = ADVANCED_FACE ( 'NONE', ( #193 ), #307, .F. ) ;
#301 = DIRECTION ( 'NONE',  ( 0.000000000000000000, 0.000000000000000000, 1.000000000000000000 ) ) ;
#302 = FACE_BOUND ( 'NONE', #48, .T. ) ;
#303 = APPROVAL_STATUS ( 'not_yet_approved' ) ;
#304 = CIRCLE ( 'NONE', #213, 8.500000000000000000 ) ;
#305 = APPLICATION_CONTEXT ( 'configuration controlled 3d designs of mechanical parts and assemblies' ) ;
#306 = UNCERTAINTY_MEASURE_WITH_UNIT (LENGTH_MEASURE( 1.000000000000000082E-05 ), #204, 'distance_accuracy_value', 'NONE');
#307 = CYLINDRICAL_SURFACE ( 'NONE', #7, 6.000000000000000888 ) ;
#308 = ORGANIZATION ( 'UNSPECIFIED', 'UNSPECIFIED', '' ) ;
#309 = VERTEX_POINT ( 'NONE', #145 ) ;
#310 = DIRECTION ( 'NONE',  ( 1.000000000000000000, 0.000000000000000000, 0.000000000000000000 ) ) ;
#311 = EDGE_LOOP ( 'NONE', ( #195, #99 ) ) ;
#312 = DIRECTION ( 'NONE',  ( 1.000000000000000000, 0.000000000000000000, 0.000000000000000000 ) ) ;
#313 = DIRECTION ( 'NONE',  ( 0.000000000000000000, 0.000000000000000000, 1.000000000000000000 ) ) ;
#314 = DIRECTION ( 'NONE',  ( -0.000000000000000000, -0.000000000000000000, -1.000000000000000000 ) ) ;
#315 = DATE_AND_TIME ( #262, #17 ) ;
#316 = CARTESIAN_POINT ( 'NONE',  ( 0.000000000000000000, 0.000000000000000000, 81.00000000000000000 ) ) ;
#317 = LOCAL_TIME ( 21, 1, 25.00000000000000000, #177 ) ;
#318 = PERSON_AND_ORGANIZATION ( #237, #308 ) ;
#319 = DIRECTION ( 'NONE',  ( 0.000000000000000000, 0.000000000000000000, 1.000000000000000000 ) ) ;
#320 = EDGE_LOOP ( 'NONE', ( #267, #212 ) ) ;
#321 = EDGE_LOOP ( 'NONE', ( #179, #158, #225, #151 ) ) ;
#322 = ADVANCED_FACE ( 'NONE', ( #248, #124 ), #221, .F. ) ;
#323 = CIRCLE ( 'NONE', #181, 7.500000000000000888 ) ;
#324 = PRODUCT ( 'Entretoise-arrière-couronne', 'Entretoise-arrière-couronne', '', ( #227 ) ) ;
#325 = ORIENTED_EDGE ( 'NONE', *, *, #43, .F. ) ;
#326 = CARTESIAN_POINT ( 'NONE',  ( 7.500000000000000888, 9.184850993605149917E-16, 41.00000000000000000 ) ) ;
#327 = CC_DESIGN_DATE_AND_TIME_ASSIGNMENT ( #315, #12, ( #138 ) ) ;
#328 = DIRECTION ( 'NONE',  ( 0.000000000000000000, 0.000000000000000000, 1.000000000000000000 ) ) ;
#329 = EDGE_CURVE ( 'NONE', #309, #135, #4, .T. ) ;
ENDSEC;
END-ISO-10303-21;
