ISO-10303-21;
HEADER;
FILE_DESCRIPTION (( 'STEP AP203' ),
    '1' );
FILE_NAME ('Entretoise-droite-avant.STEP',
    '2022-06-26T19:02:14',
    ( '' ),
    ( '' ),
    'SwSTEP 2.0',
    'SolidWorks 2020',
    '' );
FILE_SCHEMA (( 'CONFIG_CONTROL_DESIGN' ));
ENDSEC;

DATA;
#1 = ORIENTED_EDGE ( 'NONE', *, *, #99, .F. ) ;
#2 = CARTESIAN_POINT ( 'NONE',  ( 0.000000000000000000, 0.000000000000000000, 20.69999999999999929 ) ) ;
#3 = ORIENTED_EDGE ( 'NONE', *, *, #20, .T. ) ;
#4 = DIRECTION ( 'NONE',  ( 0.000000000000000000, 0.000000000000000000, 1.000000000000000000 ) ) ;
#5 = DIRECTION ( 'NONE',  ( 0.000000000000000000, 0.000000000000000000, 1.000000000000000000 ) ) ;
#6 = CARTESIAN_POINT ( 'NONE',  ( 0.000000000000000000, 0.000000000000000000, 0.000000000000000000 ) ) ;
#7 = CIRCLE ( 'NONE', #102, 6.000000000000000888 ) ;
#8 = PERSON_AND_ORGANIZATION ( #121, #135 ) ;
#9 = FACE_OUTER_BOUND ( 'NONE', #98, .T. ) ;
#10 = CALENDAR_DATE ( 2022, 26, 6 ) ;
#11 = VECTOR ( 'NONE', #45, 1000.000000000000000 ) ;
#12 = EDGE_CURVE ( 'NONE', #66, #79, #7, .T. ) ;
#13 = SECURITY_CLASSIFICATION_LEVEL ( 'unclassified' ) ;
#14 = PERSON_AND_ORGANIZATION ( #121, #135 ) ;
#15 = DIRECTION ( 'NONE',  ( 1.000000000000000000, 0.000000000000000000, 0.000000000000000000 ) ) ;
#16 = CARTESIAN_POINT ( 'NONE',  ( -6.000000000000000888, 0.000000000000000000, 20.69999999999999929 ) ) ;
#17 = PRODUCT_DEFINITION ( 'UNKNOWN', '', #38, #162 ) ;
#18 = APPROVAL_DATE_TIME ( #242, #141 ) ;
#19 = APPLICATION_CONTEXT ( 'configuration controlled 3d designs of mechanical parts and assemblies' ) ;
#20 = EDGE_CURVE ( 'NONE', #79, #122, #186, .T. ) ;
#21 = ORIENTED_EDGE ( 'NONE', *, *, #58, .F. ) ;
#22 = DIRECTION ( 'NONE',  ( -0.000000000000000000, -0.000000000000000000, -1.000000000000000000 ) ) ;
#23 = VERTEX_POINT ( 'NONE', #111 ) ;
#24 = DIRECTION ( 'NONE',  ( 0.000000000000000000, 0.000000000000000000, 1.000000000000000000 ) ) ;
#25 = CARTESIAN_POINT ( 'NONE',  ( 6.000000000000000888, 7.347880794884120722E-16, 20.69999999999999929 ) ) ;
#26 = AXIS2_PLACEMENT_3D ( 'NONE', #75, #73, #35 ) ;
#27 = DIRECTION ( 'NONE',  ( 1.000000000000000000, 0.000000000000000000, 0.000000000000000000 ) ) ;
#28 = CC_DESIGN_PERSON_AND_ORGANIZATION_ASSIGNMENT ( #160, #130, ( #33 ) ) ;
#29 = DATE_AND_TIME ( #10, #166 ) ;
#30 = CARTESIAN_POINT ( 'NONE',  ( 8.500000000000001776, 1.040949779275250337E-15, 20.69999999999999929 ) ) ;
#31 = PERSON_AND_ORGANIZATION ( #121, #135 ) ;
#32 = VECTOR ( 'NONE', #22, 1000.000000000000000 ) ;
#33 = PRODUCT ( 'Entretoise-droite-avant', 'Entretoise-droite-avant', '', ( #53 ) ) ;
#34 = CARTESIAN_POINT ( 'NONE',  ( 0.000000000000000000, 0.000000000000000000, 20.69999999999999929 ) ) ;
#35 = DIRECTION ( 'NONE',  ( 1.000000000000000000, 0.000000000000000000, 0.000000000000000000 ) ) ;
#36 = ORIENTED_EDGE ( 'NONE', *, *, #204, .T. ) ;
#37 = VERTEX_POINT ( 'NONE', #163 ) ;
#38 = PRODUCT_DEFINITION_FORMATION_WITH_SPECIFIED_SOURCE ( 'ANY', '', #33, .NOT_KNOWN. ) ;
#39 = CIRCLE ( 'NONE', #227, 6.000000000000000888 ) ;
#40 = ORIENTED_EDGE ( 'NONE', *, *, #210, .F. ) ;
#41 = ORIENTED_EDGE ( 'NONE', *, *, #129, .F. ) ;
#42 = DIRECTION ( 'NONE',  ( -1.000000000000000000, 0.000000000000000000, 0.000000000000000000 ) ) ;
#43 = ORIENTED_EDGE ( 'NONE', *, *, #129, .T. ) ;
#44 = CC_DESIGN_PERSON_AND_ORGANIZATION_ASSIGNMENT ( #128, #200, ( #38 ) ) ;
#45 = DIRECTION ( 'NONE',  ( -0.000000000000000000, -0.000000000000000000, -1.000000000000000000 ) ) ;
#46 = EDGE_LOOP ( 'NONE', ( #40, #41 ) ) ;
#47 = CARTESIAN_POINT ( 'NONE',  ( 0.000000000000000000, 0.000000000000000000, 20.69999999999999929 ) ) ;
#48 = CARTESIAN_POINT ( 'NONE',  ( 0.000000000000000000, 0.000000000000000000, 0.000000000000000000 ) ) ;
#49 = APPROVAL_ROLE ( '' ) ;
#50 = DIRECTION ( 'NONE',  ( 1.000000000000000000, 0.000000000000000000, -0.000000000000000000 ) ) ;
#51 = VECTOR ( 'NONE', #195, 1000.000000000000000 ) ;
#52 = APPROVAL_STATUS ( 'not_yet_approved' ) ;
#53 = MECHANICAL_CONTEXT ( 'NONE', #196, 'mechanical' ) ;
#54 = CIRCLE ( 'NONE', #229, 8.500000000000001776 ) ;
#55 = COORDINATED_UNIVERSAL_TIME_OFFSET ( 1, 0, .AHEAD. ) ;
#56 = DIRECTION ( 'NONE',  ( 0.000000000000000000, 0.000000000000000000, 1.000000000000000000 ) ) ;
#57 = CIRCLE ( 'NONE', #203, 8.500000000000001776 ) ;
#58 = EDGE_CURVE ( 'NONE', #37, #134, #149, .T. ) ;
#59 = ORIENTED_EDGE ( 'NONE', *, *, #80, .T. ) ;
#60 = CC_DESIGN_APPROVAL ( #141, ( #86 ) ) ;
#61 = ORIENTED_EDGE ( 'NONE', *, *, #63, .T. ) ;
#62 = FACE_OUTER_BOUND ( 'NONE', #154, .T. ) ;
#63 = EDGE_CURVE ( 'NONE', #79, #66, #39, .T. ) ;
#64 = APPLICATION_PROTOCOL_DEFINITION ( 'international standard', 'config_control_design', 1994, #196 ) ;
#65 = APPROVAL_PERSON_ORGANIZATION ( #92, #141, #107 ) ;
#66 = VERTEX_POINT ( 'NONE', #241 ) ;
#67 = DIRECTION ( 'NONE',  ( -1.000000000000000000, 0.000000000000000000, 0.000000000000000000 ) ) ;
#68 = CARTESIAN_POINT ( 'NONE',  ( -6.000000000000000888, 0.000000000000000000, 0.000000000000000000 ) ) ;
#69 = CYLINDRICAL_SURFACE ( 'NONE', #247, 8.500000000000001776 ) ;
#70 = ADVANCED_FACE ( 'NONE', ( #178, #72 ), #109, .T. ) ;
#71 = COORDINATED_UNIVERSAL_TIME_OFFSET ( 1, 0, .AHEAD. ) ;
#72 = FACE_BOUND ( 'NONE', #78, .T. ) ;
#73 = DIRECTION ( 'NONE',  ( 0.000000000000000000, 0.000000000000000000, 1.000000000000000000 ) ) ;
#74 = DIRECTION ( 'NONE',  ( 0.000000000000000000, 0.000000000000000000, 1.000000000000000000 ) ) ;
#75 = CARTESIAN_POINT ( 'NONE',  ( 0.000000000000000000, 0.000000000000000000, 0.000000000000000000 ) ) ;
#76 = ORIENTED_EDGE ( 'NONE', *, *, #80, .F. ) ;
#77 = LOCAL_TIME ( 21, 2, 14.00000000000000000, #150 ) ;
#78 = EDGE_LOOP ( 'NONE', ( #171, #119 ) ) ;
#79 = VERTEX_POINT ( 'NONE', #220 ) ;
#80 = EDGE_CURVE ( 'NONE', #122, #208, #144, .T. ) ;
#81 = EDGE_LOOP ( 'NONE', ( #190, #214 ) ) ;
#82 = DIRECTION ( 'NONE',  ( 0.000000000000000000, 0.000000000000000000, 1.000000000000000000 ) ) ;
#83 = AXIS2_PLACEMENT_3D ( 'NONE', #180, #148, #50 ) ;
#84 = CC_DESIGN_DATE_AND_TIME_ASSIGNMENT ( #147, #243, ( #86 ) ) ;
#85 = DIRECTION ( 'NONE',  ( 0.000000000000000000, 0.000000000000000000, 1.000000000000000000 ) ) ;
#86 = SECURITY_CLASSIFICATION ( '', '', #13 ) ;
#87 = CARTESIAN_POINT ( 'NONE',  ( 0.000000000000000000, 0.000000000000000000, 0.000000000000000000 ) ) ;
#88 = CARTESIAN_POINT ( 'NONE',  ( 0.000000000000000000, 0.000000000000000000, 20.69999999999999929 ) ) ;
#89 = PERSON_AND_ORGANIZATION ( #121, #135 ) ;
#90 = CIRCLE ( 'NONE', #211, 8.500000000000001776 ) ;
#91 = CIRCLE ( 'NONE', #151, 6.000000000000000888 ) ;
#92 = PERSON_AND_ORGANIZATION ( #121, #135 ) ;
#93 = APPROVAL_STATUS ( 'not_yet_approved' ) ;
#94 = PERSON_AND_ORGANIZATION_ROLE ( 'design_supplier' ) ;
#95 = DIRECTION ( 'NONE',  ( -0.000000000000000000, -0.000000000000000000, -1.000000000000000000 ) ) ;
#96 = ADVANCED_FACE ( 'NONE', ( #9 ), #115, .F. ) ;
#97 = AXIS2_PLACEMENT_3D ( 'NONE', #2, #105, #172 ) ;
#98 = EDGE_LOOP ( 'NONE', ( #137, #188, #3, #244 ) ) ;
#99 = EDGE_CURVE ( 'NONE', #37, #232, #90, .T. ) ;
#100 = DIRECTION ( 'NONE',  ( -0.000000000000000000, -0.000000000000000000, -1.000000000000000000 ) ) ;
#101 = ORIENTED_EDGE ( 'NONE', *, *, #136, .F. ) ;
#102 = AXIS2_PLACEMENT_3D ( 'NONE', #114, #56, #15 ) ;
#103 = DIRECTION ( 'NONE',  ( 1.000000000000000000, 0.000000000000000000, -0.000000000000000000 ) ) ;
#104 = DIRECTION ( 'NONE',  ( -1.000000000000000000, 0.000000000000000000, 0.000000000000000000 ) ) ;
#105 = DIRECTION ( 'NONE',  ( -0.000000000000000000, -0.000000000000000000, -1.000000000000000000 ) ) ;
#106 = CYLINDRICAL_SURFACE ( 'NONE', #97, 8.500000000000001776 ) ;
#107 = APPROVAL_ROLE ( '' ) ;
#108 = EDGE_CURVE ( 'NONE', #66, #208, #213, .T. ) ;
#109 = PLANE ( 'NONE',  #83 ) ;
#111 = CARTESIAN_POINT ( 'NONE',  ( -8.500000000000001776, 0.000000000000000000, 0.000000000000000000 ) ) ;
#110 = CIRCLE ( 'NONE', #153, 8.500000000000001776 ) ;
#112 = APPROVAL_DATE_TIME ( #177, #246 ) ;
#113 = APPROVAL_STATUS ( 'not_yet_approved' ) ;
#114 = CARTESIAN_POINT ( 'NONE',  ( 0.000000000000000000, 0.000000000000000000, 20.69999999999999929 ) ) ;
#115 = CYLINDRICAL_SURFACE ( 'NONE', #181, 6.000000000000000888 ) ;
#116 = ORIENTED_EDGE ( 'NONE', *, *, #136, .T. ) ;
#117 = CC_DESIGN_PERSON_AND_ORGANIZATION_ASSIGNMENT ( #237, #194, ( #86 ) ) ;
#118 = LOCAL_TIME ( 21, 2, 14.00000000000000000, #55 ) ;
#119 = ORIENTED_EDGE ( 'NONE', *, *, #12, .F. ) ;
#120 = FACE_BOUND ( 'NONE', #132, .T. ) ;
#121 = PERSON ( 'UNSPECIFIED', 'UNSPECIFIED', 'UNSPECIFIED', ('UNSPECIFIED'), ('UNSPECIFIED'), ('UNSPECIFIED') ) ;
#122 = VERTEX_POINT ( 'NONE', #68 ) ;
#123 = DIRECTION ( 'NONE',  ( 1.000000000000000000, 0.000000000000000000, 0.000000000000000000 ) ) ;
#124 =( NAMED_UNIT ( * ) PLANE_ANGLE_UNIT ( ) SI_UNIT ( $, .RADIAN. ) );
#125 = CC_DESIGN_APPROVAL ( #246, ( #17 ) ) ;
#126 = FACE_OUTER_BOUND ( 'NONE', #201, .T. ) ;
#127 = DIRECTION ( 'NONE',  ( 1.000000000000000000, 0.000000000000000000, 0.000000000000000000 ) ) ;
#128 = PERSON_AND_ORGANIZATION ( #121, #135 ) ;
#129 = EDGE_CURVE ( 'NONE', #134, #23, #57, .T. ) ;
#130 = PERSON_AND_ORGANIZATION_ROLE ( 'design_owner' ) ;
#131 = DATE_TIME_ROLE ( 'creation_date' ) ;
#132 = EDGE_LOOP ( 'NONE', ( #59, #36 ) ) ;
#133 = APPLICATION_PROTOCOL_DEFINITION ( 'international standard', 'config_control_design', 1994, #19 ) ;
#134 = VERTEX_POINT ( 'NONE', #189 ) ;
#135 = ORGANIZATION ( 'UNSPECIFIED', 'UNSPECIFIED', '' ) ;
#136 = EDGE_CURVE ( 'NONE', #232, #23, #218, .T. ) ;
#137 = ORIENTED_EDGE ( 'NONE', *, *, #108, .F. ) ;
#138 = CARTESIAN_POINT ( 'NONE',  ( 0.000000000000000000, 0.000000000000000000, 20.69999999999999929 ) ) ;
#139 = CARTESIAN_POINT ( 'NONE',  ( 0.000000000000000000, 0.000000000000000000, 20.69999999999999929 ) ) ;
#140 = ORIENTED_EDGE ( 'NONE', *, *, #198, .F. ) ;
#141 = APPROVAL ( #93, 'UNSPECIFIED' ) ;
#142 = DIRECTION ( 'NONE',  ( -0.000000000000000000, -0.000000000000000000, -1.000000000000000000 ) ) ;
#143 = FACE_OUTER_BOUND ( 'NONE', #46, .T. ) ;
#144 = CIRCLE ( 'NONE', #170, 6.000000000000000888 ) ;
#145 = CARTESIAN_POINT ( 'NONE',  ( 0.000000000000000000, 0.000000000000000000, 0.000000000000000000 ) ) ;
#146 = AXIS2_PLACEMENT_3D ( 'NONE', #138, #191, #104 ) ;
#147 = DATE_AND_TIME ( #165, #205 ) ;
#148 = DIRECTION ( 'NONE',  ( 0.000000000000000000, 0.000000000000000000, 1.000000000000000000 ) ) ;
#149 = LINE ( 'NONE', #30, #51 ) ;
#150 = COORDINATED_UNIVERSAL_TIME_OFFSET ( 1, 0, .AHEAD. ) ;
#151 = AXIS2_PLACEMENT_3D ( 'NONE', #48, #216, #175 ) ;
#152 = APPROVAL ( #52, 'UNSPECIFIED' ) ;
#153 = AXIS2_PLACEMENT_3D ( 'NONE', #174, #5, #157 ) ;
#154 = EDGE_LOOP ( 'NONE', ( #61, #228, #76, #156 ) ) ;
#155 = CC_DESIGN_PERSON_AND_ORGANIZATION_ASSIGNMENT ( #14, #94, ( #38 ) ) ;
#156 = ORIENTED_EDGE ( 'NONE', *, *, #20, .F. ) ;
#157 = DIRECTION ( 'NONE',  ( 1.000000000000000000, 0.000000000000000000, 0.000000000000000000 ) ) ;
#158 = CARTESIAN_POINT ( 'NONE',  ( -8.500000000000001776, 0.000000000000000000, 20.69999999999999929 ) ) ;
#159 = DIRECTION ( 'NONE',  ( 1.000000000000000000, 0.000000000000000000, 0.000000000000000000 ) ) ;
#160 = PERSON_AND_ORGANIZATION ( #121, #135 ) ;
#161 = CARTESIAN_POINT ( 'NONE',  ( 0.000000000000000000, 0.000000000000000000, 0.000000000000000000 ) ) ;
#162 = DESIGN_CONTEXT ( 'detailed design', #19, 'design' ) ;
#163 = CARTESIAN_POINT ( 'NONE',  ( 8.500000000000001776, 1.040949779275250337E-15, 20.69999999999999929 ) ) ;
#164 = CALENDAR_DATE ( 2022, 26, 6 ) ;
#165 = CALENDAR_DATE ( 2022, 26, 6 ) ;
#166 = LOCAL_TIME ( 21, 2, 14.00000000000000000, #197 ) ;
#167 = SHAPE_DEFINITION_REPRESENTATION ( #226, #217 ) ;
#168 = ADVANCED_FACE ( 'NONE', ( #143, #120 ), #192, .F. ) ;
#169 = APPROVAL_PERSON_ORGANIZATION ( #89, #152, #219 ) ;
#170 = AXIS2_PLACEMENT_3D ( 'NONE', #161, #239, #127 ) ;
#171 = ORIENTED_EDGE ( 'NONE', *, *, #63, .F. ) ;
#172 = DIRECTION ( 'NONE',  ( -1.000000000000000000, 0.000000000000000000, 0.000000000000000000 ) ) ;
#173 = ADVANCED_FACE ( 'NONE', ( #126 ), #69, .T. ) ;
#174 = CARTESIAN_POINT ( 'NONE',  ( 0.000000000000000000, 0.000000000000000000, 20.69999999999999929 ) ) ;
#175 = DIRECTION ( 'NONE',  ( 1.000000000000000000, 0.000000000000000000, 0.000000000000000000 ) ) ;
#176 = ADVANCED_FACE ( 'NONE', ( #62 ), #215, .F. ) ;
#177 = DATE_AND_TIME ( #179, #118 ) ;
#178 = FACE_OUTER_BOUND ( 'NONE', #81, .T. ) ;
#179 = CALENDAR_DATE ( 2022, 26, 6 ) ;
#180 = CARTESIAN_POINT ( 'NONE',  ( 0.000000000000000000, 0.000000000000000000, 20.69999999999999929 ) ) ;
#181 = AXIS2_PLACEMENT_3D ( 'NONE', #139, #142, #67 ) ;
#182 = DIRECTION ( 'NONE',  ( 1.000000000000000000, 0.000000000000000000, 0.000000000000000000 ) ) ;
#183 = APPROVAL_DATE_TIME ( #29, #152 ) ;
#184 = ADVANCED_FACE ( 'NONE', ( #233 ), #106, .T. ) ;
#185 = DATE_AND_TIME ( #221, #77 ) ;
#186 = LINE ( 'NONE', #16, #240 ) ;
#187 = APPROVAL_PERSON_ORGANIZATION ( #8, #246, #49 ) ;
#188 = ORIENTED_EDGE ( 'NONE', *, *, #12, .T. ) ;
#189 = CARTESIAN_POINT ( 'NONE',  ( 8.500000000000001776, 1.040949779275250337E-15, 0.000000000000000000 ) ) ;
#190 = ORIENTED_EDGE ( 'NONE', *, *, #198, .T. ) ;
#191 = DIRECTION ( 'NONE',  ( -0.000000000000000000, -0.000000000000000000, -1.000000000000000000 ) ) ;
#192 = PLANE ( 'NONE',  #225 ) ;
#193 = PRODUCT_RELATED_PRODUCT_CATEGORY ( 'detail', '', ( #33 ) ) ;
#194 = PERSON_AND_ORGANIZATION_ROLE ( 'classification_officer' ) ;
#195 = DIRECTION ( 'NONE',  ( -0.000000000000000000, -0.000000000000000000, -1.000000000000000000 ) ) ;
#196 = APPLICATION_CONTEXT ( 'configuration controlled 3d designs of mechanical parts and assemblies' ) ;
#197 = COORDINATED_UNIVERSAL_TIME_OFFSET ( 1, 0, .AHEAD. ) ;
#198 = EDGE_CURVE ( 'NONE', #232, #37, #110, .T. ) ;
#199 = CC_DESIGN_SECURITY_CLASSIFICATION ( #86, ( #38 ) ) ;
#200 = PERSON_AND_ORGANIZATION_ROLE ( 'creator' ) ;
#201 = EDGE_LOOP ( 'NONE', ( #21, #140, #116, #245 ) ) ;
#202 = ORIENTED_EDGE ( 'NONE', *, *, #58, .T. ) ;
#203 = AXIS2_PLACEMENT_3D ( 'NONE', #145, #24, #123 ) ;
#204 = EDGE_CURVE ( 'NONE', #208, #122, #91, .T. ) ;
#205 = LOCAL_TIME ( 21, 2, 14.00000000000000000, #71 ) ;
#206 = MANIFOLD_SOLID_BREP ( 'Boss.-Extru.1', #248 ) ;
#207 = LOCAL_TIME ( 21, 2, 14.00000000000000000, #238 ) ;
#208 = VERTEX_POINT ( 'NONE', #209 ) ;
#209 = CARTESIAN_POINT ( 'NONE',  ( 6.000000000000000888, 7.347880794884120722E-16, 0.000000000000000000 ) ) ;
#210 = EDGE_CURVE ( 'NONE', #23, #134, #54, .T. ) ;
#211 = AXIS2_PLACEMENT_3D ( 'NONE', #47, #85, #27 ) ;
#212 = CC_DESIGN_APPROVAL ( #152, ( #38 ) ) ;
#213 = LINE ( 'NONE', #25, #32 ) ;
#214 = ORIENTED_EDGE ( 'NONE', *, *, #99, .T. ) ;
#215 = CYLINDRICAL_SURFACE ( 'NONE', #146, 6.000000000000000888 ) ;
#216 = DIRECTION ( 'NONE',  ( 0.000000000000000000, 0.000000000000000000, 1.000000000000000000 ) ) ;
#217 = ADVANCED_BREP_SHAPE_REPRESENTATION ( 'Entretoise-droite-avant', ( #206, #26 ), #223 ) ;
#218 = LINE ( 'NONE', #158, #11 ) ;
#219 = APPROVAL_ROLE ( '' ) ;
#220 = CARTESIAN_POINT ( 'NONE',  ( -6.000000000000000888, 0.000000000000000000, 20.69999999999999929 ) ) ;
#221 = CALENDAR_DATE ( 2022, 26, 6 ) ;
#222 = PERSON_AND_ORGANIZATION_ROLE ( 'creator' ) ;
#223 =( GEOMETRIC_REPRESENTATION_CONTEXT ( 3 ) GLOBAL_UNCERTAINTY_ASSIGNED_CONTEXT ( ( #249 ) ) GLOBAL_UNIT_ASSIGNED_CONTEXT ( ( #235, #124, #230 ) ) REPRESENTATION_CONTEXT ( 'NONE', 'WORKASPACE' ) );
#224 = CC_DESIGN_DATE_AND_TIME_ASSIGNMENT ( #185, #131, ( #17 ) ) ;
#225 = AXIS2_PLACEMENT_3D ( 'NONE', #6, #4, #103 ) ;
#226 = PRODUCT_DEFINITION_SHAPE ( 'NONE', 'NONE',  #17 ) ;
#227 = AXIS2_PLACEMENT_3D ( 'NONE', #34, #74, #182 ) ;
#228 = ORIENTED_EDGE ( 'NONE', *, *, #108, .T. ) ;
#229 = AXIS2_PLACEMENT_3D ( 'NONE', #87, #82, #159 ) ;
#230 =( NAMED_UNIT ( * ) SI_UNIT ( $, .STERADIAN. ) SOLID_ANGLE_UNIT ( ) );
#231 = CC_DESIGN_PERSON_AND_ORGANIZATION_ASSIGNMENT ( #31, #222, ( #17 ) ) ;
#232 = VERTEX_POINT ( 'NONE', #236 ) ;
#233 = FACE_OUTER_BOUND ( 'NONE', #234, .T. ) ;
#234 = EDGE_LOOP ( 'NONE', ( #1, #202, #43, #101 ) ) ;
#235 =( LENGTH_UNIT ( ) NAMED_UNIT ( * ) SI_UNIT ( .MILLI., .METRE. ) );
#236 = CARTESIAN_POINT ( 'NONE',  ( -8.500000000000001776, 0.000000000000000000, 20.69999999999999929 ) ) ;
#237 = PERSON_AND_ORGANIZATION ( #121, #135 ) ;
#238 = COORDINATED_UNIVERSAL_TIME_OFFSET ( 1, 0, .AHEAD. ) ;
#239 = DIRECTION ( 'NONE',  ( 0.000000000000000000, 0.000000000000000000, 1.000000000000000000 ) ) ;
#240 = VECTOR ( 'NONE', #95, 1000.000000000000000 ) ;
#241 = CARTESIAN_POINT ( 'NONE',  ( 6.000000000000000888, 7.347880794884120722E-16, 20.69999999999999929 ) ) ;
#242 = DATE_AND_TIME ( #164, #207 ) ;
#243 = DATE_TIME_ROLE ( 'classification_date' ) ;
#244 = ORIENTED_EDGE ( 'NONE', *, *, #204, .F. ) ;
#245 = ORIENTED_EDGE ( 'NONE', *, *, #210, .T. ) ;
#246 = APPROVAL ( #113, 'UNSPECIFIED' ) ;
#247 = AXIS2_PLACEMENT_3D ( 'NONE', #88, #100, #42 ) ;
#248 = CLOSED_SHELL ( 'NONE', ( #176, #184, #70, #168, #173, #96 ) ) ;
#249 = UNCERTAINTY_MEASURE_WITH_UNIT (LENGTH_MEASURE( 1.000000000000000082E-05 ), #235, 'distance_accuracy_value', 'NONE');
ENDSEC;
END-ISO-10303-21;
