ISO-10303-21;
HEADER;
/* Generated by software containing ST-Developer
 * from STEP Tools, Inc. (www.steptools.com) 
 */

FILE_DESCRIPTION(
/* description */ (''),
/* implementation_level */ '2;1');

FILE_NAME(
/* name */ 
'C:/Users/perso/Documents/Fred/Tina 2/embout de guidon v3.step',
/* time_stamp */ '2022-06-26T21:03:47+02:00',
/* author */ (''),
/* organization */ (''),
/* preprocessor_version */ 'ST-DEVELOPER v18.1',
/* originating_system */ 'Autodesk Translation Framework v10.13.0.1454',

/* authorisation */ '');

FILE_SCHEMA (('AUTOMOTIVE_DESIGN { 1 0 10303 214 3 1 1 }'));
ENDSEC;

DATA;
#10=MECHANICAL_DESIGN_GEOMETRIC_PRESENTATION_REPRESENTATION('',(#13),#241);
#11=SHAPE_REPRESENTATION_RELATIONSHIP('SRR','None',#248,#12);
#12=ADVANCED_BREP_SHAPE_REPRESENTATION('',(#14),#240);
#13=STYLED_ITEM('',(#257),#14);
#14=MANIFOLD_SOLID_BREP('Corps1',#128);
#15=TOROIDAL_SURFACE('',#147,9.,5.);
#16=FACE_BOUND('',#35,.T.);
#17=FACE_BOUND('',#39,.T.);
#18=FACE_BOUND('',#42,.T.);
#19=FACE_BOUND('',#45,.T.);
#20=PLANE('',#145);
#21=PLANE('',#153);
#22=PLANE('',#157);
#23=PLANE('',#160);
#24=FACE_OUTER_BOUND('',#33,.T.);
#25=FACE_OUTER_BOUND('',#34,.T.);
#26=FACE_OUTER_BOUND('',#36,.T.);
#27=FACE_OUTER_BOUND('',#37,.T.);
#28=FACE_OUTER_BOUND('',#38,.T.);
#29=FACE_OUTER_BOUND('',#40,.T.);
#30=FACE_OUTER_BOUND('',#41,.T.);
#31=FACE_OUTER_BOUND('',#43,.T.);
#32=FACE_OUTER_BOUND('',#44,.T.);
#33=EDGE_LOOP('',(#87,#88,#89,#90));
#34=EDGE_LOOP('',(#91));
#35=EDGE_LOOP('',(#92));
#36=EDGE_LOOP('',(#93,#94,#95,#96));
#37=EDGE_LOOP('',(#97,#98,#99,#100));
#38=EDGE_LOOP('',(#101));
#39=EDGE_LOOP('',(#102));
#40=EDGE_LOOP('',(#103,#104,#105,#106));
#41=EDGE_LOOP('',(#107));
#42=EDGE_LOOP('',(#108));
#43=EDGE_LOOP('',(#109,#110,#111,#112));
#44=EDGE_LOOP('',(#113));
#45=EDGE_LOOP('',(#114));
#46=LINE('',#210,#50);
#47=LINE('',#223,#51);
#48=LINE('',#230,#52);
#49=LINE('',#236,#53);
#50=VECTOR('',#167,6.);
#51=VECTOR('',#184,14.);
#52=VECTOR('',#193,6.);
#53=VECTOR('',#202,3.3);
#54=CIRCLE('',#143,6.);
#55=CIRCLE('',#144,6.);
#56=CIRCLE('',#146,3.3);
#57=CIRCLE('',#148,9.);
#58=CIRCLE('',#149,5.);
#59=CIRCLE('',#150,14.);
#60=CIRCLE('',#152,14.);
#61=CIRCLE('',#155,6.);
#62=CIRCLE('',#156,6.);
#63=CIRCLE('',#158,3.3);
#64=VERTEX_POINT('',#207);
#65=VERTEX_POINT('',#209);
#66=VERTEX_POINT('',#213);
#67=VERTEX_POINT('',#216);
#68=VERTEX_POINT('',#218);
#69=VERTEX_POINT('',#222);
#70=VERTEX_POINT('',#227);
#71=VERTEX_POINT('',#229);
#72=VERTEX_POINT('',#233);
#73=EDGE_CURVE('',#64,#64,#54,.T.);
#74=EDGE_CURVE('',#64,#65,#46,.T.);
#75=EDGE_CURVE('',#65,#65,#55,.T.);
#76=EDGE_CURVE('',#66,#66,#56,.T.);
#77=EDGE_CURVE('',#67,#67,#57,.T.);
#78=EDGE_CURVE('',#67,#68,#58,.T.);
#79=EDGE_CURVE('',#68,#68,#59,.T.);
#80=EDGE_CURVE('',#68,#69,#47,.T.);
#81=EDGE_CURVE('',#69,#69,#60,.T.);
#82=EDGE_CURVE('',#70,#70,#61,.T.);
#83=EDGE_CURVE('',#70,#71,#48,.T.);
#84=EDGE_CURVE('',#71,#71,#62,.T.);
#85=EDGE_CURVE('',#72,#72,#63,.T.);
#86=EDGE_CURVE('',#66,#72,#49,.T.);
#87=ORIENTED_EDGE('',*,*,#73,.F.);
#88=ORIENTED_EDGE('',*,*,#74,.T.);
#89=ORIENTED_EDGE('',*,*,#75,.T.);
#90=ORIENTED_EDGE('',*,*,#74,.F.);
#91=ORIENTED_EDGE('',*,*,#75,.F.);
#92=ORIENTED_EDGE('',*,*,#76,.F.);
#93=ORIENTED_EDGE('',*,*,#77,.T.);
#94=ORIENTED_EDGE('',*,*,#78,.T.);
#95=ORIENTED_EDGE('',*,*,#79,.T.);
#96=ORIENTED_EDGE('',*,*,#78,.F.);
#97=ORIENTED_EDGE('',*,*,#79,.F.);
#98=ORIENTED_EDGE('',*,*,#80,.T.);
#99=ORIENTED_EDGE('',*,*,#81,.T.);
#100=ORIENTED_EDGE('',*,*,#80,.F.);
#101=ORIENTED_EDGE('',*,*,#77,.F.);
#102=ORIENTED_EDGE('',*,*,#73,.T.);
#103=ORIENTED_EDGE('',*,*,#82,.F.);
#104=ORIENTED_EDGE('',*,*,#83,.T.);
#105=ORIENTED_EDGE('',*,*,#84,.F.);
#106=ORIENTED_EDGE('',*,*,#83,.F.);
#107=ORIENTED_EDGE('',*,*,#82,.T.);
#108=ORIENTED_EDGE('',*,*,#85,.T.);
#109=ORIENTED_EDGE('',*,*,#76,.T.);
#110=ORIENTED_EDGE('',*,*,#86,.T.);
#111=ORIENTED_EDGE('',*,*,#85,.F.);
#112=ORIENTED_EDGE('',*,*,#86,.F.);
#113=ORIENTED_EDGE('',*,*,#81,.F.);
#114=ORIENTED_EDGE('',*,*,#84,.T.);
#115=CYLINDRICAL_SURFACE('',#142,6.);
#116=CYLINDRICAL_SURFACE('',#151,14.);
#117=CYLINDRICAL_SURFACE('',#154,6.);
#118=CYLINDRICAL_SURFACE('',#159,3.3);
#119=ADVANCED_FACE('',(#24),#115,.F.);
#120=ADVANCED_FACE('',(#25,#16),#20,.T.);
#121=ADVANCED_FACE('',(#26),#15,.T.);
#122=ADVANCED_FACE('',(#27),#116,.T.);
#123=ADVANCED_FACE('',(#28,#17),#21,.T.);
#124=ADVANCED_FACE('',(#29),#117,.T.);
#125=ADVANCED_FACE('',(#30,#18),#22,.F.);
#126=ADVANCED_FACE('',(#31),#118,.F.);
#127=ADVANCED_FACE('',(#32,#19),#23,.F.);
#128=CLOSED_SHELL('',(#119,#120,#121,#122,#123,#124,#125,#126,#127));
#129=DERIVED_UNIT_ELEMENT(#131,1.);
#130=DERIVED_UNIT_ELEMENT(#243,-3.);
#131=(
MASS_UNIT()
NAMED_UNIT(*)
SI_UNIT(.KILO.,.GRAM.)
);
#132=DERIVED_UNIT((#129,#130));
#133=MEASURE_REPRESENTATION_ITEM('density measure',
POSITIVE_RATIO_MEASURE(7850.),#132);
#134=PROPERTY_DEFINITION_REPRESENTATION(#139,#136);
#135=PROPERTY_DEFINITION_REPRESENTATION(#140,#137);
#136=REPRESENTATION('material name',(#138),#240);
#137=REPRESENTATION('density',(#133),#240);
#138=DESCRIPTIVE_REPRESENTATION_ITEM('Acier','Acier');
#139=PROPERTY_DEFINITION('material property','material name',#250);
#140=PROPERTY_DEFINITION('material property','density of part',#250);
#141=AXIS2_PLACEMENT_3D('placement',#205,#161,#162);
#142=AXIS2_PLACEMENT_3D('',#206,#163,#164);
#143=AXIS2_PLACEMENT_3D('',#208,#165,#166);
#144=AXIS2_PLACEMENT_3D('',#211,#168,#169);
#145=AXIS2_PLACEMENT_3D('',#212,#170,#171);
#146=AXIS2_PLACEMENT_3D('',#214,#172,#173);
#147=AXIS2_PLACEMENT_3D('',#215,#174,#175);
#148=AXIS2_PLACEMENT_3D('',#217,#176,#177);
#149=AXIS2_PLACEMENT_3D('',#219,#178,#179);
#150=AXIS2_PLACEMENT_3D('',#220,#180,#181);
#151=AXIS2_PLACEMENT_3D('',#221,#182,#183);
#152=AXIS2_PLACEMENT_3D('',#224,#185,#186);
#153=AXIS2_PLACEMENT_3D('',#225,#187,#188);
#154=AXIS2_PLACEMENT_3D('',#226,#189,#190);
#155=AXIS2_PLACEMENT_3D('',#228,#191,#192);
#156=AXIS2_PLACEMENT_3D('',#231,#194,#195);
#157=AXIS2_PLACEMENT_3D('',#232,#196,#197);
#158=AXIS2_PLACEMENT_3D('',#234,#198,#199);
#159=AXIS2_PLACEMENT_3D('',#235,#200,#201);
#160=AXIS2_PLACEMENT_3D('',#237,#203,#204);
#161=DIRECTION('axis',(0.,0.,1.));
#162=DIRECTION('refdir',(1.,0.,0.));
#163=DIRECTION('center_axis',(0.,0.,-1.));
#164=DIRECTION('ref_axis',(-1.,0.,0.));
#165=DIRECTION('center_axis',(0.,0.,-1.));
#166=DIRECTION('ref_axis',(-1.,0.,0.));
#167=DIRECTION('',(0.,0.,-1.));
#168=DIRECTION('center_axis',(0.,0.,-1.));
#169=DIRECTION('ref_axis',(-1.,0.,0.));
#170=DIRECTION('center_axis',(0.,0.,1.));
#171=DIRECTION('ref_axis',(-1.,0.,0.));
#172=DIRECTION('center_axis',(0.,0.,1.));
#173=DIRECTION('ref_axis',(1.,0.,0.));
#174=DIRECTION('center_axis',(0.,0.,1.));
#175=DIRECTION('ref_axis',(1.,0.,0.));
#176=DIRECTION('center_axis',(0.,0.,-1.));
#177=DIRECTION('ref_axis',(1.,0.,0.));
#178=DIRECTION('center_axis',(1.22464679914735E-16,-1.,0.));
#179=DIRECTION('ref_axis',(-1.,-1.22464679914735E-16,0.));
#180=DIRECTION('center_axis',(0.,0.,1.));
#181=DIRECTION('ref_axis',(1.,0.,0.));
#182=DIRECTION('center_axis',(0.,0.,1.));
#183=DIRECTION('ref_axis',(1.,0.,0.));
#184=DIRECTION('',(0.,0.,-1.));
#185=DIRECTION('center_axis',(0.,0.,1.));
#186=DIRECTION('ref_axis',(1.,0.,0.));
#187=DIRECTION('center_axis',(0.,0.,1.));
#188=DIRECTION('ref_axis',(1.,0.,0.));
#189=DIRECTION('center_axis',(0.,0.,-1.));
#190=DIRECTION('ref_axis',(1.,0.,0.));
#191=DIRECTION('center_axis',(0.,0.,-1.));
#192=DIRECTION('ref_axis',(1.,0.,0.));
#193=DIRECTION('',(0.,0.,1.));
#194=DIRECTION('center_axis',(0.,0.,1.));
#195=DIRECTION('ref_axis',(1.,0.,0.));
#196=DIRECTION('center_axis',(0.,0.,1.));
#197=DIRECTION('ref_axis',(1.,0.,0.));
#198=DIRECTION('center_axis',(0.,0.,1.));
#199=DIRECTION('ref_axis',(1.,0.,0.));
#200=DIRECTION('center_axis',(0.,0.,1.));
#201=DIRECTION('ref_axis',(1.,0.,0.));
#202=DIRECTION('',(0.,0.,-1.));
#203=DIRECTION('center_axis',(0.,0.,1.));
#204=DIRECTION('ref_axis',(1.,0.,0.));
#205=CARTESIAN_POINT('',(0.,0.,0.));
#206=CARTESIAN_POINT('Origin',(0.,0.,26.));
#207=CARTESIAN_POINT('',(6.,7.34788079488412E-16,26.));
#208=CARTESIAN_POINT('Origin',(0.,0.,26.));
#209=CARTESIAN_POINT('',(6.,7.34788079488412E-16,20.));
#210=CARTESIAN_POINT('',(6.,-7.34788079488412E-16,26.));
#211=CARTESIAN_POINT('Origin',(0.,0.,20.));
#212=CARTESIAN_POINT('Origin',(0.,0.,20.));
#213=CARTESIAN_POINT('',(-3.3,-4.04133443718627E-16,20.));
#214=CARTESIAN_POINT('Origin',(0.,0.,20.));
#215=CARTESIAN_POINT('Origin',(0.,0.,21.));
#216=CARTESIAN_POINT('',(-9.,1.10218211923262E-15,26.));
#217=CARTESIAN_POINT('Origin',(0.,0.,26.));
#218=CARTESIAN_POINT('',(-14.,-1.71450551880629E-15,21.));
#219=CARTESIAN_POINT('Origin',(-9.,-1.10218211923262E-15,21.));
#220=CARTESIAN_POINT('Origin',(0.,0.,21.));
#221=CARTESIAN_POINT('Origin',(0.,0.,0.));
#222=CARTESIAN_POINT('',(-14.,-1.71450551880629E-15,0.));
#223=CARTESIAN_POINT('',(-14.,-1.71450551880629E-15,0.));
#224=CARTESIAN_POINT('Origin',(0.,0.,0.));
#225=CARTESIAN_POINT('Origin',(0.,0.,26.));
#226=CARTESIAN_POINT('Origin',(0.,0.,0.));
#227=CARTESIAN_POINT('',(-6.,-7.34788079488412E-16,-5.));
#228=CARTESIAN_POINT('Origin',(0.,0.,-5.));
#229=CARTESIAN_POINT('',(-6.,-7.34788079488412E-16,0.));
#230=CARTESIAN_POINT('',(-6.,7.34788079488412E-16,0.));
#231=CARTESIAN_POINT('Origin',(0.,0.,0.));
#232=CARTESIAN_POINT('Origin',(0.,0.,-5.));
#233=CARTESIAN_POINT('',(-3.3,-4.04133443718627E-16,-5.));
#234=CARTESIAN_POINT('Origin',(0.,0.,-5.));
#235=CARTESIAN_POINT('Origin',(0.,0.,0.));
#236=CARTESIAN_POINT('',(-3.3,-4.04133443718627E-16,0.));
#237=CARTESIAN_POINT('Origin',(0.,0.,0.));
#238=UNCERTAINTY_MEASURE_WITH_UNIT(LENGTH_MEASURE(0.01),#242,
'DISTANCE_ACCURACY_VALUE',
'Maximum model space distance between geometric entities at asserted c
onnectivities');
#239=UNCERTAINTY_MEASURE_WITH_UNIT(LENGTH_MEASURE(0.01),#242,
'DISTANCE_ACCURACY_VALUE',
'Maximum model space distance between geometric entities at asserted c
onnectivities');
#240=(
GEOMETRIC_REPRESENTATION_CONTEXT(3)
GLOBAL_UNCERTAINTY_ASSIGNED_CONTEXT((#238))
GLOBAL_UNIT_ASSIGNED_CONTEXT((#242,#244,#245))
REPRESENTATION_CONTEXT('','3D')
);
#241=(
GEOMETRIC_REPRESENTATION_CONTEXT(3)
GLOBAL_UNCERTAINTY_ASSIGNED_CONTEXT((#239))
GLOBAL_UNIT_ASSIGNED_CONTEXT((#242,#244,#245))
REPRESENTATION_CONTEXT('','3D')
);
#242=(
LENGTH_UNIT()
NAMED_UNIT(*)
SI_UNIT(.MILLI.,.METRE.)
);
#243=(
LENGTH_UNIT()
NAMED_UNIT(*)
SI_UNIT($,.METRE.)
);
#244=(
NAMED_UNIT(*)
PLANE_ANGLE_UNIT()
SI_UNIT($,.RADIAN.)
);
#245=(
NAMED_UNIT(*)
SI_UNIT($,.STERADIAN.)
SOLID_ANGLE_UNIT()
);
#246=SHAPE_DEFINITION_REPRESENTATION(#247,#248);
#247=PRODUCT_DEFINITION_SHAPE('',$,#250);
#248=SHAPE_REPRESENTATION('',(#141),#240);
#249=PRODUCT_DEFINITION_CONTEXT('part definition',#254,'design');
#250=PRODUCT_DEFINITION('embout de guidon','embout de guidon v3',#251,#249);
#251=PRODUCT_DEFINITION_FORMATION('',$,#256);
#252=PRODUCT_RELATED_PRODUCT_CATEGORY('embout de guidon v3',
'embout de guidon v3',(#256));
#253=APPLICATION_PROTOCOL_DEFINITION('international standard',
'automotive_design',2009,#254);
#254=APPLICATION_CONTEXT(
'Core Data for Automotive Mechanical Design Process');
#255=PRODUCT_CONTEXT('part definition',#254,'mechanical');
#256=PRODUCT('embout de guidon','embout de guidon v3',$,(#255));
#257=PRESENTATION_STYLE_ASSIGNMENT((#258));
#258=SURFACE_STYLE_USAGE(.BOTH.,#259);
#259=SURFACE_SIDE_STYLE('',(#260));
#260=SURFACE_STYLE_FILL_AREA(#261);
#261=FILL_AREA_STYLE('Acier - Satin\X\E9',(#262));
#262=FILL_AREA_STYLE_COLOUR('Acier - Satin\X\E9',#263);
#263=COLOUR_RGB('Acier - Satin\X\E9',0.627450980392157,0.627450980392157,
0.627450980392157);
ENDSEC;
END-ISO-10303-21;
