ISO-10303-21;
HEADER;
FILE_DESCRIPTION (( 'STEP AP203' ),
    '1' );
FILE_NAME ('Entretoise-fourche.STEP',
    '2022-06-26T19:04:12',
    ( '' ),
    ( '' ),
    'SwSTEP 2.0',
    'SolidWorks 2020',
    '' );
FILE_SCHEMA (( 'CONFIG_CONTROL_DESIGN' ));
ENDSEC;

DATA;
#1 = CARTESIAN_POINT ( 'NONE',  ( 0.000000000000000000, 0.000000000000000000, 0.000000000000000000 ) ) ;
#2 = CARTESIAN_POINT ( 'NONE',  ( 0.000000000000000000, 0.000000000000000000, 40.00000000000000000 ) ) ;
#3 = AXIS2_PLACEMENT_3D ( 'NONE', #156, #217, #184 ) ;
#4 = ORIENTED_EDGE ( 'NONE', *, *, #149, .T. ) ;
#5 = ORIENTED_EDGE ( 'NONE', *, *, #175, .F. ) ;
#6 = VECTOR ( 'NONE', #53, 1000.000000000000000 ) ;
#7 = CARTESIAN_POINT ( 'NONE',  ( 0.000000000000000000, 0.000000000000000000, 40.00000000000000000 ) ) ;
#8 =( LENGTH_UNIT ( ) NAMED_UNIT ( * ) SI_UNIT ( .MILLI., .METRE. ) );
#9 = DIRECTION ( 'NONE',  ( -0.000000000000000000, -0.000000000000000000, -1.000000000000000000 ) ) ;
#10 = DIRECTION ( 'NONE',  ( -0.000000000000000000, -0.000000000000000000, -1.000000000000000000 ) ) ;
#11 = APPROVAL_ROLE ( '' ) ;
#12 = VERTEX_POINT ( 'NONE', #174 ) ;
#13 = DIRECTION ( 'NONE',  ( 0.000000000000000000, 0.000000000000000000, 1.000000000000000000 ) ) ;
#14 = DATE_AND_TIME ( #50, #226 ) ;
#15 = ADVANCED_FACE ( 'NONE', ( #44, #234 ), #139, .T. ) ;
#16 = MECHANICAL_CONTEXT ( 'NONE', #111, 'mechanical' ) ;
#17 = CC_DESIGN_APPROVAL ( #19, ( #248 ) ) ;
#18 = CARTESIAN_POINT ( 'NONE',  ( 0.000000000000000000, 0.000000000000000000, 0.000000000000000000 ) ) ;
#19 = APPROVAL ( #204, 'UNSPECIFIED' ) ;
#20 = CARTESIAN_POINT ( 'NONE',  ( 0.000000000000000000, 0.000000000000000000, 40.00000000000000000 ) ) ;
#21 = CC_DESIGN_PERSON_AND_ORGANIZATION_ASSIGNMENT ( #48, #130, ( #241 ) ) ;
#22 = ORIENTED_EDGE ( 'NONE', *, *, #169, .T. ) ;
#23 = MANIFOLD_SOLID_BREP ( 'Boss.-Extru.1', #210 ) ;
#24 = VERTEX_POINT ( 'NONE', #236 ) ;
#25 = CIRCLE ( 'NONE', #166, 5.999999999999999112 ) ;
#26 =( GEOMETRIC_REPRESENTATION_CONTEXT ( 3 ) GLOBAL_UNCERTAINTY_ASSIGNED_CONTEXT ( ( #228 ) ) GLOBAL_UNIT_ASSIGNED_CONTEXT ( ( #8, #124, #207 ) ) REPRESENTATION_CONTEXT ( 'NONE', 'WORKASPACE' ) );
#27 = CYLINDRICAL_SURFACE ( 'NONE', #73, 5.999999999999999112 ) ;
#28 = SECURITY_CLASSIFICATION ( '', '', #165 ) ;
#29 = DIRECTION ( 'NONE',  ( 1.000000000000000000, 0.000000000000000000, -0.000000000000000000 ) ) ;
#30 = DIRECTION ( 'NONE',  ( 0.000000000000000000, 0.000000000000000000, 1.000000000000000000 ) ) ;
#31 = VERTEX_POINT ( 'NONE', #123 ) ;
#32 = CARTESIAN_POINT ( 'NONE',  ( -7.500000000000000000, 0.000000000000000000, 40.00000000000000000 ) ) ;
#33 = APPROVAL_DATE_TIME ( #244, #40 ) ;
#34 = APPROVAL_DATE_TIME ( #14, #19 ) ;
#35 = APPROVAL_ROLE ( '' ) ;
#36 = ADVANCED_FACE ( 'NONE', ( #198 ), #27, .F. ) ;
#37 = CARTESIAN_POINT ( 'NONE',  ( 0.000000000000000000, 0.000000000000000000, 40.00000000000000000 ) ) ;
#38 = DIRECTION ( 'NONE',  ( -0.000000000000000000, -0.000000000000000000, -1.000000000000000000 ) ) ;
#39 = DESIGN_CONTEXT ( 'detailed design', #193, 'design' ) ;
#40 = APPROVAL ( #203, 'UNSPECIFIED' ) ;
#41 = DIRECTION ( 'NONE',  ( 1.000000000000000000, 0.000000000000000000, 0.000000000000000000 ) ) ;
#42 = VERTEX_POINT ( 'NONE', #116 ) ;
#43 = EDGE_LOOP ( 'NONE', ( #144, #240 ) ) ;
#44 = FACE_OUTER_BOUND ( 'NONE', #104, .T. ) ;
#45 = AXIS2_PLACEMENT_3D ( 'NONE', #7, #80, #64 ) ;
#46 = DATE_AND_TIME ( #215, #221 ) ;
#47 = CYLINDRICAL_SURFACE ( 'NONE', #230, 5.999999999999999112 ) ;
#48 = PERSON_AND_ORGANIZATION ( #211, #164 ) ;
#49 = DIRECTION ( 'NONE',  ( -1.000000000000000000, 0.000000000000000000, 0.000000000000000000 ) ) ;
#50 = CALENDAR_DATE ( 2022, 26, 6 ) ;
#51 = PERSON_AND_ORGANIZATION_ROLE ( 'creator' ) ;
#52 = AXIS2_PLACEMENT_3D ( 'NONE', #2, #148, #147 ) ;
#53 = DIRECTION ( 'NONE',  ( -0.000000000000000000, -0.000000000000000000, -1.000000000000000000 ) ) ;
#54 = ADVANCED_FACE ( 'NONE', ( #58 ), #99, .T. ) ;
#55 = DIRECTION ( 'NONE',  ( 0.000000000000000000, 0.000000000000000000, 1.000000000000000000 ) ) ;
#56 = APPROVAL_PERSON_ORGANIZATION ( #181, #19, #11 ) ;
#57 = FACE_OUTER_BOUND ( 'NONE', #43, .T. ) ;
#58 = FACE_OUTER_BOUND ( 'NONE', #177, .T. ) ;
#59 = CIRCLE ( 'NONE', #145, 7.500000000000000000 ) ;
#60 = APPROVAL ( #94, 'UNSPECIFIED' ) ;
#61 = CARTESIAN_POINT ( 'NONE',  ( 5.999999999999999112, 7.347880794884118750E-16, 40.00000000000000000 ) ) ;
#62 = ORIENTED_EDGE ( 'NONE', *, *, #128, .T. ) ;
#63 = ORIENTED_EDGE ( 'NONE', *, *, #208, .T. ) ;
#64 = DIRECTION ( 'NONE',  ( 1.000000000000000000, 0.000000000000000000, -0.000000000000000000 ) ) ;
#65 = CARTESIAN_POINT ( 'NONE',  ( 0.000000000000000000, 0.000000000000000000, 40.00000000000000000 ) ) ;
#66 = ORIENTED_EDGE ( 'NONE', *, *, #128, .F. ) ;
#67 = FACE_OUTER_BOUND ( 'NONE', #212, .T. ) ;
#68 = VECTOR ( 'NONE', #202, 1000.000000000000000 ) ;
#69 = CALENDAR_DATE ( 2022, 26, 6 ) ;
#70 = ORIENTED_EDGE ( 'NONE', *, *, #175, .T. ) ;
#71 = ADVANCED_BREP_SHAPE_REPRESENTATION ( 'Entretoise-fourche', ( #23, #91 ), #26 ) ;
#72 = DATE_TIME_ROLE ( 'creation_date' ) ;
#73 = AXIS2_PLACEMENT_3D ( 'NONE', #179, #9, #141 ) ;
#74 = PERSON_AND_ORGANIZATION_ROLE ( 'design_supplier' ) ;
#75 = DIRECTION ( 'NONE',  ( 0.000000000000000000, 0.000000000000000000, 1.000000000000000000 ) ) ;
#76 = CIRCLE ( 'NONE', #216, 5.999999999999999112 ) ;
#77 = ORIENTED_EDGE ( 'NONE', *, *, #208, .F. ) ;
#78 = VERTEX_POINT ( 'NONE', #152 ) ;
#79 = AXIS2_PLACEMENT_3D ( 'NONE', #20, #209, #41 ) ;
#80 = DIRECTION ( 'NONE',  ( 0.000000000000000000, 0.000000000000000000, 1.000000000000000000 ) ) ;
#81 = DIRECTION ( 'NONE',  ( -0.000000000000000000, -0.000000000000000000, -1.000000000000000000 ) ) ;
#82 = APPROVAL_PERSON_ORGANIZATION ( #146, #60, #35 ) ;
#83 = EDGE_CURVE ( 'NONE', #191, #160, #189, .T. ) ;
#84 = ORIENTED_EDGE ( 'NONE', *, *, #243, .T. ) ;
#85 = LINE ( 'NONE', #32, #196 ) ;
#86 = COORDINATED_UNIVERSAL_TIME_OFFSET ( 1, 0, .AHEAD. ) ;
#87 = ORIENTED_EDGE ( 'NONE', *, *, #192, .F. ) ;
#88 = CARTESIAN_POINT ( 'NONE',  ( -5.999999999999999112, 0.000000000000000000, 40.00000000000000000 ) ) ;
#89 = APPROVAL_DATE_TIME ( #159, #60 ) ;
#90 = APPROVAL_ROLE ( '' ) ;
#91 = AXIS2_PLACEMENT_3D ( 'NONE', #18, #30, #186 ) ;
#92 = CALENDAR_DATE ( 2022, 26, 6 ) ;
#93 = PRODUCT_DEFINITION_SHAPE ( 'NONE', 'NONE',  #248 ) ;
#94 = APPROVAL_STATUS ( 'not_yet_approved' ) ;
#95 = LOCAL_TIME ( 21, 4, 12.00000000000000000, #129 ) ;
#96 = CC_DESIGN_PERSON_AND_ORGANIZATION_ASSIGNMENT ( #127, #245, ( #28 ) ) ;
#97 = DIRECTION ( 'NONE',  ( 1.000000000000000000, 0.000000000000000000, 0.000000000000000000 ) ) ;
#98 = DIRECTION ( 'NONE',  ( 0.000000000000000000, 0.000000000000000000, 1.000000000000000000 ) ) ;
#99 = CYLINDRICAL_SURFACE ( 'NONE', #52, 7.500000000000000000 ) ;
#100 = LOCAL_TIME ( 21, 4, 12.00000000000000000, #86 ) ;
#101 = EDGE_CURVE ( 'NONE', #78, #31, #231, .T. ) ;
#102 = ORIENTED_EDGE ( 'NONE', *, *, #113, .F. ) ;
#103 = EDGE_LOOP ( 'NONE', ( #183, #70 ) ) ;
#104 = EDGE_LOOP ( 'NONE', ( #157, #108 ) ) ;
#105 = AXIS2_PLACEMENT_3D ( 'NONE', #136, #224, #97 ) ;
#106 = CC_DESIGN_PERSON_AND_ORGANIZATION_ASSIGNMENT ( #185, #51, ( #248 ) ) ;
#107 = LOCAL_TIME ( 21, 4, 12.00000000000000000, #238 ) ;
#108 = ORIENTED_EDGE ( 'NONE', *, *, #113, .T. ) ;
#109 = FACE_OUTER_BOUND ( 'NONE', #122, .T. ) ;
#110 = DIRECTION ( 'NONE',  ( -1.000000000000000000, 0.000000000000000000, 0.000000000000000000 ) ) ;
#111 = APPLICATION_CONTEXT ( 'configuration controlled 3d designs of mechanical parts and assemblies' ) ;
#112 = APPLICATION_PROTOCOL_DEFINITION ( 'international standard', 'config_control_design', 1994, #111 ) ;
#113 = EDGE_CURVE ( 'NONE', #160, #191, #117, .T. ) ;
#114 = APPLICATION_PROTOCOL_DEFINITION ( 'international standard', 'config_control_design', 1994, #193 ) ;
#115 = CC_DESIGN_DATE_AND_TIME_ASSIGNMENT ( #143, #72, ( #248 ) ) ;
#116 = CARTESIAN_POINT ( 'NONE',  ( -7.500000000000000000, 0.000000000000000000, 0.000000000000000000 ) ) ;
#117 = CIRCLE ( 'NONE', #105, 7.500000000000000000 ) ;
#118 = CARTESIAN_POINT ( 'NONE',  ( 7.500000000000000000, 9.184850993605147944E-16, 40.00000000000000000 ) ) ;
#119 = CC_DESIGN_APPROVAL ( #40, ( #28 ) ) ;
#120 = ORIENTED_EDGE ( 'NONE', *, *, #192, .T. ) ;
#121 = VERTEX_POINT ( 'NONE', #137 ) ;
#122 = EDGE_LOOP ( 'NONE', ( #154, #63, #120, #5 ) ) ;
#123 = CARTESIAN_POINT ( 'NONE',  ( 5.999999999999999112, 7.347880794884118750E-16, 0.000000000000000000 ) ) ;
#124 =( NAMED_UNIT ( * ) PLANE_ANGLE_UNIT ( ) SI_UNIT ( $, .RADIAN. ) );
#125 = DATE_TIME_ROLE ( 'classification_date' ) ;
#126 = DIRECTION ( 'NONE',  ( -0.000000000000000000, -0.000000000000000000, -1.000000000000000000 ) ) ;
#127 = PERSON_AND_ORGANIZATION ( #211, #164 ) ;
#128 = EDGE_CURVE ( 'NONE', #160, #121, #225, .T. ) ;
#129 = COORDINATED_UNIVERSAL_TIME_OFFSET ( 1, 0, .AHEAD. ) ;
#130 = PERSON_AND_ORGANIZATION_ROLE ( 'creator' ) ;
#131 = CC_DESIGN_APPROVAL ( #60, ( #241 ) ) ;
#132 = CC_DESIGN_PERSON_AND_ORGANIZATION_ASSIGNMENT ( #222, #74, ( #241 ) ) ;
#133 = CARTESIAN_POINT ( 'NONE',  ( 0.000000000000000000, 0.000000000000000000, 0.000000000000000000 ) ) ;
#134 = FACE_BOUND ( 'NONE', #103, .T. ) ;
#135 = AXIS2_PLACEMENT_3D ( 'NONE', #133, #55, #171 ) ;
#136 = CARTESIAN_POINT ( 'NONE',  ( 0.000000000000000000, 0.000000000000000000, 40.00000000000000000 ) ) ;
#137 = CARTESIAN_POINT ( 'NONE',  ( 7.500000000000000000, 9.184850993605147944E-16, 0.000000000000000000 ) ) ;
#138 = EDGE_CURVE ( 'NONE', #24, #31, #246, .T. ) ;
#139 = PLANE ( 'NONE',  #45 ) ;
#140 = EDGE_LOOP ( 'NONE', ( #232, #77 ) ) ;
#141 = DIRECTION ( 'NONE',  ( -1.000000000000000000, 0.000000000000000000, 0.000000000000000000 ) ) ;
#142 = CYLINDRICAL_SURFACE ( 'NONE', #239, 7.500000000000000000 ) ;
#143 = DATE_AND_TIME ( #187, #100 ) ;
#144 = ORIENTED_EDGE ( 'NONE', *, *, #243, .F. ) ;
#145 = AXIS2_PLACEMENT_3D ( 'NONE', #1, #75, #150 ) ;
#146 = PERSON_AND_ORGANIZATION ( #211, #164 ) ;
#147 = DIRECTION ( 'NONE',  ( -1.000000000000000000, 0.000000000000000000, 0.000000000000000000 ) ) ;
#148 = DIRECTION ( 'NONE',  ( -0.000000000000000000, -0.000000000000000000, -1.000000000000000000 ) ) ;
#149 = EDGE_CURVE ( 'NONE', #12, #78, #25, .T. ) ;
#150 = DIRECTION ( 'NONE',  ( 1.000000000000000000, 0.000000000000000000, 0.000000000000000000 ) ) ;
#151 = CARTESIAN_POINT ( 'NONE',  ( 0.000000000000000000, 0.000000000000000000, 0.000000000000000000 ) ) ;
#152 = CARTESIAN_POINT ( 'NONE',  ( 5.999999999999999112, 7.347880794884118750E-16, 40.00000000000000000 ) ) ;
#153 = ORIENTED_EDGE ( 'NONE', *, *, #83, .F. ) ;
#154 = ORIENTED_EDGE ( 'NONE', *, *, #101, .F. ) ;
#155 = EDGE_CURVE ( 'NONE', #121, #42, #59, .T. ) ;
#156 = CARTESIAN_POINT ( 'NONE',  ( 0.000000000000000000, 0.000000000000000000, 0.000000000000000000 ) ) ;
#157 = ORIENTED_EDGE ( 'NONE', *, *, #83, .T. ) ;
#158 = DIRECTION ( 'NONE',  ( 0.000000000000000000, 0.000000000000000000, 1.000000000000000000 ) ) ;
#159 = DATE_AND_TIME ( #92, #95 ) ;
#160 = VERTEX_POINT ( 'NONE', #227 ) ;
#161 = ADVANCED_FACE ( 'NONE', ( #57, #134 ), #190, .F. ) ;
#162 = CARTESIAN_POINT ( 'NONE',  ( 0.000000000000000000, 0.000000000000000000, 40.00000000000000000 ) ) ;
#163 = SHAPE_DEFINITION_REPRESENTATION ( #93, #71 ) ;
#164 = ORGANIZATION ( 'UNSPECIFIED', 'UNSPECIFIED', '' ) ;
#165 = SECURITY_CLASSIFICATION_LEVEL ( 'unclassified' ) ;
#166 = AXIS2_PLACEMENT_3D ( 'NONE', #37, #98, #170 ) ;
#167 = COORDINATED_UNIVERSAL_TIME_OFFSET ( 1, 0, .AHEAD. ) ;
#168 = APPROVAL_PERSON_ORGANIZATION ( #200, #40, #90 ) ;
#169 = EDGE_CURVE ( 'NONE', #191, #42, #85, .T. ) ;
#170 = DIRECTION ( 'NONE',  ( 1.000000000000000000, 0.000000000000000000, 0.000000000000000000 ) ) ;
#171 = DIRECTION ( 'NONE',  ( 1.000000000000000000, 0.000000000000000000, 0.000000000000000000 ) ) ;
#172 = ADVANCED_FACE ( 'NONE', ( #109 ), #47, .F. ) ;
#173 = CIRCLE ( 'NONE', #188, 5.999999999999999112 ) ;
#174 = CARTESIAN_POINT ( 'NONE',  ( -5.999999999999999112, 0.000000000000000000, 40.00000000000000000 ) ) ;
#175 = EDGE_CURVE ( 'NONE', #31, #24, #173, .T. ) ;
#176 = ORIENTED_EDGE ( 'NONE', *, *, #101, .T. ) ;
#177 = EDGE_LOOP ( 'NONE', ( #102, #62, #201, #195 ) ) ;
#178 = CC_DESIGN_SECURITY_CLASSIFICATION ( #28, ( #241 ) ) ;
#179 = CARTESIAN_POINT ( 'NONE',  ( 0.000000000000000000, 0.000000000000000000, 40.00000000000000000 ) ) ;
#180 = CARTESIAN_POINT ( 'NONE',  ( -7.500000000000000000, 0.000000000000000000, 40.00000000000000000 ) ) ;
#181 = PERSON_AND_ORGANIZATION ( #211, #164 ) ;
#182 = PRODUCT_RELATED_PRODUCT_CATEGORY ( 'detail', '', ( #249 ) ) ;
#183 = ORIENTED_EDGE ( 'NONE', *, *, #138, .T. ) ;
#184 = DIRECTION ( 'NONE',  ( 1.000000000000000000, 0.000000000000000000, 0.000000000000000000 ) ) ;
#185 = PERSON_AND_ORGANIZATION ( #211, #164 ) ;
#186 = DIRECTION ( 'NONE',  ( 1.000000000000000000, 0.000000000000000000, 0.000000000000000000 ) ) ;
#187 = CALENDAR_DATE ( 2022, 26, 6 ) ;
#188 = AXIS2_PLACEMENT_3D ( 'NONE', #235, #158, #242 ) ;
#189 = CIRCLE ( 'NONE', #79, 7.500000000000000000 ) ;
#190 = PLANE ( 'NONE',  #229 ) ;
#191 = VERTEX_POINT ( 'NONE', #180 ) ;
#192 = EDGE_CURVE ( 'NONE', #12, #24, #219, .T. ) ;
#193 = APPLICATION_CONTEXT ( 'configuration controlled 3d designs of mechanical parts and assemblies' ) ;
#194 = ORIENTED_EDGE ( 'NONE', *, *, #138, .F. ) ;
#195 = ORIENTED_EDGE ( 'NONE', *, *, #169, .F. ) ;
#196 = VECTOR ( 'NONE', #81, 1000.000000000000000 ) ;
#197 = CIRCLE ( 'NONE', #3, 7.500000000000000000 ) ;
#198 = FACE_OUTER_BOUND ( 'NONE', #233, .T. ) ;
#199 = DIRECTION ( 'NONE',  ( 0.000000000000000000, 0.000000000000000000, 1.000000000000000000 ) ) ;
#200 = PERSON_AND_ORGANIZATION ( #211, #164 ) ;
#201 = ORIENTED_EDGE ( 'NONE', *, *, #155, .T. ) ;
#202 = DIRECTION ( 'NONE',  ( -0.000000000000000000, -0.000000000000000000, -1.000000000000000000 ) ) ;
#203 = APPROVAL_STATUS ( 'not_yet_approved' ) ;
#204 = APPROVAL_STATUS ( 'not_yet_approved' ) ;
#205 = PERSON_AND_ORGANIZATION_ROLE ( 'design_owner' ) ;
#206 = ADVANCED_FACE ( 'NONE', ( #67 ), #142, .T. ) ;
#207 =( NAMED_UNIT ( * ) SI_UNIT ( $, .STERADIAN. ) SOLID_ANGLE_UNIT ( ) );
#208 = EDGE_CURVE ( 'NONE', #78, #12, #76, .T. ) ;
#209 = DIRECTION ( 'NONE',  ( 0.000000000000000000, 0.000000000000000000, 1.000000000000000000 ) ) ;
#210 = CLOSED_SHELL ( 'NONE', ( #36, #54, #15, #161, #206, #172 ) ) ;
#211 = PERSON ( 'UNSPECIFIED', 'UNSPECIFIED', 'UNSPECIFIED', ('UNSPECIFIED'), ('UNSPECIFIED'), ('UNSPECIFIED') ) ;
#212 = EDGE_LOOP ( 'NONE', ( #66, #153, #22, #84 ) ) ;
#213 = CC_DESIGN_PERSON_AND_ORGANIZATION_ASSIGNMENT ( #218, #205, ( #249 ) ) ;
#214 = DIRECTION ( 'NONE',  ( 1.000000000000000000, 0.000000000000000000, 0.000000000000000000 ) ) ;
#215 = CALENDAR_DATE ( 2022, 26, 6 ) ;
#216 = AXIS2_PLACEMENT_3D ( 'NONE', #162, #13, #214 ) ;
#217 = DIRECTION ( 'NONE',  ( 0.000000000000000000, 0.000000000000000000, 1.000000000000000000 ) ) ;
#218 = PERSON_AND_ORGANIZATION ( #211, #164 ) ;
#219 = LINE ( 'NONE', #88, #68 ) ;
#220 = VECTOR ( 'NONE', #38, 1000.000000000000000 ) ;
#221 = LOCAL_TIME ( 21, 4, 12.00000000000000000, #167 ) ;
#222 = PERSON_AND_ORGANIZATION ( #211, #164 ) ;
#223 = CC_DESIGN_DATE_AND_TIME_ASSIGNMENT ( #46, #125, ( #28 ) ) ;
#224 = DIRECTION ( 'NONE',  ( 0.000000000000000000, 0.000000000000000000, 1.000000000000000000 ) ) ;
#225 = LINE ( 'NONE', #118, #6 ) ;
#226 = LOCAL_TIME ( 21, 4, 12.00000000000000000, #247 ) ;
#227 = CARTESIAN_POINT ( 'NONE',  ( 7.500000000000000000, 9.184850993605147944E-16, 40.00000000000000000 ) ) ;
#228 = UNCERTAINTY_MEASURE_WITH_UNIT (LENGTH_MEASURE( 1.000000000000000082E-05 ), #8, 'distance_accuracy_value', 'NONE');
#229 = AXIS2_PLACEMENT_3D ( 'NONE', #151, #199, #29 ) ;
#230 = AXIS2_PLACEMENT_3D ( 'NONE', #65, #126, #110 ) ;
#231 = LINE ( 'NONE', #61, #220 ) ;
#232 = ORIENTED_EDGE ( 'NONE', *, *, #149, .F. ) ;
#233 = EDGE_LOOP ( 'NONE', ( #4, #176, #194, #87 ) ) ;
#234 = FACE_BOUND ( 'NONE', #140, .T. ) ;
#235 = CARTESIAN_POINT ( 'NONE',  ( 0.000000000000000000, 0.000000000000000000, 0.000000000000000000 ) ) ;
#236 = CARTESIAN_POINT ( 'NONE',  ( -5.999999999999999112, 0.000000000000000000, 0.000000000000000000 ) ) ;
#237 = CARTESIAN_POINT ( 'NONE',  ( 0.000000000000000000, 0.000000000000000000, 40.00000000000000000 ) ) ;
#238 = COORDINATED_UNIVERSAL_TIME_OFFSET ( 1, 0, .AHEAD. ) ;
#239 = AXIS2_PLACEMENT_3D ( 'NONE', #237, #10, #49 ) ;
#240 = ORIENTED_EDGE ( 'NONE', *, *, #155, .F. ) ;
#241 = PRODUCT_DEFINITION_FORMATION_WITH_SPECIFIED_SOURCE ( 'ANY', '', #249, .NOT_KNOWN. ) ;
#242 = DIRECTION ( 'NONE',  ( 1.000000000000000000, 0.000000000000000000, 0.000000000000000000 ) ) ;
#243 = EDGE_CURVE ( 'NONE', #42, #121, #197, .T. ) ;
#244 = DATE_AND_TIME ( #69, #107 ) ;
#245 = PERSON_AND_ORGANIZATION_ROLE ( 'classification_officer' ) ;
#246 = CIRCLE ( 'NONE', #135, 5.999999999999999112 ) ;
#247 = COORDINATED_UNIVERSAL_TIME_OFFSET ( 1, 0, .AHEAD. ) ;
#248 = PRODUCT_DEFINITION ( 'UNKNOWN', '', #241, #39 ) ;
#249 = PRODUCT ( 'Entretoise-fourche', 'Entretoise-fourche', '', ( #16 ) ) ;
ENDSEC;
END-ISO-10303-21;
