ISO-10303-21;
HEADER;
/* Generated by software containing ST-Developer
 * from STEP Tools, Inc. (www.steptools.com) 
 */

FILE_DESCRIPTION(
/* description */ (''),
/* implementation_level */ '2;1');

FILE_NAME(
/* name */ 'Z:/perso/Robotique/Roue_Pour_Codeuse_V3 v2.step',
/* time_stamp */ '2022-06-12T08:39:57-07:00',
/* author */ (''),
/* organization */ (''),
/* preprocessor_version */ 'ST-DEVELOPER v19',
/* originating_system */ 'Autodesk Translation Framework v11.7.0.108',
/* authorisation */ '');

FILE_SCHEMA (('AUTOMOTIVE_DESIGN { 1 0 10303 214 3 1 1 }'));
ENDSEC;

DATA;
#10=MECHANICAL_DESIGN_GEOMETRIC_PRESENTATION_REPRESENTATION('',(#13),#454);
#11=SHAPE_REPRESENTATION_RELATIONSHIP('SRR','None',#461,#12);
#12=ADVANCED_BREP_SHAPE_REPRESENTATION('',(#14),#453);
#13=STYLED_ITEM('',(#470),#14);
#14=MANIFOLD_SOLID_BREP('Body2',#210);
#15=B_SPLINE_CURVE_WITH_KNOTS('',3,(#356,#357,#358,#359,#360,#361,#362,
#363,#364,#365,#366,#367,#368,#369,#370,#371,#372,#373,#374,#375,#376,#377,
#378,#379,#380,#381,#382,#383,#384,#385,#386,#387,#388,#389),
 .UNSPECIFIED.,.T.,.F.,(4,2,2,2,2,2,2,2,2,2,2,2,2,2,2,2,4),(-0.7507217128206,
-0.703775215400563,-0.656828717980527,-0.609935001297988,-0.56304128461545,
-0.516147567932911,-0.469253851250372,-0.422307353830336,-0.3753608564103,
-0.328414358990264,-0.281467861570228,-0.234574144887689,-0.18768042820515,
-0.140786711522611,-0.0938929948400723,-0.0469464974200361,0.),
 .UNSPECIFIED.);
#16=B_SPLINE_CURVE_WITH_KNOTS('',3,(#393,#394,#395,#396,#397,#398,#399,
#400,#401,#402,#403,#404,#405,#406,#407,#408,#409,#410,#411,#412),
 .UNSPECIFIED.,.F.,.F.,(4,2,2,2,2,2,2,2,2,4),(0.0588418408262072,0.092836085343293,
0.139252594311405,0.185669103279517,0.23208561224763,0.278502121215742,
0.324920163887388,0.371338206559035,0.417756249230681,0.430180047385112),
 .UNSPECIFIED.);
#17=B_SPLINE_CURVE_WITH_KNOTS('',3,(#413,#414,#415,#416,#417,#418,#419,
#420,#421,#422,#423,#424,#425,#426,#427,#428,#429,#430,#431,#432,#433),
 .UNSPECIFIED.,.F.,.F.,(4,2,2,2,2,2,2,3,2,4),(-0.312496365732958,-0.278502121215742,
-0.23208561224763,-0.185669103279518,-0.139252594311405,-0.0928360853432932,
-0.0464180426716466,0.,0.0464180426716465,0.0588418408262072),
 .UNSPECIFIED.);
#18=TOROIDAL_SURFACE('',#240,21.5,1.5);
#19=TOROIDAL_SURFACE('',#248,8.,1.);
#20=FACE_BOUND('',#49,.T.);
#21=FACE_BOUND('',#52,.T.);
#22=FACE_BOUND('',#57,.T.);
#23=FACE_BOUND('',#61,.T.);
#24=FACE_BOUND('',#63,.T.);
#25=PLANE('',#230);
#26=PLANE('',#235);
#27=PLANE('',#250);
#28=CYLINDRICAL_SURFACE('',#227,21.5);
#29=CYLINDRICAL_SURFACE('',#237,21.5);
#30=CYLINDRICAL_SURFACE('',#242,1.2295);
#31=CYLINDRICAL_SURFACE('',#243,7.);
#32=CYLINDRICAL_SURFACE('',#252,3.);
#33=FACE_OUTER_BOUND('',#46,.T.);
#34=FACE_OUTER_BOUND('',#47,.T.);
#35=FACE_OUTER_BOUND('',#48,.T.);
#36=FACE_OUTER_BOUND('',#50,.T.);
#37=FACE_OUTER_BOUND('',#51,.T.);
#38=FACE_OUTER_BOUND('',#53,.T.);
#39=FACE_OUTER_BOUND('',#54,.T.);
#40=FACE_OUTER_BOUND('',#55,.T.);
#41=FACE_OUTER_BOUND('',#56,.T.);
#42=FACE_OUTER_BOUND('',#58,.T.);
#43=FACE_OUTER_BOUND('',#59,.T.);
#44=FACE_OUTER_BOUND('',#60,.T.);
#45=FACE_OUTER_BOUND('',#62,.T.);
#46=EDGE_LOOP('',(#140,#141,#142,#143));
#47=EDGE_LOOP('',(#144,#145,#146,#147,#148));
#48=EDGE_LOOP('',(#149));
#49=EDGE_LOOP('',(#150));
#50=EDGE_LOOP('',(#151,#152,#153,#154));
#51=EDGE_LOOP('',(#155));
#52=EDGE_LOOP('',(#156));
#53=EDGE_LOOP('',(#157,#158,#159,#160,#161));
#54=EDGE_LOOP('',(#162,#163,#164,#165,#166,#167));
#55=EDGE_LOOP('',(#168,#169,#170,#171,#172));
#56=EDGE_LOOP('',(#173,#174,#175,#176));
#57=EDGE_LOOP('',(#177,#178));
#58=EDGE_LOOP('',(#179,#180,#181,#182));
#59=EDGE_LOOP('',(#183,#184,#185,#186));
#60=EDGE_LOOP('',(#187));
#61=EDGE_LOOP('',(#188));
#62=EDGE_LOOP('',(#189,#190,#191,#192));
#63=EDGE_LOOP('',(#193));
#64=LINE('',#326,#72);
#65=LINE('',#333,#73);
#66=LINE('',#341,#74);
#67=LINE('',#348,#75);
#68=LINE('',#391,#76);
#69=LINE('',#438,#77);
#70=LINE('',#442,#78);
#71=LINE('',#450,#79);
#72=VECTOR('',#259,21.25);
#73=VECTOR('',#268,21.5);
#74=VECTOR('',#277,21.25);
#75=VECTOR('',#286,21.5);
#76=VECTOR('',#297,1.2295);
#77=VECTOR('',#302,7.);
#78=VECTOR('',#307,1.);
#79=VECTOR('',#320,3.);
#80=CIRCLE('',#225,21.);
#81=CIRCLE('',#226,21.5);
#82=CIRCLE('',#228,21.5);
#83=CIRCLE('',#229,21.5);
#84=CIRCLE('',#231,3.);
#85=CIRCLE('',#233,21.);
#86=CIRCLE('',#234,21.5);
#87=CIRCLE('',#236,8.);
#88=CIRCLE('',#238,21.5);
#89=CIRCLE('',#239,21.5);
#90=CIRCLE('',#241,1.5);
#91=CIRCLE('',#244,7.);
#92=CIRCLE('',#245,7.);
#93=CIRCLE('',#247,6.5);
#94=CIRCLE('',#249,1.);
#95=CIRCLE('',#251,3.);
#96=VERTEX_POINT('',#323);
#97=VERTEX_POINT('',#325);
#98=VERTEX_POINT('',#329);
#99=VERTEX_POINT('',#330);
#100=VERTEX_POINT('',#335);
#101=VERTEX_POINT('',#338);
#102=VERTEX_POINT('',#340);
#103=VERTEX_POINT('',#344);
#104=VERTEX_POINT('',#347);
#105=VERTEX_POINT('',#349);
#106=VERTEX_POINT('',#355);
#107=VERTEX_POINT('',#390);
#108=VERTEX_POINT('',#392);
#109=VERTEX_POINT('',#435);
#110=VERTEX_POINT('',#437);
#111=VERTEX_POINT('',#441);
#112=VERTEX_POINT('',#447);
#113=EDGE_CURVE('',#96,#96,#80,.T.);
#114=EDGE_CURVE('',#96,#97,#64,.T.);
#115=EDGE_CURVE('',#97,#97,#81,.T.);
#116=EDGE_CURVE('',#98,#99,#82,.T.);
#117=EDGE_CURVE('',#99,#98,#83,.T.);
#118=EDGE_CURVE('',#98,#97,#65,.T.);
#119=EDGE_CURVE('',#100,#100,#84,.T.);
#120=EDGE_CURVE('',#101,#101,#85,.T.);
#121=EDGE_CURVE('',#101,#102,#66,.T.);
#122=EDGE_CURVE('',#102,#102,#86,.T.);
#123=EDGE_CURVE('',#103,#103,#87,.F.);
#124=EDGE_CURVE('',#102,#104,#67,.T.);
#125=EDGE_CURVE('',#104,#105,#88,.T.);
#126=EDGE_CURVE('',#105,#104,#89,.T.);
#127=EDGE_CURVE('',#99,#105,#90,.T.);
#128=EDGE_CURVE('',#106,#106,#15,.T.);
#129=EDGE_CURVE('',#106,#107,#68,.T.);
#130=EDGE_CURVE('',#107,#108,#16,.T.);
#131=EDGE_CURVE('',#108,#107,#17,.T.);
#132=EDGE_CURVE('',#109,#109,#91,.F.);
#133=EDGE_CURVE('',#109,#110,#69,.T.);
#134=EDGE_CURVE('',#110,#110,#92,.T.);
#135=EDGE_CURVE('',#110,#111,#70,.T.);
#136=EDGE_CURVE('',#111,#111,#93,.T.);
#137=EDGE_CURVE('',#103,#109,#94,.T.);
#138=EDGE_CURVE('',#112,#112,#95,.T.);
#139=EDGE_CURVE('',#112,#100,#71,.T.);
#140=ORIENTED_EDGE('',*,*,#113,.T.);
#141=ORIENTED_EDGE('',*,*,#114,.T.);
#142=ORIENTED_EDGE('',*,*,#115,.T.);
#143=ORIENTED_EDGE('',*,*,#114,.F.);
#144=ORIENTED_EDGE('',*,*,#116,.T.);
#145=ORIENTED_EDGE('',*,*,#117,.T.);
#146=ORIENTED_EDGE('',*,*,#118,.T.);
#147=ORIENTED_EDGE('',*,*,#115,.F.);
#148=ORIENTED_EDGE('',*,*,#118,.F.);
#149=ORIENTED_EDGE('',*,*,#113,.F.);
#150=ORIENTED_EDGE('',*,*,#119,.T.);
#151=ORIENTED_EDGE('',*,*,#120,.T.);
#152=ORIENTED_EDGE('',*,*,#121,.T.);
#153=ORIENTED_EDGE('',*,*,#122,.T.);
#154=ORIENTED_EDGE('',*,*,#121,.F.);
#155=ORIENTED_EDGE('',*,*,#120,.F.);
#156=ORIENTED_EDGE('',*,*,#123,.F.);
#157=ORIENTED_EDGE('',*,*,#122,.F.);
#158=ORIENTED_EDGE('',*,*,#124,.T.);
#159=ORIENTED_EDGE('',*,*,#125,.T.);
#160=ORIENTED_EDGE('',*,*,#126,.T.);
#161=ORIENTED_EDGE('',*,*,#124,.F.);
#162=ORIENTED_EDGE('',*,*,#116,.F.);
#163=ORIENTED_EDGE('',*,*,#117,.F.);
#164=ORIENTED_EDGE('',*,*,#127,.T.);
#165=ORIENTED_EDGE('',*,*,#125,.F.);
#166=ORIENTED_EDGE('',*,*,#126,.F.);
#167=ORIENTED_EDGE('',*,*,#127,.F.);
#168=ORIENTED_EDGE('',*,*,#128,.F.);
#169=ORIENTED_EDGE('',*,*,#129,.T.);
#170=ORIENTED_EDGE('',*,*,#130,.T.);
#171=ORIENTED_EDGE('',*,*,#131,.T.);
#172=ORIENTED_EDGE('',*,*,#129,.F.);
#173=ORIENTED_EDGE('',*,*,#132,.T.);
#174=ORIENTED_EDGE('',*,*,#133,.T.);
#175=ORIENTED_EDGE('',*,*,#134,.T.);
#176=ORIENTED_EDGE('',*,*,#133,.F.);
#177=ORIENTED_EDGE('',*,*,#131,.F.);
#178=ORIENTED_EDGE('',*,*,#130,.F.);
#179=ORIENTED_EDGE('',*,*,#134,.F.);
#180=ORIENTED_EDGE('',*,*,#135,.T.);
#181=ORIENTED_EDGE('',*,*,#136,.T.);
#182=ORIENTED_EDGE('',*,*,#135,.F.);
#183=ORIENTED_EDGE('',*,*,#123,.T.);
#184=ORIENTED_EDGE('',*,*,#137,.T.);
#185=ORIENTED_EDGE('',*,*,#132,.F.);
#186=ORIENTED_EDGE('',*,*,#137,.F.);
#187=ORIENTED_EDGE('',*,*,#136,.F.);
#188=ORIENTED_EDGE('',*,*,#138,.T.);
#189=ORIENTED_EDGE('',*,*,#138,.F.);
#190=ORIENTED_EDGE('',*,*,#139,.T.);
#191=ORIENTED_EDGE('',*,*,#119,.F.);
#192=ORIENTED_EDGE('',*,*,#139,.F.);
#193=ORIENTED_EDGE('',*,*,#128,.T.);
#194=CONICAL_SURFACE('',#224,21.25,0.785398163397447);
#195=CONICAL_SURFACE('',#232,21.25,0.785398163397447);
#196=CONICAL_SURFACE('',#246,1.,0.785398163397);
#197=ADVANCED_FACE('',(#33),#194,.T.);
#198=ADVANCED_FACE('',(#34),#28,.T.);
#199=ADVANCED_FACE('',(#35,#20),#25,.T.);
#200=ADVANCED_FACE('',(#36),#195,.T.);
#201=ADVANCED_FACE('',(#37,#21),#26,.F.);
#202=ADVANCED_FACE('',(#38),#29,.T.);
#203=ADVANCED_FACE('',(#39),#18,.F.);
#204=ADVANCED_FACE('',(#40),#30,.F.);
#205=ADVANCED_FACE('',(#41,#22),#31,.T.);
#206=ADVANCED_FACE('',(#42),#196,.T.);
#207=ADVANCED_FACE('',(#43),#19,.F.);
#208=ADVANCED_FACE('',(#44,#23),#27,.F.);
#209=ADVANCED_FACE('',(#45,#24),#32,.F.);
#210=CLOSED_SHELL('',(#197,#198,#199,#200,#201,#202,#203,#204,#205,#206,
#207,#208,#209));
#211=DERIVED_UNIT_ELEMENT(#213,1.);
#212=DERIVED_UNIT_ELEMENT(#456,-3.);
#213=(
MASS_UNIT()
NAMED_UNIT(*)
SI_UNIT(.KILO.,.GRAM.)
);
#214=DERIVED_UNIT((#211,#212));
#215=MEASURE_REPRESENTATION_ITEM('density measure',
POSITIVE_RATIO_MEASURE(7850.),#214);
#216=PROPERTY_DEFINITION_REPRESENTATION(#221,#218);
#217=PROPERTY_DEFINITION_REPRESENTATION(#222,#219);
#218=REPRESENTATION('material name',(#220),#453);
#219=REPRESENTATION('density',(#215),#453);
#220=DESCRIPTIVE_REPRESENTATION_ITEM('Steel','Steel');
#221=PROPERTY_DEFINITION('material property','material name',#463);
#222=PROPERTY_DEFINITION('material property','density of part',#463);
#223=AXIS2_PLACEMENT_3D('placement',#321,#253,#254);
#224=AXIS2_PLACEMENT_3D('',#322,#255,#256);
#225=AXIS2_PLACEMENT_3D('',#324,#257,#258);
#226=AXIS2_PLACEMENT_3D('',#327,#260,#261);
#227=AXIS2_PLACEMENT_3D('',#328,#262,#263);
#228=AXIS2_PLACEMENT_3D('',#331,#264,#265);
#229=AXIS2_PLACEMENT_3D('',#332,#266,#267);
#230=AXIS2_PLACEMENT_3D('',#334,#269,#270);
#231=AXIS2_PLACEMENT_3D('',#336,#271,#272);
#232=AXIS2_PLACEMENT_3D('',#337,#273,#274);
#233=AXIS2_PLACEMENT_3D('',#339,#275,#276);
#234=AXIS2_PLACEMENT_3D('',#342,#278,#279);
#235=AXIS2_PLACEMENT_3D('',#343,#280,#281);
#236=AXIS2_PLACEMENT_3D('',#345,#282,#283);
#237=AXIS2_PLACEMENT_3D('',#346,#284,#285);
#238=AXIS2_PLACEMENT_3D('',#350,#287,#288);
#239=AXIS2_PLACEMENT_3D('',#351,#289,#290);
#240=AXIS2_PLACEMENT_3D('',#352,#291,#292);
#241=AXIS2_PLACEMENT_3D('',#353,#293,#294);
#242=AXIS2_PLACEMENT_3D('',#354,#295,#296);
#243=AXIS2_PLACEMENT_3D('',#434,#298,#299);
#244=AXIS2_PLACEMENT_3D('',#436,#300,#301);
#245=AXIS2_PLACEMENT_3D('',#439,#303,#304);
#246=AXIS2_PLACEMENT_3D('',#440,#305,#306);
#247=AXIS2_PLACEMENT_3D('',#443,#308,#309);
#248=AXIS2_PLACEMENT_3D('',#444,#310,#311);
#249=AXIS2_PLACEMENT_3D('',#445,#312,#313);
#250=AXIS2_PLACEMENT_3D('',#446,#314,#315);
#251=AXIS2_PLACEMENT_3D('',#448,#316,#317);
#252=AXIS2_PLACEMENT_3D('',#449,#318,#319);
#253=DIRECTION('axis',(0.,0.,1.));
#254=DIRECTION('refdir',(1.,0.,0.));
#255=DIRECTION('center_axis',(0.,-1.,-3.9802786619E-16));
#256=DIRECTION('ref_axis',(-1.,0.,0.));
#257=DIRECTION('center_axis',(0.,-1.,-3.9802786619E-16));
#258=DIRECTION('ref_axis',(-1.,0.,0.));
#259=DIRECTION('',(0.707106781186546,-0.707106781186549,-3.6804380890771E-16));
#260=DIRECTION('center_axis',(0.,1.,3.9802786619E-16));
#261=DIRECTION('ref_axis',(-1.,0.,0.));
#262=DIRECTION('center_axis',(0.,-1.,-3.9802786619E-16));
#263=DIRECTION('ref_axis',(-1.,0.,0.));
#264=DIRECTION('center_axis',(0.,1.,3.9802786619E-16));
#265=DIRECTION('ref_axis',(-1.,0.,0.));
#266=DIRECTION('center_axis',(0.,1.,3.9802786619E-16));
#267=DIRECTION('ref_axis',(-1.,0.,0.));
#268=DIRECTION('',(0.,1.,3.9802786619E-16));
#269=DIRECTION('center_axis',(0.,1.,3.9802786619E-16));
#270=DIRECTION('ref_axis',(-1.,0.,0.));
#271=DIRECTION('center_axis',(0.,-1.,-3.9802786619E-16));
#272=DIRECTION('ref_axis',(1.,0.,0.));
#273=DIRECTION('center_axis',(0.,1.,3.9802786619E-16));
#274=DIRECTION('ref_axis',(-1.,0.,0.));
#275=DIRECTION('center_axis',(0.,1.,3.9802786619E-16));
#276=DIRECTION('ref_axis',(-1.,0.,0.));
#277=DIRECTION('',(0.707106781186546,0.707106781186549,3.6804380890771E-16));
#278=DIRECTION('center_axis',(0.,-1.,-3.9802786619E-16));
#279=DIRECTION('ref_axis',(-1.,0.,0.));
#280=DIRECTION('center_axis',(0.,1.,3.9802786619E-16));
#281=DIRECTION('ref_axis',(-1.,0.,0.));
#282=DIRECTION('center_axis',(8.44772946978E-18,1.,3.94502548793E-16));
#283=DIRECTION('ref_axis',(0.,3.94502548793E-16,-1.));
#284=DIRECTION('center_axis',(0.,-1.,-3.9802786619E-16));
#285=DIRECTION('ref_axis',(-1.,0.,0.));
#286=DIRECTION('',(0.,1.,3.9802786619E-16));
#287=DIRECTION('center_axis',(0.,-1.,-3.9802786619E-16));
#288=DIRECTION('ref_axis',(-1.,0.,0.));
#289=DIRECTION('center_axis',(0.,-1.,-3.9802786619E-16));
#290=DIRECTION('ref_axis',(-1.,0.,0.));
#291=DIRECTION('center_axis',(0.,1.,0.));
#292=DIRECTION('ref_axis',(0.,0.,1.));
#293=DIRECTION('center_axis',(1.,0.,-1.22464679914735E-16));
#294=DIRECTION('ref_axis',(-1.22464679914735E-16,0.,-1.));
#295=DIRECTION('center_axis',(0.,0.,-1.));
#296=DIRECTION('ref_axis',(0.877582561890373,-0.479425538604203,0.));
#297=DIRECTION('',(0.,0.,-1.));
#298=DIRECTION('center_axis',(0.,1.,3.9802786619E-16));
#299=DIRECTION('ref_axis',(0.479425538604204,-3.49302314514779E-16,0.877582561890373));
#300=DIRECTION('center_axis',(0.,1.,3.9802786619E-16));
#301=DIRECTION('ref_axis',(0.,3.9802786619E-16,-1.));
#302=DIRECTION('',(0.,-1.,-3.9802786619E-16));
#303=DIRECTION('center_axis',(0.,1.,3.9802786619E-16));
#304=DIRECTION('ref_axis',(0.,3.9802786619E-16,-1.));
#305=DIRECTION('center_axis',(0.,1.,7.9936057773E-15));
#306=DIRECTION('ref_axis',(0.479425538604204,-7.01504903678462E-15,0.877582561890373));
#307=DIRECTION('',(0.339005049420893,-0.70710678118687,0.620544580563462));
#308=DIRECTION('center_axis',(-3.18070134112E-15,1.,2.17137102594E-15));
#309=DIRECTION('ref_axis',(0.,2.17137102594E-15,-1.));
#310=DIRECTION('center_axis',(8.44772946978E-18,1.,3.94502548793E-16));
#311=DIRECTION('ref_axis',(0.479425538604204,-3.45402718772271E-16,0.877582561890372));
#312=DIRECTION('center_axis',(0.877582561890372,1.81721016865569E-16,-0.479425538604204));
#313=DIRECTION('ref_axis',(-0.479425538604204,3.70074341541719E-16,-0.877582561890372));
#314=DIRECTION('center_axis',(0.,1.,3.9802786619E-16));
#315=DIRECTION('ref_axis',(1.,0.,0.));
#316=DIRECTION('center_axis',(0.,1.,3.9802786619E-16));
#317=DIRECTION('ref_axis',(0.,3.9802786619E-16,-1.));
#318=DIRECTION('center_axis',(0.,1.,0.));
#319=DIRECTION('ref_axis',(-1.,0.,0.));
#320=DIRECTION('',(0.,1.,0.));
#321=CARTESIAN_POINT('',(0.,0.,0.));
#322=CARTESIAN_POINT('Origin',(0.,2.25,8.955626989275E-16));
#323=CARTESIAN_POINT('',(21.,2.5,3.56682794368444E-15));
#324=CARTESIAN_POINT('Origin',(0.,2.5,9.95069665475E-16));
#325=CARTESIAN_POINT('',(21.5,2.,-1.83693488578681E-15));
#326=CARTESIAN_POINT('',(21.25,2.25,-1.70681174926063E-15));
#327=CARTESIAN_POINT('Origin',(0.,2.,7.9605573238E-16));
#328=CARTESIAN_POINT('Origin',(0.,2.5,9.95069665475E-16));
#329=CARTESIAN_POINT('',(21.5,1.5,-1.04087915340681E-15));
#330=CARTESIAN_POINT('',(-2.63299061816681E-15,1.50000000000001,-21.5));
#331=CARTESIAN_POINT('Origin',(0.,1.5,1.59211146476E-15));
#332=CARTESIAN_POINT('Origin',(0.,1.5,1.59211146476E-15));
#333=CARTESIAN_POINT('',(21.5,2.5,3.62806028364181E-15));
#334=CARTESIAN_POINT('Origin',(0.,2.5,9.95069665475E-16));
#335=CARTESIAN_POINT('',(3.,2.5,-3.67394039744206E-16));
#336=CARTESIAN_POINT('Origin',(0.,2.5,9.95069665475E-16));
#337=CARTESIAN_POINT('Origin',(0.,-2.25,-8.955626989275E-16));
#338=CARTESIAN_POINT('',(21.,-2.5,-3.56682794368444E-15));
#339=CARTESIAN_POINT('Origin',(0.,-2.5,-9.95069665475E-16));
#340=CARTESIAN_POINT('',(21.5,-2.,1.83693488578681E-15));
#341=CARTESIAN_POINT('',(21.25,-2.25,1.70681174926063E-15));
#342=CARTESIAN_POINT('Origin',(0.,-2.,-7.9605573238E-16));
#343=CARTESIAN_POINT('Origin',(0.,-2.5,-9.95069665475E-16));
#344=CARTESIAN_POINT('',(-3.83540442362,-2.5,-7.02066043241));
#345=CARTESIAN_POINT('Origin',(1.78480456887E-15,-2.5,1.28268096849E-15));
#346=CARTESIAN_POINT('Origin',(0.,2.5,9.95069665475E-16));
#347=CARTESIAN_POINT('',(21.5,-1.5,3.03101848435681E-15));
#348=CARTESIAN_POINT('',(21.5,2.5,3.62806028364181E-15));
#349=CARTESIAN_POINT('',(-2.63299061816681E-15,-1.49999999999999,-21.5));
#350=CARTESIAN_POINT('Origin',(0.,-1.5,3.9802786619E-16));
#351=CARTESIAN_POINT('Origin',(0.,-1.5,3.9802786619E-16));
#352=CARTESIAN_POINT('Origin',(0.,0.,9.95069665475E-16));
#353=CARTESIAN_POINT('Origin',(-2.63299061816681E-15,0.,-21.5));
#354=CARTESIAN_POINT('Origin',(0.,-5.5,-0.1));
#355=CARTESIAN_POINT('',(-1.07882890807873,-4.91063746966637,-2.79926628994104));
#356=CARTESIAN_POINT('Ctrl Pts',(-1.2295,-5.5,-2.73648127163334));
#357=CARTESIAN_POINT('Ctrl Pts',(-1.2295,-5.34351167526655,-2.73648127163334));
#358=CARTESIAN_POINT('Ctrl Pts',(-1.19784673540349,-5.17806688076244,-2.75132598065733));
#359=CARTESIAN_POINT('Ctrl Pts',(-1.07185378294629,-4.87581443904762,-2.8028129766437));
#360=CARTESIAN_POINT('Ctrl Pts',(-0.977589514407196,-4.73881393946948,-2.83850307792445));
#361=CARTESIAN_POINT('Ctrl Pts',(-0.76130770894436,-4.52253213400664,-2.90399084569231));
#362=CARTESIAN_POINT('Ctrl Pts',(-0.624261577393753,-4.42817585182445,-2.93832380747747));
#363=CARTESIAN_POINT('Ctrl Pts',(-0.321829551731475,-4.30211214543367,-2.98661598760827));
#364=CARTESIAN_POINT('Ctrl Pts',(-0.156312388941797,-4.2705,-3.));
#365=CARTESIAN_POINT('Ctrl Pts',(0.156312388941795,-4.2705,-3.));
#366=CARTESIAN_POINT('Ctrl Pts',(0.321829551731474,-4.30211214543367,-2.98661598760827));
#367=CARTESIAN_POINT('Ctrl Pts',(0.624261577393753,-4.42817585182445,-2.93832380747747));
#368=CARTESIAN_POINT('Ctrl Pts',(0.761307708944359,-4.52253213400664,-2.90399084569231));
#369=CARTESIAN_POINT('Ctrl Pts',(0.977589514407196,-4.73881393946948,-2.83850307792445));
#370=CARTESIAN_POINT('Ctrl Pts',(1.07185378294629,-4.87581443904762,-2.8028129766437));
#371=CARTESIAN_POINT('Ctrl Pts',(1.19784673540348,-5.17806688076244,-2.75132598065733));
#372=CARTESIAN_POINT('Ctrl Pts',(1.2295,-5.34351167526655,-2.73648127163334));
#373=CARTESIAN_POINT('Ctrl Pts',(1.2295,-5.65648832473345,-2.73648127163334));
#374=CARTESIAN_POINT('Ctrl Pts',(1.19784673540349,-5.82193311923756,-2.75132598065733));
#375=CARTESIAN_POINT('Ctrl Pts',(1.07185378294629,-6.12418556095238,-2.8028129766437));
#376=CARTESIAN_POINT('Ctrl Pts',(0.977589514407196,-6.26118606053052,-2.83850307792444));
#377=CARTESIAN_POINT('Ctrl Pts',(0.76130770894436,-6.47746786599336,-2.90399084569231));
#378=CARTESIAN_POINT('Ctrl Pts',(0.624261577393754,-6.57182414817555,-2.93832380747747));
#379=CARTESIAN_POINT('Ctrl Pts',(0.321829551731475,-6.69788785456633,-2.98661598760827));
#380=CARTESIAN_POINT('Ctrl Pts',(0.156312388941796,-6.7295,-3.));
#381=CARTESIAN_POINT('Ctrl Pts',(-0.156312388941796,-6.7295,-3.));
#382=CARTESIAN_POINT('Ctrl Pts',(-0.321829551731475,-6.69788785456633,-2.98661598760827));
#383=CARTESIAN_POINT('Ctrl Pts',(-0.624261577393753,-6.57182414817555,-2.93832380747747));
#384=CARTESIAN_POINT('Ctrl Pts',(-0.761307708944359,-6.47746786599336,-2.90399084569231));
#385=CARTESIAN_POINT('Ctrl Pts',(-0.977589514407196,-6.26118606053053,-2.83850307792445));
#386=CARTESIAN_POINT('Ctrl Pts',(-1.07185378294629,-6.12418556095238,-2.8028129766437));
#387=CARTESIAN_POINT('Ctrl Pts',(-1.19784673540348,-5.82193311923756,-2.75132598065733));
#388=CARTESIAN_POINT('Ctrl Pts',(-1.2295,-5.65648832473345,-2.73648127163334));
#389=CARTESIAN_POINT('Ctrl Pts',(-1.2295,-5.5,-2.73648127163334));
#390=CARTESIAN_POINT('',(-1.07898775984422,-4.91054630028615,-6.91634190986148));
#391=CARTESIAN_POINT('',(-1.07898775984421,-4.91054630028613,-0.1));
#392=CARTESIAN_POINT('',(1.07898775984,-6.08945369971,-6.91634190986));
#393=CARTESIAN_POINT('Ctrl Pts',(-1.07898775984423,-4.91054630028617,-6.91634190986148));
#394=CARTESIAN_POINT('Ctrl Pts',(-1.02166196272272,-4.80561213251785,-6.92528505267072));
#395=CARTESIAN_POINT('Ctrl Pts',(-0.949200994197595,-4.71042541925987,-6.93581195108917));
#396=CARTESIAN_POINT('Ctrl Pts',(-0.760409033020115,-4.52163345808239,-6.9594425449864));
#397=CARTESIAN_POINT('Ctrl Pts',(-0.622369500122924,-4.42706228940734,-6.97392909574743));
#398=CARTESIAN_POINT('Ctrl Pts',(-0.319539000551094,-4.30148676981537,-6.99434955182965));
#399=CARTESIAN_POINT('Ctrl Pts',(-0.154721696560375,-4.2705,-7.));
#400=CARTESIAN_POINT('Ctrl Pts',(0.154721696560373,-4.2705,-7.));
#401=CARTESIAN_POINT('Ctrl Pts',(0.319539000551092,-4.30148676981537,-6.99434955182965));
#402=CARTESIAN_POINT('Ctrl Pts',(0.622369500122923,-4.42706228940734,-6.97392909574743));
#403=CARTESIAN_POINT('Ctrl Pts',(0.760409033020114,-4.52163345808239,-6.9594425449864));
#404=CARTESIAN_POINT('Ctrl Pts',(0.978370142815316,-4.7395945678776,-6.93216092537275));
#405=CARTESIAN_POINT('Ctrl Pts',(1.07293848771323,-4.87763255916992,-6.91757556716582));
#406=CARTESIAN_POINT('Ctrl Pts',(1.19851195817502,-5.18045774671173,-6.89692814711484));
#407=CARTESIAN_POINT('Ctrl Pts',(1.2295,-5.34527319109451,-6.89117767511475));
#408=CARTESIAN_POINT('Ctrl Pts',(1.2295,-5.65472680890549,-6.89117767511475));
#409=CARTESIAN_POINT('Ctrl Pts',(1.19851195817502,-5.81954225328827,-6.89692814711484));
#410=CARTESIAN_POINT('Ctrl Pts',(1.11892034104072,-6.0114804572482,-6.91001500013774));
#411=CARTESIAN_POINT('Ctrl Pts',(1.09993848672809,-6.05110365139188,-6.91307348008138));
#412=CARTESIAN_POINT('Ctrl Pts',(1.07898775984489,-6.08945369971263,-6.91634190986138));
#413=CARTESIAN_POINT('Ctrl Pts',(1.07898775984489,-6.08945369971263,-6.91634190986138));
#414=CARTESIAN_POINT('Ctrl Pts',(1.02166196272327,-6.19438786748142,-6.92528505267064));
#415=CARTESIAN_POINT('Ctrl Pts',(0.949200994197902,-6.28957458073982,-6.93581195108913));
#416=CARTESIAN_POINT('Ctrl Pts',(0.760409033020115,-6.47836654191761,-6.9594425449864));
#417=CARTESIAN_POINT('Ctrl Pts',(0.622369500122924,-6.57293771059266,-6.97392909574743));
#418=CARTESIAN_POINT('Ctrl Pts',(0.319539000551093,-6.69851323018463,-6.99434955182965));
#419=CARTESIAN_POINT('Ctrl Pts',(0.154721696560374,-6.7295,-7.));
#420=CARTESIAN_POINT('Ctrl Pts',(-0.154721696560374,-6.7295,-7.));
#421=CARTESIAN_POINT('Ctrl Pts',(-0.319539000551093,-6.69851323018463,-6.99434955182965));
#422=CARTESIAN_POINT('Ctrl Pts',(-0.622369500122923,-6.57293771059266,-6.97392909574743));
#423=CARTESIAN_POINT('Ctrl Pts',(-0.760409033020114,-6.47836654191761,-6.9594425449864));
#424=CARTESIAN_POINT('Ctrl Pts',(-0.978370142815316,-6.26040543212241,-6.93216092537275));
#425=CARTESIAN_POINT('Ctrl Pts',(-1.07293848771323,-6.12236744083008,-6.91757556716582));
#426=CARTESIAN_POINT('Ctrl Pts',(-1.19851195817502,-5.81954225328827,-6.89692814711484));
#427=CARTESIAN_POINT('Ctrl Pts',(-1.2295,-5.65472680890549,-6.89117767511475));
#428=CARTESIAN_POINT('Ctrl Pts',(-1.2295,-5.5,-6.89117767511475));
#429=CARTESIAN_POINT('Ctrl Pts',(-1.2295,-5.34527319109451,-6.89117767511475));
#430=CARTESIAN_POINT('Ctrl Pts',(-1.19851195817502,-5.18045774671173,-6.89692814711484));
#431=CARTESIAN_POINT('Ctrl Pts',(-1.11892034104054,-4.98851954275138,-6.91001500013777));
#432=CARTESIAN_POINT('Ctrl Pts',(-1.09993848672769,-4.94889634860729,-6.91307348008144));
#433=CARTESIAN_POINT('Ctrl Pts',(-1.07898775984423,-4.91054630028617,-6.91634190986148));
#434=CARTESIAN_POINT('Origin',(0.,-3.,1.30097484435E-15));
#435=CARTESIAN_POINT('',(-3.35597877023,-3.5,-6.14307793323));
#436=CARTESIAN_POINT('Origin',(0.,-3.5,1.10196091125E-15));
#437=CARTESIAN_POINT('',(-3.35597877023,-8.,-6.14307793323));
#438=CARTESIAN_POINT('',(-3.35597877022943,-3.,-6.14307793323261));
#439=CARTESIAN_POINT('Origin',(0.,-8.,-6.89164486605E-16));
#440=CARTESIAN_POINT('Origin',(-8.881784197E-16,-13.9999999999991,-4.66293670342928E-14));
#441=CARTESIAN_POINT('',(-3.11626606296,-8.5,-5.7042866184));
#442=CARTESIAN_POINT('',(-0.479425538604205,-13.9999999999991,-0.877582561890419));
#443=CARTESIAN_POINT('Origin',(-8.881784197E-16,-8.5,-2.6645352591E-15));
#444=CARTESIAN_POINT('Origin',(1.7763568394E-15,-3.5,8.881784197E-16));
#445=CARTESIAN_POINT('Origin',(-3.83540430883363,-3.5,-7.02066049512298));
#446=CARTESIAN_POINT('Origin',(0.,-8.5,7.));
#447=CARTESIAN_POINT('',(3.,-8.5,3.67381906147E-16));
#448=CARTESIAN_POINT('Origin',(-8.881784197E-16,-8.5,1.7763568394E-15));
#449=CARTESIAN_POINT('Origin',(0.,-3.00000000003,0.));
#450=CARTESIAN_POINT('',(3.,-3.00000000003,-3.67394039744206E-16));
#451=UNCERTAINTY_MEASURE_WITH_UNIT(LENGTH_MEASURE(0.01),#455,
'DISTANCE_ACCURACY_VALUE',
'Maximum model space distance between geometric entities at asserted c
onnectivities');
#452=UNCERTAINTY_MEASURE_WITH_UNIT(LENGTH_MEASURE(0.01),#455,
'DISTANCE_ACCURACY_VALUE',
'Maximum model space distance between geometric entities at asserted c
onnectivities');
#453=(
GEOMETRIC_REPRESENTATION_CONTEXT(3)
GLOBAL_UNCERTAINTY_ASSIGNED_CONTEXT((#451))
GLOBAL_UNIT_ASSIGNED_CONTEXT((#455,#457,#458))
REPRESENTATION_CONTEXT('','3D')
);
#454=(
GEOMETRIC_REPRESENTATION_CONTEXT(3)
GLOBAL_UNCERTAINTY_ASSIGNED_CONTEXT((#452))
GLOBAL_UNIT_ASSIGNED_CONTEXT((#455,#457,#458))
REPRESENTATION_CONTEXT('','3D')
);
#455=(
LENGTH_UNIT()
NAMED_UNIT(*)
SI_UNIT(.MILLI.,.METRE.)
);
#456=(
LENGTH_UNIT()
NAMED_UNIT(*)
SI_UNIT($,.METRE.)
);
#457=(
NAMED_UNIT(*)
PLANE_ANGLE_UNIT()
SI_UNIT($,.RADIAN.)
);
#458=(
NAMED_UNIT(*)
SI_UNIT($,.STERADIAN.)
SOLID_ANGLE_UNIT()
);
#459=SHAPE_DEFINITION_REPRESENTATION(#460,#461);
#460=PRODUCT_DEFINITION_SHAPE('',$,#463);
#461=SHAPE_REPRESENTATION('',(#223),#453);
#462=PRODUCT_DEFINITION_CONTEXT('part definition',#467,'design');
#463=PRODUCT_DEFINITION('Roue_Pour_Codeuse_V3',
'Roue_Pour_Codeuse_V3 v2',#464,#462);
#464=PRODUCT_DEFINITION_FORMATION('',$,#469);
#465=PRODUCT_RELATED_PRODUCT_CATEGORY('Roue_Pour_Codeuse_V3 v2',
'Roue_Pour_Codeuse_V3 v2',(#469));
#466=APPLICATION_PROTOCOL_DEFINITION('international standard',
'automotive_design',2009,#467);
#467=APPLICATION_CONTEXT(
'Core Data for Automotive Mechanical Design Process');
#468=PRODUCT_CONTEXT('part definition',#467,'mechanical');
#469=PRODUCT('Roue_Pour_Codeuse_V3','Roue_Pour_Codeuse_V3 v2',$,(#468));
#470=PRESENTATION_STYLE_ASSIGNMENT((#471));
#471=SURFACE_STYLE_USAGE(.BOTH.,#472);
#472=SURFACE_SIDE_STYLE('',(#473));
#473=SURFACE_STYLE_FILL_AREA(#474);
#474=FILL_AREA_STYLE('Steel - Satin',(#475));
#475=FILL_AREA_STYLE_COLOUR('Steel - Satin',#476);
#476=COLOUR_RGB('Steel - Satin',0.627450980392157,0.627450980392157,0.627450980392157);
ENDSEC;
END-ISO-10303-21;
