ISO-10303-21;
HEADER;
FILE_DESCRIPTION (( 'STEP AP214' ),
    '1' );
FILE_NAME ('K4-RONDELLE DE BLOCAGE VILLEBREQUIN.STEP',
    '2022-05-23T19:04:42',
    ( '' ),
    ( '' ),
    'SwSTEP 2.0',
    'SolidWorks 2021',
    '' );
FILE_SCHEMA (( 'AUTOMOTIVE_DESIGN' ));
ENDSEC;

DATA;
#1 =( NAMED_UNIT ( * ) PLANE_ANGLE_UNIT ( ) SI_UNIT ( $, .RADIAN. ) );
#2 = AXIS2_PLACEMENT_3D ( 'NONE', #288, #70, #350 ) ;
#3 = DIRECTION ( 'NONE',  ( -0.000000000000000000, 1.000000000000000000, -0.000000000000000000 ) ) ;
#4 = EDGE_CURVE ( 'NONE', #353, #119, #132, .T. ) ;
#5 = DIRECTION ( 'NONE',  ( -0.000000000000000000, 1.000000000000000000, -0.000000000000000000 ) ) ;
#6 = AXIS2_PLACEMENT_3D ( 'NONE', #235, #265, #89 ) ;
#7 = VECTOR ( 'NONE', #352, 1000.000000000000000 ) ;
#8 =( GEOMETRIC_REPRESENTATION_CONTEXT ( 3 ) GLOBAL_UNCERTAINTY_ASSIGNED_CONTEXT ( ( #226 ) ) GLOBAL_UNIT_ASSIGNED_CONTEXT ( ( #333, #218, #21 ) ) REPRESENTATION_CONTEXT ( 'NONE', 'WORKASPACE' ) );
#9 = DIRECTION ( 'NONE',  ( -0.000000000000000000, 1.000000000000000000, -0.000000000000000000 ) ) ;
#10 = ORIENTED_EDGE ( 'NONE', *, *, #159, .F. ) ;
#11 = ADVANCED_FACE ( 'NONE', ( #25 ), #283, .F. ) ;
#12 = DIRECTION ( 'NONE',  ( 0.000000000000000000, 0.000000000000000000, -1.000000000000000000 ) ) ;
#13 = VERTEX_POINT ( 'NONE', #156 ) ;
#14 = DIRECTION ( 'NONE',  ( 0.000000000000000000, -1.000000000000000000, 0.000000000000000000 ) ) ;
#15 = CIRCLE ( 'NONE', #172, 2.749999999999998668 ) ;
#16 = CARTESIAN_POINT ( 'NONE',  ( 0.000000000000000000, 0.000000000000000000, 0.000000000000000000 ) ) ;
#17 = ORIENTED_EDGE ( 'NONE', *, *, #136, .T. ) ;
#18 = ORIENTED_EDGE ( 'NONE', *, *, #99, .F. ) ;
#19 = EDGE_CURVE ( 'NONE', #315, #345, #54, .T. ) ;
#20 = CARTESIAN_POINT ( 'NONE',  ( 0.000000000000000000, 0.2500000000000002220, 0.000000000000000000 ) ) ;
#21 =( NAMED_UNIT ( * ) SI_UNIT ( $, .STERADIAN. ) SOLID_ANGLE_UNIT ( ) );
#22 = DIRECTION ( 'NONE',  ( 0.000000000000000000, 0.000000000000000000, 1.000000000000000000 ) ) ;
#23 = ADVANCED_FACE ( 'NONE', ( #27, #216 ), #76, .F. ) ;
#24 = DIRECTION ( 'NONE',  ( 0.000000000000000000, 0.000000000000000000, 1.000000000000000000 ) ) ;
#25 = FACE_OUTER_BOUND ( 'NONE', #108, .T. ) ;
#26 =( NAMED_UNIT ( * ) PLANE_ANGLE_UNIT ( ) SI_UNIT ( $, .RADIAN. ) );
#27 = FACE_BOUND ( 'NONE', #92, .T. ) ;
#28 = AXIS2_PLACEMENT_3D ( 'NONE', #104, #24, #107 ) ;
#29 = CARTESIAN_POINT ( 'NONE',  ( 0.000000000000000000, 8.673617379884035472E-16, 0.000000000000000000 ) ) ;
#30 = EDGE_CURVE ( 'NONE', #64, #238, #334, .T. ) ;
#31 = FACE_OUTER_BOUND ( 'NONE', #323, .T. ) ;
#32 = DIRECTION ( 'NONE',  ( 0.000000000000000000, 0.000000000000000000, 1.000000000000000000 ) ) ;
#33 = CONICAL_SURFACE ( 'NONE', #128, 10.00000000000000000, 0.7853981633974482790 ) ;
#34 = DIRECTION ( 'NONE',  ( -0.000000000000000000, 1.000000000000000000, -0.000000000000000000 ) ) ;
#35 = PRODUCT_DEFINITION_FORMATION_WITH_SPECIFIED_SOURCE ( 'ANY', '', #260, .NOT_KNOWN. ) ;
#36 = EDGE_CURVE ( 'NONE', #13, #171, #225, .T. ) ;
#37 = CARTESIAN_POINT ( 'NONE',  ( 1.224646799147353256E-15, 0.2500000000000002220, 10.00000000000000000 ) ) ;
#38 = CARTESIAN_POINT ( 'NONE',  ( 0.000000000000000000, 0.2500000000000002220, 0.000000000000000000 ) ) ;
#39 = CARTESIAN_POINT ( 'NONE',  ( 1.224646799147353256E-15, 3.000000000000000000, 10.00000000000000000 ) ) ;
#40 = ORIENTED_EDGE ( 'NONE', *, *, #204, .T. ) ;
#41 = DIRECTION ( 'NONE',  ( 0.000000000000000000, 0.000000000000000000, 1.000000000000000000 ) ) ;
#42 = ORIENTED_EDGE ( 'NONE', *, *, #72, .T. ) ;
#43 = VERTEX_POINT ( 'NONE', #80 ) ;
#44 = DIRECTION ( 'NONE',  ( 0.000000000000000000, 0.000000000000000000, 1.000000000000000000 ) ) ;
#45 = ORIENTED_EDGE ( 'NONE', *, *, #164, .T. ) ;
#46 = CONICAL_SURFACE ( 'NONE', #191, 9.750000000000005329, 0.7853981633974415066 ) ;
#47 = CIRCLE ( 'NONE', #2, 5.500000000000000000 ) ;
#48 = ORIENTED_EDGE ( 'NONE', *, *, #75, .F. ) ;
#49 = SURFACE_SIDE_STYLE ('',( #129 ) ) ;
#50 = ORIENTED_EDGE ( 'NONE', *, *, #204, .F. ) ;
#51 = EDGE_LOOP ( 'NONE', ( #10, #242 ) ) ;
#52 = ADVANCED_FACE ( 'NONE', ( #187 ), #139, .T. ) ;
#53 = ORIENTED_EDGE ( 'NONE', *, *, #195, .F. ) ;
#54 = LINE ( 'NONE', #274, #349 ) ;
#55 = PLANE ( 'NONE',  #357 ) ;
#56 = DIRECTION ( 'NONE',  ( 0.000000000000000000, 0.000000000000000000, 1.000000000000000000 ) ) ;
#57 = DIRECTION ( 'NONE',  ( 8.659560562354932858E-17, 0.7071067811865474617, -0.7071067811865474617 ) ) ;
#58 = AXIS2_PLACEMENT_3D ( 'NONE', #147, #178, #324 ) ;
#59 = SURFACE_STYLE_USAGE ( .BOTH. , #336 ) ;
#60 = AXIS2_PLACEMENT_3D ( 'NONE', #91, #316, #121 ) ;
#61 = LINE ( 'NONE', #364, #227 ) ;
#62 = ADVANCED_FACE ( 'NONE', ( #130, #194 ), #55, .T. ) ;
#63 = CARTESIAN_POINT ( 'NONE',  ( 0.000000000000000000, 3.000000000000000000, 0.000000000000000000 ) ) ;
#64 = VERTEX_POINT ( 'NONE', #161 ) ;
#65 = DIRECTION ( 'NONE',  ( 0.000000000000000000, 0.000000000000000000, 1.000000000000000000 ) ) ;
#66 = AXIS2_PLACEMENT_3D ( 'NONE', #155, #252, #251 ) ;
#67 = VERTEX_POINT ( 'NONE', #278 ) ;
#68 = DIRECTION ( 'NONE',  ( -0.000000000000000000, 1.000000000000000000, -0.000000000000000000 ) ) ;
#69 = ORIENTED_EDGE ( 'NONE', *, *, #143, .F. ) ;
#70 = DIRECTION ( 'NONE',  ( -0.000000000000000000, 1.000000000000000000, -0.000000000000000000 ) ) ;
#71 = ORIENTED_EDGE ( 'NONE', *, *, #298, .T. ) ;
#72 = EDGE_CURVE ( 'NONE', #105, #236, #15, .T. ) ;
#73 = EDGE_LOOP ( 'NONE', ( #123, #179, #90, #183 ) ) ;
#74 = EDGE_LOOP ( 'NONE', ( #125, #40, #332, #351 ) ) ;
#75 = EDGE_CURVE ( 'NONE', #105, #221, #272, .T. ) ;
#76 = PLANE ( 'NONE',  #66 ) ;
#77 = ORIENTED_EDGE ( 'NONE', *, *, #75, .T. ) ;
#78 = AXIS2_PLACEMENT_3D ( 'NONE', #86, #253, #56 ) ;
#79 =( LENGTH_UNIT ( ) NAMED_UNIT ( * ) SI_UNIT ( .MILLI., .METRE. ) );
#80 = CARTESIAN_POINT ( 'NONE',  ( 1.209338714158011363E-15, 0.000000000000000000, -9.750000000000000000 ) ) ;
#81 =( NAMED_UNIT ( * ) SI_UNIT ( $, .STERADIAN. ) SOLID_ANGLE_UNIT ( ) );
#82 = DIRECTION ( 'NONE',  ( 0.000000000000000000, 0.000000000000000000, -1.000000000000000000 ) ) ;
#83 = ADVANCED_FACE ( 'NONE', ( #188 ), #279, .T. ) ;
#84 = PRESENTATION_STYLE_ASSIGNMENT (( #59 ) ) ;
#85 = CIRCLE ( 'NONE', #233, 2.749999999999999556 ) ;
#86 = CARTESIAN_POINT ( 'NONE',  ( 0.000000000000000000, 3.000000000000000000, 0.000000000000000000 ) ) ;
#87 = ADVANCED_FACE ( 'NONE', ( #359 ), #33, .T. ) ;
#88 = FILL_AREA_STYLE ('',( #112 ) ) ;
#89 = DIRECTION ( 'NONE',  ( 0.000000000000000000, 0.000000000000000000, 1.000000000000000000 ) ) ;
#90 = ORIENTED_EDGE ( 'NONE', *, *, #258, .F. ) ;
#91 = CARTESIAN_POINT ( 'NONE',  ( 0.000000000000000000, 3.000000000000000000, 0.000000000000000000 ) ) ;
#92 = EDGE_LOOP ( 'NONE', ( #42, #153 ) ) ;
#93 = CARTESIAN_POINT ( 'NONE',  ( 0.000000000000000000, 0.2500000000000002220, 2.749999999999999556 ) ) ;
#94 = AXIS2_PLACEMENT_3D ( 'NONE', #257, #181, #269 ) ;
#95 = ORIENTED_EDGE ( 'NONE', *, *, #195, .T. ) ;
#96 = COLOUR_RGB ( '',1.000000000000000000, 1.000000000000000000, 1.000000000000000000 ) ;
#97 = DIRECTION ( 'NONE',  ( 0.000000000000000000, 0.000000000000000000, 1.000000000000000000 ) ) ;
#98 = ORIENTED_EDGE ( 'NONE', *, *, #231, .F. ) ;
#99 = EDGE_CURVE ( 'NONE', #221, #158, #338, .T. ) ;
#100 = ORIENTED_EDGE ( 'NONE', *, *, #19, .F. ) ;
#101 = FILL_AREA_STYLE ('',( #186 ) ) ;
#102 = DIRECTION ( 'NONE',  ( 0.000000000000000000, 0.000000000000000000, 1.000000000000000000 ) ) ;
#103 = PRODUCT_RELATED_PRODUCT_CATEGORY ( 'part', '', ( #260 ) ) ;
#104 = CARTESIAN_POINT ( 'NONE',  ( 0.000000000000000000, 0.000000000000000000, 0.000000000000000000 ) ) ;
#105 = VERTEX_POINT ( 'NONE', #115 ) ;
#106 = CARTESIAN_POINT ( 'NONE',  ( 0.000000000000000000, 0.2500000000000002220, 0.000000000000000000 ) ) ;
#107 = DIRECTION ( 'NONE',  ( 1.000000000000000000, 0.000000000000000000, 0.000000000000000000 ) ) ;
#108 = EDGE_LOOP ( 'NONE', ( #285, #330, #150, #289 ) ) ;
#109 = AXIS2_PLACEMENT_3D ( 'NONE', #347, #68, #65 ) ;
#110 = CARTESIAN_POINT ( 'NONE',  ( 0.000000000000000000, 3.000000000000000000, -9.750000000000005329 ) ) ;
#111 = DIRECTION ( 'NONE',  ( -0.000000000000000000, 1.000000000000000000, -0.000000000000000000 ) ) ;
#112 = FILL_AREA_STYLE_COLOUR ( '', #133 ) ;
#113 = PRESENTATION_LAYER_ASSIGNMENT (  '', '', ( #239 ) ) ;
#114 = AXIS2_PLACEMENT_3D ( 'NONE', #63, #5, #322 ) ;
#115 = CARTESIAN_POINT ( 'NONE',  ( 0.000000000000000000, 8.673617379884035472E-16, 2.749999999999998668 ) ) ;
#116 = DIRECTION ( 'NONE',  ( 0.000000000000000000, 0.000000000000000000, -1.000000000000000000 ) ) ;
#117 = CARTESIAN_POINT ( 'NONE',  ( 0.000000000000000000, 3.000000000000000000, 0.000000000000000000 ) ) ;
#118 = MANIFOLD_SOLID_BREP ( 'Fraisage pour vis à tête fraisée M51', #207 ) ;
#119 = VERTEX_POINT ( 'NONE', #37 ) ;
#120 = ADVANCED_FACE ( 'NONE', ( #31 ), #307, .F. ) ;
#121 = DIRECTION ( 'NONE',  ( 0.000000000000000000, 0.000000000000000000, 1.000000000000000000 ) ) ;
#122 = CIRCLE ( 'NONE', #247, 2.749999999999999556 ) ;
#123 = ORIENTED_EDGE ( 'NONE', *, *, #326, .F. ) ;
#124 = DIRECTION ( 'NONE',  ( -0.000000000000000000, -1.000000000000000000, -0.000000000000000000 ) ) ;
#125 = ORIENTED_EDGE ( 'NONE', *, *, #219, .T. ) ;
#126 = ORIENTED_EDGE ( 'NONE', *, *, #254, .F. ) ;
#127 = DIRECTION ( 'NONE',  ( 0.000000000000000000, 0.000000000000000000, 1.000000000000000000 ) ) ;
#128 = AXIS2_PLACEMENT_3D ( 'NONE', #106, #302, #313 ) ;
#129 = SURFACE_STYLE_FILL_AREA ( #101 ) ;
#130 = FACE_BOUND ( 'NONE', #51, .T. ) ;
#131 = CARTESIAN_POINT ( 'NONE',  ( 0.000000000000000000, 3.000000000000000000, 0.000000000000000000 ) ) ;
#132 = LINE ( 'NONE', #217, #362 ) ;
#133 = COLOUR_RGB ( '',1.000000000000000000, 1.000000000000000000, 1.000000000000000000 ) ;
#134 =( GEOMETRIC_REPRESENTATION_CONTEXT ( 3 ) GLOBAL_UNCERTAINTY_ASSIGNED_CONTEXT ( ( #335 ) ) GLOBAL_UNIT_ASSIGNED_CONTEXT ( ( #79, #26, #81 ) ) REPRESENTATION_CONTEXT ( 'NONE', 'WORKASPACE' ) );
#135 = DIRECTION ( 'NONE',  ( -0.000000000000000000, 1.000000000000000000, -0.000000000000000000 ) ) ;
#136 = EDGE_CURVE ( 'NONE', #236, #13, #309, .T. ) ;
#137 = FACE_OUTER_BOUND ( 'NONE', #294, .T. ) ;
#138 = PRODUCT_DEFINITION_CONTEXT ( 'detailed design', #180, 'design' ) ;
#139 = CONICAL_SURFACE ( 'NONE', #189, 9.750000000000005329, 0.7853981633974415066 ) ;
#140 = CARTESIAN_POINT ( 'NONE',  ( 6.735557395310442023E-16, 3.000000000000000000, -5.500000000000000000 ) ) ;
#141 = CARTESIAN_POINT ( 'NONE',  ( 0.000000000000000000, 3.000000000000000000, 5.500000000000000000 ) ) ;
#142 = CARTESIAN_POINT ( 'NONE',  ( 0.000000000000000000, 0.2500000000000002220, 0.000000000000000000 ) ) ;
#143 = EDGE_CURVE ( 'NONE', #43, #67, #196, .T. ) ;
#144 = VECTOR ( 'NONE', #299, 1000.000000000000000 ) ;
#145 = DIRECTION ( 'NONE',  ( 0.000000000000000000, 0.000000000000000000, 1.000000000000000000 ) ) ;
#146 = ORIENTED_EDGE ( 'NONE', *, *, #231, .T. ) ;
#147 = CARTESIAN_POINT ( 'NONE',  ( 0.000000000000000000, 8.673617379884035472E-16, 0.000000000000000000 ) ) ;
#148 = ORIENTED_EDGE ( 'NONE', *, *, #219, .F. ) ;
#149 = DIRECTION ( 'NONE',  ( -0.000000000000000000, -1.000000000000000000, -0.000000000000000000 ) ) ;
#150 = ORIENTED_EDGE ( 'NONE', *, *, #99, .T. ) ;
#151 = CARTESIAN_POINT ( 'NONE',  ( 0.000000000000000000, 2.750000000000001776, -10.00000000000000000 ) ) ;
#152 = AXIS2_PLACEMENT_3D ( 'NONE', #142, #9, #208 ) ;
#153 = ORIENTED_EDGE ( 'NONE', *, *, #212, .T. ) ;
#154 = ORIENTED_EDGE ( 'NONE', *, *, #72, .F. ) ;
#155 = CARTESIAN_POINT ( 'NONE',  ( 0.000000000000000000, 0.000000000000000000, 0.000000000000000000 ) ) ;
#156 = CARTESIAN_POINT ( 'NONE',  ( 3.367778697655221012E-16, 0.2500000000000002220, -2.749999999999999556 ) ) ;
#157 = AXIS2_PLACEMENT_3D ( 'NONE', #311, #34, #169 ) ;
#158 = VERTEX_POINT ( 'NONE', #340 ) ;
#159 = EDGE_CURVE ( 'NONE', #158, #171, #162, .T. ) ;
#160 = DIRECTION ( 'NONE',  ( 0.000000000000000000, -0.7071067811865524577, -0.7071067811865426878 ) ) ;
#161 = CARTESIAN_POINT ( 'NONE',  ( 0.000000000000000000, 3.000000000000000000, -9.750000000000005329 ) ) ;
#162 = CIRCLE ( 'NONE', #157, 5.500000000000000000 ) ;
#163 = CARTESIAN_POINT ( 'NONE',  ( 1.224646799147353256E-15, 0.2500000000000002220, -10.00000000000000000 ) ) ;
#164 = EDGE_CURVE ( 'NONE', #238, #67, #61, .T. ) ;
#165 = DIRECTION ( 'NONE',  ( -0.000000000000000000, 1.000000000000000000, -0.000000000000000000 ) ) ;
#166 = DIRECTION ( 'NONE',  ( -0.000000000000000000, 1.000000000000000000, -0.000000000000000000 ) ) ;
#167 = AXIS2_PLACEMENT_3D ( 'NONE', #229, #3, #244 ) ;
#168 = CIRCLE ( 'NONE', #223, 9.750000000000000000 ) ;
#169 = DIRECTION ( 'NONE',  ( 0.000000000000000000, 0.000000000000000000, 1.000000000000000000 ) ) ;
#170 = EDGE_CURVE ( 'NONE', #221, #13, #122, .T. ) ;
#171 = VERTEX_POINT ( 'NONE', #140 ) ;
#172 = AXIS2_PLACEMENT_3D ( 'NONE', #29, #135, #102 ) ;
#173 = CONICAL_SURFACE ( 'NONE', #114, 5.500000000000000000, 0.7853981633974483900 ) ;
#174 = CARTESIAN_POINT ( 'NONE',  ( 0.000000000000000000, 2.750000000000001776, 0.000000000000000000 ) ) ;
#175 = ORIENTED_EDGE ( 'NONE', *, *, #4, .T. ) ;
#176 = DIRECTION ( 'NONE',  ( 0.000000000000000000, -1.000000000000000000, 0.000000000000000000 ) ) ;
#177 = ORIENTED_EDGE ( 'NONE', *, *, #212, .F. ) ;
#178 = DIRECTION ( 'NONE',  ( -0.000000000000000000, 1.000000000000000000, -0.000000000000000000 ) ) ;
#179 = ORIENTED_EDGE ( 'NONE', *, *, #143, .T. ) ;
#180 = APPLICATION_CONTEXT ( 'automotive_design' ) ;
#181 = DIRECTION ( 'NONE',  ( -0.000000000000000000, -1.000000000000000000, -0.000000000000000000 ) ) ;
#182 = VECTOR ( 'NONE', #57, 1000.000000000000114 ) ;
#183 = ORIENTED_EDGE ( 'NONE', *, *, #4, .F. ) ;
#184 = STYLED_ITEM ( 'NONE', ( #249 ), #243 ) ;
#185 = ORIENTED_EDGE ( 'NONE', *, *, #292, .T. ) ;
#186 = FILL_AREA_STYLE_COLOUR ( '', #96 ) ;
#187 = FACE_OUTER_BOUND ( 'NONE', #320, .T. ) ;
#188 = FACE_OUTER_BOUND ( 'NONE', #73, .T. ) ;
#189 = AXIS2_PLACEMENT_3D ( 'NONE', #300, #192, #82 ) ;
#190 = PRODUCT_DEFINITION ( 'UNKNOWN', '', #35, #138 ) ;
#191 = AXIS2_PLACEMENT_3D ( 'NONE', #261, #176, #116 ) ;
#192 = DIRECTION ( 'NONE',  ( 0.000000000000000000, -1.000000000000000000, 0.000000000000000000 ) ) ;
#193 = SHAPE_DEFINITION_REPRESENTATION ( #287, #243 ) ;
#194 = FACE_OUTER_BOUND ( 'NONE', #245, .T. ) ;
#195 = EDGE_CURVE ( 'NONE', #13, #221, #85, .T. ) ;
#196 = LINE ( 'NONE', #163, #182 ) ;
#197 = CARTESIAN_POINT ( 'NONE',  ( 3.367778697655220026E-16, 3.000000000000000000, -2.749999999999999112 ) ) ;
#198 = ADVANCED_FACE ( 'NONE', ( #137 ), #255, .F. ) ;
#199 = CIRCLE ( 'NONE', #337, 9.750000000000005329 ) ;
#200 = MECHANICAL_DESIGN_GEOMETRIC_PRESENTATION_REPRESENTATION (  '', ( #184 ), #134 ) ;
#201 =( NAMED_UNIT ( * ) SI_UNIT ( $, .STERADIAN. ) SOLID_ANGLE_UNIT ( ) );
#202 = DIRECTION ( 'NONE',  ( 0.000000000000000000, 1.000000000000000000, 0.000000000000000000 ) ) ;
#203 = ORIENTED_EDGE ( 'NONE', *, *, #19, .T. ) ;
#204 = EDGE_CURVE ( 'NONE', #345, #119, #343, .T. ) ;
#205 = FACE_OUTER_BOUND ( 'NONE', #271, .T. ) ;
#206 = ORIENTED_EDGE ( 'NONE', *, *, #292, .F. ) ;
#207 = CLOSED_SHELL ( 'NONE', ( #346, #198, #282, #83, #268, #277, #62, #23, #87, #52, #120, #11 ) ) ;
#208 = DIRECTION ( 'NONE',  ( 0.000000000000000000, 0.000000000000000000, 1.000000000000000000 ) ) ;
#209 = ORIENTED_EDGE ( 'NONE', *, *, #36, .T. ) ;
#210 = CARTESIAN_POINT ( 'NONE',  ( 1.224646799147353256E-15, 2.750000000000001776, 10.00000000000000000 ) ) ;
#211 = ORIENTED_EDGE ( 'NONE', *, *, #321, .T. ) ;
#212 = EDGE_CURVE ( 'NONE', #236, #105, #318, .T. ) ;
#213 = PRODUCT_CONTEXT ( 'NONE', #354, 'mechanical' ) ;
#214 = CIRCLE ( 'NONE', #152, 10.00000000000000000 ) ;
#215 = CIRCLE ( 'NONE', #6, 10.00000000000000000 ) ;
#216 = FACE_OUTER_BOUND ( 'NONE', #264, .T. ) ;
#217 = CARTESIAN_POINT ( 'NONE',  ( 0.000000000000000000, 0.2500000000000002220, 10.00000000000000000 ) ) ;
#218 =( NAMED_UNIT ( * ) PLANE_ANGLE_UNIT ( ) SI_UNIT ( $, .RADIAN. ) );
#219 = EDGE_CURVE ( 'NONE', #238, #345, #215, .T. ) ;
#220 = DIRECTION ( 'NONE',  ( -0.000000000000000000, 1.000000000000000000, -0.000000000000000000 ) ) ;
#221 = VERTEX_POINT ( 'NONE', #93 ) ;
#222 = VECTOR ( 'NONE', #310, 1000.000000000000000 ) ;
#223 = AXIS2_PLACEMENT_3D ( 'NONE', #293, #284, #44 ) ;
#224 = APPLICATION_PROTOCOL_DEFINITION ( 'draft international standard', 'automotive_design', 1998, #180 ) ;
#225 = LINE ( 'NONE', #305, #144 ) ;
#226 = UNCERTAINTY_MEASURE_WITH_UNIT (LENGTH_MEASURE( 1.000000000000000082E-05 ), #333, 'distance_accuracy_value', 'NONE');
#227 = VECTOR ( 'NONE', #280, 1000.000000000000000 ) ;
#228 = CIRCLE ( 'NONE', #60, 9.750000000000005329 ) ;
#229 = CARTESIAN_POINT ( 'NONE',  ( 0.000000000000000000, 3.000000000000000000, 0.000000000000000000 ) ) ;
#230 =( LENGTH_UNIT ( ) NAMED_UNIT ( * ) SI_UNIT ( .MILLI., .METRE. ) );
#231 = EDGE_CURVE ( 'NONE', #67, #119, #267, .T. ) ;
#232 = SURFACE_STYLE_FILL_AREA ( #88 ) ;
#233 = AXIS2_PLACEMENT_3D ( 'NONE', #256, #165, #281 ) ;
#234 = CARTESIAN_POINT ( 'NONE',  ( 0.000000000000000000, 0.000000000000000000, 9.750000000000000000 ) ) ;
#235 = CARTESIAN_POINT ( 'NONE',  ( 0.000000000000000000, 2.750000000000001776, 0.000000000000000000 ) ) ;
#236 = VERTEX_POINT ( 'NONE', #263 ) ;
#237 = CYLINDRICAL_SURFACE ( 'NONE', #259, 10.00000000000000000 ) ;
#238 = VERTEX_POINT ( 'NONE', #151 ) ;
#239 = STYLED_ITEM ( 'NONE', ( #84 ), #118 ) ;
#240 = CIRCLE ( 'NONE', #328, 9.750000000000000000 ) ;
#241 = FACE_OUTER_BOUND ( 'NONE', #270, .T. ) ;
#242 = ORIENTED_EDGE ( 'NONE', *, *, #298, .F. ) ;
#243 = ADVANCED_BREP_SHAPE_REPRESENTATION ( 'K4-RONDELLE DE BLOCAGE VILLEBREQUIN', ( #118, #28 ), #8 ) ;
#244 = DIRECTION ( 'NONE',  ( 0.000000000000000000, 0.000000000000000000, 1.000000000000000000 ) ) ;
#245 = EDGE_LOOP ( 'NONE', ( #266, #246 ) ) ;
#246 = ORIENTED_EDGE ( 'NONE', *, *, #254, .T. ) ;
#247 = AXIS2_PLACEMENT_3D ( 'NONE', #38, #111, #32 ) ;
#248 = EDGE_LOOP ( 'NONE', ( #69, #358, #175, #98 ) ) ;
#249 = PRESENTATION_STYLE_ASSIGNMENT (( #355 ) ) ;
#250 = CARTESIAN_POINT ( 'NONE',  ( 0.000000000000000000, 3.000000000000000000, 0.000000000000000000 ) ) ;
#251 = DIRECTION ( 'NONE',  ( 0.000000000000000000, -0.000000000000000000, 1.000000000000000000 ) ) ;
#252 = DIRECTION ( 'NONE',  ( 0.000000000000000000, 1.000000000000000000, 0.000000000000000000 ) ) ;
#253 = DIRECTION ( 'NONE',  ( -0.000000000000000000, 1.000000000000000000, -0.000000000000000000 ) ) ;
#254 = EDGE_CURVE ( 'NONE', #315, #64, #199, .T. ) ;
#255 = CYLINDRICAL_SURFACE ( 'NONE', #167, 2.749999999999999112 ) ;
#256 = CARTESIAN_POINT ( 'NONE',  ( 0.000000000000000000, 0.2500000000000002220, 0.000000000000000000 ) ) ;
#257 = CARTESIAN_POINT ( 'NONE',  ( 0.000000000000000000, 3.000000000000000000, 0.000000000000000000 ) ) ;
#258 = EDGE_CURVE ( 'NONE', #119, #67, #214, .T. ) ;
#259 = AXIS2_PLACEMENT_3D ( 'NONE', #344, #149, #12 ) ;
#260 = PRODUCT ( 'K4-RONDELLE DE BLOCAGE VILLEBREQUIN', 'K4-RONDELLE DE BLOCAGE VILLEBREQUIN', '', ( #213 ) ) ;
#261 = CARTESIAN_POINT ( 'NONE',  ( 0.000000000000000000, 3.000000000000000000, 0.000000000000000000 ) ) ;
#262 = ORIENTED_EDGE ( 'NONE', *, *, #30, .T. ) ;
#263 = CARTESIAN_POINT ( 'NONE',  ( 3.367778697655219532E-16, 8.673617379884035472E-16, -2.749999999999998668 ) ) ;
#264 = EDGE_LOOP ( 'NONE', ( #211, #291 ) ) ;
#265 = DIRECTION ( 'NONE',  ( 0.000000000000000000, -1.000000000000000000, 0.000000000000000000 ) ) ;
#266 = ORIENTED_EDGE ( 'NONE', *, *, #342, .T. ) ;
#267 = CIRCLE ( 'NONE', #109, 10.00000000000000000 ) ;
#268 = ADVANCED_FACE ( 'NONE', ( #290 ), #319, .T. ) ;
#269 = DIRECTION ( 'NONE',  ( 0.000000000000000000, 0.000000000000000000, -1.000000000000000000 ) ) ;
#270 = EDGE_LOOP ( 'NONE', ( #50, #185, #45, #146 ) ) ;
#271 = EDGE_LOOP ( 'NONE', ( #126, #203, #148, #317 ) ) ;
#272 = LINE ( 'NONE', #331, #286 ) ;
#273 = AXIS2_PLACEMENT_3D ( 'NONE', #20, #220, #127 ) ;
#274 = CARTESIAN_POINT ( 'NONE',  ( 1.194030629168670061E-15, 3.000000000000000000, 9.750000000000005329 ) ) ;
#275 = DIRECTION ( 'NONE',  ( 0.000000000000000000, 0.7071067811865474617, 0.7071067811865474617 ) ) ;
#276 = DIRECTION ( 'NONE',  ( 8.659560562354873694E-17, -0.7071067811865524577, 0.7071067811865426878 ) ) ;
#277 = ADVANCED_FACE ( 'NONE', ( #241 ), #237, .T. ) ;
#278 = CARTESIAN_POINT ( 'NONE',  ( 0.000000000000000000, 0.2500000000000002220, -10.00000000000000000 ) ) ;
#279 = CONICAL_SURFACE ( 'NONE', #273, 10.00000000000000000, 0.7853981633974482790 ) ;
#280 = DIRECTION ( 'NONE',  ( -0.000000000000000000, -1.000000000000000000, -0.000000000000000000 ) ) ;
#281 = DIRECTION ( 'NONE',  ( 0.000000000000000000, 0.000000000000000000, 1.000000000000000000 ) ) ;
#282 = ADVANCED_FACE ( 'NONE', ( #205 ), #46, .T. ) ;
#283 = CONICAL_SURFACE ( 'NONE', #306, 5.500000000000000000, 0.7853981633974483900 ) ;
#284 = DIRECTION ( 'NONE',  ( -0.000000000000000000, -1.000000000000000000, -0.000000000000000000 ) ) ;
#285 = ORIENTED_EDGE ( 'NONE', *, *, #36, .F. ) ;
#286 = VECTOR ( 'NONE', #303, 1000.000000000000000 ) ;
#287 = PRODUCT_DEFINITION_SHAPE ( 'NONE', 'NONE',  #190 ) ;
#288 = CARTESIAN_POINT ( 'NONE',  ( 0.000000000000000000, 3.000000000000000000, 0.000000000000000000 ) ) ;
#289 = ORIENTED_EDGE ( 'NONE', *, *, #159, .T. ) ;
#290 = FACE_OUTER_BOUND ( 'NONE', #74, .T. ) ;
#291 = ORIENTED_EDGE ( 'NONE', *, *, #326, .T. ) ;
#292 = EDGE_CURVE ( 'NONE', #345, #238, #301, .T. ) ;
#293 = CARTESIAN_POINT ( 'NONE',  ( 0.000000000000000000, 0.000000000000000000, 0.000000000000000000 ) ) ;
#294 = EDGE_LOOP ( 'NONE', ( #177, #17, #95, #48 ) ) ;
#295 =( GEOMETRIC_REPRESENTATION_CONTEXT ( 3 ) GLOBAL_UNCERTAINTY_ASSIGNED_CONTEXT ( ( #304 ) ) GLOBAL_UNIT_ASSIGNED_CONTEXT ( ( #230, #1, #201 ) ) REPRESENTATION_CONTEXT ( 'NONE', 'WORKASPACE' ) );
#296 = FACE_OUTER_BOUND ( 'NONE', #325, .T. ) ;
#297 = ORIENTED_EDGE ( 'NONE', *, *, #170, .T. ) ;
#298 = EDGE_CURVE ( 'NONE', #171, #158, #47, .T. ) ;
#299 = DIRECTION ( 'NONE',  ( 8.659560562354934091E-17, 0.7071067811865474617, -0.7071067811865475727 ) ) ;
#300 = CARTESIAN_POINT ( 'NONE',  ( 0.000000000000000000, 3.000000000000000000, 0.000000000000000000 ) ) ;
#301 = CIRCLE ( 'NONE', #339, 10.00000000000000000 ) ;
#302 = DIRECTION ( 'NONE',  ( -0.000000000000000000, 1.000000000000000000, -0.000000000000000000 ) ) ;
#303 = DIRECTION ( 'NONE',  ( -0.000000000000000000, 1.000000000000000000, -0.000000000000000000 ) ) ;
#304 = UNCERTAINTY_MEASURE_WITH_UNIT (LENGTH_MEASURE( 1.000000000000000082E-05 ), #230, 'distance_accuracy_value', 'NONE');
#305 = CARTESIAN_POINT ( 'NONE',  ( 6.735557395310442023E-16, 3.000000000000000000, -5.500000000000000000 ) ) ;
#306 = AXIS2_PLACEMENT_3D ( 'NONE', #250, #363, #22 ) ;
#307 = CYLINDRICAL_SURFACE ( 'NONE', #78, 2.749999999999999112 ) ;
#308 = PRESENTATION_LAYER_ASSIGNMENT (  '', '', ( #184 ) ) ;
#309 = LINE ( 'NONE', #197, #341 ) ;
#310 = DIRECTION ( 'NONE',  ( 0.000000000000000000, 0.7071067811865474617, 0.7071067811865475727 ) ) ;
#311 = CARTESIAN_POINT ( 'NONE',  ( 0.000000000000000000, 3.000000000000000000, 0.000000000000000000 ) ) ;
#312 = VECTOR ( 'NONE', #160, 1000.000000000000000 ) ;
#313 = DIRECTION ( 'NONE',  ( 0.000000000000000000, 0.000000000000000000, 1.000000000000000000 ) ) ;
#314 = CARTESIAN_POINT ( 'NONE',  ( 1.209338714158011757E-15, 3.000000000000000000, 9.750000000000005329 ) ) ;
#315 = VERTEX_POINT ( 'NONE', #314 ) ;
#316 = DIRECTION ( 'NONE',  ( 0.000000000000000000, 1.000000000000000000, 0.000000000000000000 ) ) ;
#317 = ORIENTED_EDGE ( 'NONE', *, *, #30, .F. ) ;
#318 = CIRCLE ( 'NONE', #58, 2.749999999999998668 ) ;
#319 = CYLINDRICAL_SURFACE ( 'NONE', #94, 10.00000000000000000 ) ;
#320 = EDGE_LOOP ( 'NONE', ( #100, #329, #262, #206 ) ) ;
#321 = EDGE_CURVE ( 'NONE', #353, #43, #240, .T. ) ;
#322 = DIRECTION ( 'NONE',  ( 0.000000000000000000, 0.000000000000000000, 1.000000000000000000 ) ) ;
#323 = EDGE_LOOP ( 'NONE', ( #348, #154, #77, #297 ) ) ;
#324 = DIRECTION ( 'NONE',  ( 0.000000000000000000, 0.000000000000000000, 1.000000000000000000 ) ) ;
#325 = EDGE_LOOP ( 'NONE', ( #53, #209, #71, #18 ) ) ;
#326 = EDGE_CURVE ( 'NONE', #43, #353, #168, .T. ) ;
#327 = MECHANICAL_DESIGN_GEOMETRIC_PRESENTATION_REPRESENTATION (  '', ( #239 ), #295 ) ;
#328 = AXIS2_PLACEMENT_3D ( 'NONE', #16, #124, #97 ) ;
#329 = ORIENTED_EDGE ( 'NONE', *, *, #342, .F. ) ;
#330 = ORIENTED_EDGE ( 'NONE', *, *, #170, .F. ) ;
#331 = CARTESIAN_POINT ( 'NONE',  ( 0.000000000000000000, 3.000000000000000000, 2.749999999999999112 ) ) ;
#332 = ORIENTED_EDGE ( 'NONE', *, *, #258, .T. ) ;
#333 =( LENGTH_UNIT ( ) NAMED_UNIT ( * ) SI_UNIT ( .MILLI., .METRE. ) );
#334 = LINE ( 'NONE', #110, #312 ) ;
#335 = UNCERTAINTY_MEASURE_WITH_UNIT (LENGTH_MEASURE( 1.000000000000000082E-05 ), #79, 'distance_accuracy_value', 'NONE');
#336 = SURFACE_SIDE_STYLE ('',( #232 ) ) ;
#337 = AXIS2_PLACEMENT_3D ( 'NONE', #117, #202, #145 ) ;
#338 = LINE ( 'NONE', #141, #222 ) ;
#339 = AXIS2_PLACEMENT_3D ( 'NONE', #174, #14, #41 ) ;
#340 = CARTESIAN_POINT ( 'NONE',  ( 0.000000000000000000, 3.000000000000000000, 5.500000000000000000 ) ) ;
#341 = VECTOR ( 'NONE', #166, 1000.000000000000000 ) ;
#342 = EDGE_CURVE ( 'NONE', #64, #315, #228, .T. ) ;
#343 = LINE ( 'NONE', #39, #7 ) ;
#344 = CARTESIAN_POINT ( 'NONE',  ( 0.000000000000000000, 3.000000000000000000, 0.000000000000000000 ) ) ;
#345 = VERTEX_POINT ( 'NONE', #210 ) ;
#346 = ADVANCED_FACE ( 'NONE', ( #296 ), #173, .F. ) ;
#347 = CARTESIAN_POINT ( 'NONE',  ( 0.000000000000000000, 0.2500000000000002220, 0.000000000000000000 ) ) ;
#348 = ORIENTED_EDGE ( 'NONE', *, *, #136, .F. ) ;
#349 = VECTOR ( 'NONE', #276, 1000.000000000000000 ) ;
#350 = DIRECTION ( 'NONE',  ( 0.000000000000000000, 0.000000000000000000, 1.000000000000000000 ) ) ;
#351 = ORIENTED_EDGE ( 'NONE', *, *, #164, .F. ) ;
#352 = DIRECTION ( 'NONE',  ( -0.000000000000000000, -1.000000000000000000, -0.000000000000000000 ) ) ;
#353 = VERTEX_POINT ( 'NONE', #234 ) ;
#354 = APPLICATION_CONTEXT ( 'automotive_design' ) ;
#355 = SURFACE_STYLE_USAGE ( .BOTH. , #49 ) ;
#356 = DIRECTION ( 'NONE',  ( 0.000000000000000000, 1.000000000000000000, 0.000000000000000000 ) ) ;
#357 = AXIS2_PLACEMENT_3D ( 'NONE', #131, #356, #361 ) ;
#358 = ORIENTED_EDGE ( 'NONE', *, *, #321, .F. ) ;
#359 = FACE_OUTER_BOUND ( 'NONE', #248, .T. ) ;
#360 = APPLICATION_PROTOCOL_DEFINITION ( 'draft international standard', 'automotive_design', 1998, #354 ) ;
#361 = DIRECTION ( 'NONE',  ( 0.000000000000000000, -0.000000000000000000, 1.000000000000000000 ) ) ;
#362 = VECTOR ( 'NONE', #275, 1000.000000000000114 ) ;
#363 = DIRECTION ( 'NONE',  ( -0.000000000000000000, 1.000000000000000000, -0.000000000000000000 ) ) ;
#364 = CARTESIAN_POINT ( 'NONE',  ( 0.000000000000000000, 3.000000000000000000, -10.00000000000000000 ) ) ;
ENDSEC;
END-ISO-10303-21;
