ISO-10303-21;
HEADER;
FILE_DESCRIPTION (( 'STEP AP214' ),
    '1' );
FILE_NAME ('K4-RONDELLE D''APPUI.STEP',
    '2022-05-23T19:05:36',
    ( '' ),
    ( '' ),
    'SwSTEP 2.0',
    'SolidWorks 2021',
    '' );
FILE_SCHEMA (( 'AUTOMOTIVE_DESIGN' ));
ENDSEC;

DATA;
#1 = ORIENTED_EDGE ( 'NONE', *, *, #168, .F. ) ;
#2 = VECTOR ( 'NONE', #98, 1000.000000000000114 ) ;
#3 = AXIS2_PLACEMENT_3D ( 'NONE', #25, #387, #154 ) ;
#4 = PLANE ( 'NONE',  #53 ) ;
#5 = ORIENTED_EDGE ( 'NONE', *, *, #366, .T. ) ;
#6 = PRESENTATION_STYLE_ASSIGNMENT (( #281 ) ) ;
#7 = ORIENTED_EDGE ( 'NONE', *, *, #242, .T. ) ;
#8 = DIRECTION ( 'NONE',  ( 1.000000000000000000, 0.000000000000000000, 0.000000000000000000 ) ) ;
#9 = DIRECTION ( 'NONE',  ( 0.000000000000000000, -1.000000000000000000, 0.000000000000000000 ) ) ;
#10 = PRESENTATION_LAYER_ASSIGNMENT (  '', '', ( #178 ) ) ;
#11 = SURFACE_SIDE_STYLE ('',( #72 ) ) ;
#12 = VECTOR ( 'NONE', #76, 1000.000000000000114 ) ;
#13 = FACE_OUTER_BOUND ( 'NONE', #370, .T. ) ;
#14 = DIRECTION ( 'NONE',  ( 0.000000000000000000, 0.000000000000000000, 1.000000000000000000 ) ) ;
#15 = DIRECTION ( 'NONE',  ( 0.000000000000000000, 1.000000000000000000, 0.000000000000000000 ) ) ;
#16 = CARTESIAN_POINT ( 'NONE',  ( 0.000000000000000000, 5.000000000000000000, 0.000000000000000000 ) ) ;
#17 = ADVANCED_FACE ( 'NONE', ( #13 ), #251, .T. ) ;
#18 = CARTESIAN_POINT ( 'NONE',  ( 1.714505518806294638E-15, 5.000000000000000000, 14.00000000000000000 ) ) ;
#19 = AXIS2_PLACEMENT_3D ( 'NONE', #40, #373, #97 ) ;
#20 = DIRECTION ( 'NONE',  ( -0.000000000000000000, -1.000000000000000000, -0.000000000000000000 ) ) ;
#21 = EDGE_CURVE ( 'NONE', #33, #123, #310, .T. ) ;
#22 = SURFACE_SIDE_STYLE ('',( #197 ) ) ;
#23 = CARTESIAN_POINT ( 'NONE',  ( 0.000000000000000000, 0.000000000000000000, 0.000000000000000000 ) ) ;
#24 = AXIS2_PLACEMENT_3D ( 'NONE', #50, #55, #142 ) ;
#25 = CARTESIAN_POINT ( 'NONE',  ( 0.000000000000000000, 4.000000000000000000, 0.000000000000000000 ) ) ;
#26 = CARTESIAN_POINT ( 'NONE',  ( 0.000000000000000000, 0.000000000000000000, -5.049999999999999822 ) ) ;
#27 = ORIENTED_EDGE ( 'NONE', *, *, #168, .T. ) ;
#28 = CIRCLE ( 'NONE', #144, 13.75000000000000355 ) ;
#29 = DIRECTION ( 'NONE',  ( -0.000000000000000000, -1.000000000000000000, -0.000000000000000000 ) ) ;
#30 = ORIENTED_EDGE ( 'NONE', *, *, #128, .F. ) ;
#31 = PRODUCT_RELATED_PRODUCT_CATEGORY ( 'part', '', ( #354 ) ) ;
#32 = DIRECTION ( 'NONE',  ( 0.000000000000000000, 0.000000000000000000, -1.000000000000000000 ) ) ;
#33 = VERTEX_POINT ( 'NONE', #282 ) ;
#34 = PLANE ( 'NONE',  #385 ) ;
#35 = ORIENTED_EDGE ( 'NONE', *, *, #99, .T. ) ;
#36 = FACE_OUTER_BOUND ( 'NONE', #193, .T. ) ;
#37 = ORIENTED_EDGE ( 'NONE', *, *, #256, .T. ) ;
#38 = DIRECTION ( 'NONE',  ( 0.000000000000000000, 0.000000000000000000, 1.000000000000000000 ) ) ;
#39 = EDGE_CURVE ( 'NONE', #279, #123, #111, .T. ) ;
#40 = CARTESIAN_POINT ( 'NONE',  ( 0.000000000000000000, 4.000000000000000000, 0.000000000000000000 ) ) ;
#41 = AXIS2_PLACEMENT_3D ( 'NONE', #253, #217, #38 ) ;
#42 = DIRECTION ( 'NONE',  ( 0.000000000000000000, 0.000000000000000000, 1.000000000000000000 ) ) ;
#43 = DIRECTION ( 'NONE',  ( -0.000000000000000000, 1.000000000000000000, -0.000000000000000000 ) ) ;
#44 = EDGE_CURVE ( 'NONE', #334, #337, #200, .T. ) ;
#45 = CARTESIAN_POINT ( 'NONE',  ( 1.714505518806294638E-15, 0.2499999999999950040, 14.00000000000000000 ) ) ;
#46 = CARTESIAN_POINT ( 'NONE',  ( 0.000000000000000000, 4.000000000000000000, 0.000000000000000000 ) ) ;
#47 = EDGE_LOOP ( 'NONE', ( #250, #275, #103, #273 ) ) ;
#48 = CARTESIAN_POINT ( 'NONE',  ( 0.000000000000000000, 0.000000000000000000, 0.000000000000000000 ) ) ;
#49 = STYLED_ITEM ( 'NONE', ( #6 ), #172 ) ;
#50 = CARTESIAN_POINT ( 'NONE',  ( 0.000000000000000000, 5.000000000000000000, 0.000000000000000000 ) ) ;
#51 = DIRECTION ( 'NONE',  ( 0.000000000000000000, -1.000000000000000000, 0.000000000000000000 ) ) ;
#52 = AXIS2_PLACEMENT_3D ( 'NONE', #69, #9, #340 ) ;
#53 = AXIS2_PLACEMENT_3D ( 'NONE', #58, #394, #364 ) ;
#54 = EDGE_CURVE ( 'NONE', #382, #332, #67, .T. ) ;
#55 = DIRECTION ( 'NONE',  ( -0.000000000000000000, -1.000000000000000000, -0.000000000000000000 ) ) ;
#56 = CARTESIAN_POINT ( 'NONE',  ( 0.000000000000000000, 5.000000000000000000, -13.75000000000000355 ) ) ;
#57 = ORIENTED_EDGE ( 'NONE', *, *, #311, .T. ) ;
#58 = CARTESIAN_POINT ( 'NONE',  ( 0.000000000000000000, 5.000000000000000000, 0.000000000000000000 ) ) ;
#59 = ORIENTED_EDGE ( 'NONE', *, *, #39, .F. ) ;
#60 = PRODUCT_DEFINITION ( 'UNKNOWN', '', #324, #136 ) ;
#61 = DIRECTION ( 'NONE',  ( 0.000000000000000000, 1.000000000000000000, 0.000000000000000000 ) ) ;
#62 = ORIENTED_EDGE ( 'NONE', *, *, #276, .F. ) ;
#63 = CARTESIAN_POINT ( 'NONE',  ( 1.714505518806294638E-15, 0.2499999999999950040, -14.00000000000000000 ) ) ;
#64 = DIRECTION ( 'NONE',  ( 8.659560562354963673E-17, 0.7071067811865451302, -0.7071067811865500152 ) ) ;
#65 = ORIENTED_EDGE ( 'NONE', *, *, #44, .F. ) ;
#66 = AXIS2_PLACEMENT_3D ( 'NONE', #104, #224, #105 ) ;
#67 = LINE ( 'NONE', #192, #263 ) ;
#68 = DIRECTION ( 'NONE',  ( 0.000000000000000000, -1.000000000000000000, 0.000000000000000000 ) ) ;
#69 = CARTESIAN_POINT ( 'NONE',  ( 0.000000000000000000, 4.000000000000000000, 0.000000000000000000 ) ) ;
#70 = EDGE_CURVE ( 'NONE', #149, #33, #375, .T. ) ;
#71 = CLOSED_SHELL ( 'NONE', ( #248, #151, #17, #176, #198, #330, #347, #293, #190, #121, #261, #389, #318 ) ) ;
#72 = SURFACE_STYLE_FILL_AREA ( #283 ) ;
#73 = AXIS2_PLACEMENT_3D ( 'NONE', #46, #15, #374 ) ;
#74 = ORIENTED_EDGE ( 'NONE', *, *, #107, .F. ) ;
#75 = ORIENTED_EDGE ( 'NONE', *, *, #214, .T. ) ;
#76 = DIRECTION ( 'NONE',  ( 0.000000000000000000, -0.7071067811865500152, -0.7071067811865451302 ) ) ;
#77 = CONICAL_SURFACE ( 'NONE', #213, 14.00000000000000000, 0.7853981633974517207 ) ;
#78 = DIRECTION ( 'NONE',  ( 0.000000000000000000, 0.000000000000000000, -1.000000000000000000 ) ) ;
#79 = AXIS2_PLACEMENT_3D ( 'NONE', #308, #42, #8 ) ;
#80 = SURFACE_STYLE_USAGE ( .BOTH. , #22 ) ;
#81 = DIRECTION ( 'NONE',  ( -0.000000000000000000, 1.000000000000000000, -0.000000000000000000 ) ) ;
#82 = EDGE_CURVE ( 'NONE', #186, #211, #371, .T. ) ;
#83 = DIRECTION ( 'NONE',  ( -0.000000000000000000, -1.000000000000000000, -0.000000000000000000 ) ) ;
#84 = CARTESIAN_POINT ( 'NONE',  ( 0.000000000000000000, 5.000000000000000000, 0.000000000000000000 ) ) ;
#85 = EDGE_CURVE ( 'NONE', #33, #307, #356, .T. ) ;
#86 = ORIENTED_EDGE ( 'NONE', *, *, #44, .T. ) ;
#87 = FACE_BOUND ( 'NONE', #234, .T. ) ;
#88 = ORIENTED_EDGE ( 'NONE', *, *, #321, .F. ) ;
#89 = AXIS2_PLACEMENT_3D ( 'NONE', #23, #173, #352 ) ;
#90 = CARTESIAN_POINT ( 'NONE',  ( 0.000000000000000000, 4.000000000000000000, -5.049999999999999822 ) ) ;
#91 = ORIENTED_EDGE ( 'NONE', *, *, #242, .F. ) ;
#92 = DIRECTION ( 'NONE',  ( -0.000000000000000000, -1.000000000000000000, -0.000000000000000000 ) ) ;
#93 = ORIENTED_EDGE ( 'NONE', *, *, #82, .T. ) ;
#94 = EDGE_LOOP ( 'NONE', ( #182, #152 ) ) ;
#95 = AXIS2_PLACEMENT_3D ( 'NONE', #314, #125, #244 ) ;
#96 = CONICAL_SURFACE ( 'NONE', #106, 13.75000000000000355, 0.7853981633974447263 ) ;
#97 = DIRECTION ( 'NONE',  ( 0.000000000000000000, 0.000000000000000000, -1.000000000000000000 ) ) ;
#98 = DIRECTION ( 'NONE',  ( 8.659560562354904508E-17, -0.7071067811865500152, 0.7071067811865451302 ) ) ;
#99 = EDGE_CURVE ( 'NONE', #156, #382, #195, .T. ) ;
#100 = DIRECTION ( 'NONE',  ( 0.000000000000000000, 0.000000000000000000, 1.000000000000000000 ) ) ;
#101 = UNCERTAINTY_MEASURE_WITH_UNIT (LENGTH_MEASURE( 1.000000000000000082E-05 ), #257, 'distance_accuracy_value', 'NONE');
#102 = FACE_OUTER_BOUND ( 'NONE', #223, .T. ) ;
#103 = ORIENTED_EDGE ( 'NONE', *, *, #207, .T. ) ;
#104 = CARTESIAN_POINT ( 'NONE',  ( 0.000000000000000000, 5.000000000000000000, 0.000000000000000000 ) ) ;
#105 = DIRECTION ( 'NONE',  ( 0.000000000000000000, 0.000000000000000000, -1.000000000000000000 ) ) ;
#106 = AXIS2_PLACEMENT_3D ( 'NONE', #185, #204, #298 ) ;
#107 = EDGE_CURVE ( 'NONE', #307, #33, #219, .T. ) ;
#108 = CYLINDRICAL_SURFACE ( 'NONE', #362, 5.049999999999999822 ) ;
#109 = DIRECTION ( 'NONE',  ( 0.000000000000000000, -0.000000000000000000, -1.000000000000000000 ) ) ;
#110 = COLOUR_RGB ( '',1.000000000000000000, 1.000000000000000000, 1.000000000000000000 ) ;
#111 = CIRCLE ( 'NONE', #41, 14.00000000000000000 ) ;
#112 = CARTESIAN_POINT ( 'NONE',  ( 0.000000000000000000, 4.000000000000000000, 0.000000000000000000 ) ) ;
#113 = ORIENTED_EDGE ( 'NONE', *, *, #207, .F. ) ;
#114 = DIRECTION ( 'NONE',  ( 0.000000000000000000, -1.000000000000000000, 0.000000000000000000 ) ) ;
#115 = EDGE_LOOP ( 'NONE', ( #65, #209, #147, #91 ) ) ;
#116 = CARTESIAN_POINT ( 'NONE',  ( 0.000000000000000000, 5.000000000000000000, 0.000000000000000000 ) ) ;
#117 = ORIENTED_EDGE ( 'NONE', *, *, #21, .F. ) ;
#118 = CIRCLE ( 'NONE', #3, 5.049999999999999822 ) ;
#119 = DIRECTION ( 'NONE',  ( 0.000000000000000000, -0.000000000000000000, 1.000000000000000000 ) ) ;
#120 = ORIENTED_EDGE ( 'NONE', *, *, #54, .F. ) ;
#121 = ADVANCED_FACE ( 'NONE', ( #189 ), #77, .T. ) ;
#122 =( LENGTH_UNIT ( ) NAMED_UNIT ( * ) SI_UNIT ( .MILLI., .METRE. ) );
#123 = VERTEX_POINT ( 'NONE', #45 ) ;
#124 =( NAMED_UNIT ( * ) SI_UNIT ( $, .STERADIAN. ) SOLID_ANGLE_UNIT ( ) );
#125 = DIRECTION ( 'NONE',  ( -0.000000000000000000, -1.000000000000000000, -0.000000000000000000 ) ) ;
#126 = CONICAL_SURFACE ( 'NONE', #350, 13.75000000000000355, 0.7853981633974447263 ) ;
#127 = CIRCLE ( 'NONE', #339, 14.00000000000000000 ) ;
#128 = EDGE_CURVE ( 'NONE', #156, #297, #162, .T. ) ;
#129 = DIRECTION ( 'NONE',  ( 0.000000000000000000, 0.000000000000000000, 1.000000000000000000 ) ) ;
#130 = CARTESIAN_POINT ( 'NONE',  ( 0.000000000000000000, 4.000000000000000000, 10.25000000000000000 ) ) ;
#131 = APPLICATION_CONTEXT ( 'automotive_design' ) ;
#132 = DIRECTION ( 'NONE',  ( 0.000000000000000000, 1.000000000000000000, 0.000000000000000000 ) ) ;
#133 = PRESENTATION_LAYER_ASSIGNMENT (  '', '', ( #49 ) ) ;
#134 = EDGE_LOOP ( 'NONE', ( #35, #327, #236, #30 ) ) ;
#135 =( NAMED_UNIT ( * ) PLANE_ANGLE_UNIT ( ) SI_UNIT ( $, .RADIAN. ) );
#136 = PRODUCT_DEFINITION_CONTEXT ( 'detailed design', #159, 'design' ) ;
#137 = CYLINDRICAL_SURFACE ( 'NONE', #196, 10.25000000000000000 ) ;
#138 = EDGE_CURVE ( 'NONE', #346, #149, #286, .T. ) ;
#139 = CARTESIAN_POINT ( 'NONE',  ( 0.000000000000000000, 5.000000000000000000, 0.000000000000000000 ) ) ;
#140 = AXIS2_PLACEMENT_3D ( 'NONE', #296, #92, #300 ) ;
#141 = FILL_AREA_STYLE ('',( #317 ) ) ;
#142 = DIRECTION ( 'NONE',  ( 0.000000000000000000, 0.000000000000000000, -1.000000000000000000 ) ) ;
#143 = CYLINDRICAL_SURFACE ( 'NONE', #140, 14.00000000000000000 ) ;
#144 = AXIS2_PLACEMENT_3D ( 'NONE', #84, #235, #304 ) ;
#145 = ORIENTED_EDGE ( 'NONE', *, *, #276, .T. ) ;
#146 = DIRECTION ( 'NONE',  ( 0.000000000000000000, 0.000000000000000000, -1.000000000000000000 ) ) ;
#147 = ORIENTED_EDGE ( 'NONE', *, *, #214, .F. ) ;
#148 = FACE_OUTER_BOUND ( 'NONE', #342, .T. ) ;
#149 = VERTEX_POINT ( 'NONE', #288 ) ;
#150 = CARTESIAN_POINT ( 'NONE',  ( 0.000000000000000000, 0.000000000000000000, 0.000000000000000000 ) ) ;
#151 = ADVANCED_FACE ( 'NONE', ( #260 ), #126, .T. ) ;
#152 = ORIENTED_EDGE ( 'NONE', *, *, #335, .T. ) ;
#153 = AXIS2_PLACEMENT_3D ( 'NONE', #16, #132, #255 ) ;
#154 = DIRECTION ( 'NONE',  ( 0.000000000000000000, 0.000000000000000000, -1.000000000000000000 ) ) ;
#155 = EDGE_LOOP ( 'NONE', ( #266, #184, #74, #113 ) ) ;
#156 = VERTEX_POINT ( 'NONE', #229 ) ;
#157 = MANIFOLD_SOLID_BREP ( 'Enlèv. mat.-Extru.1', #71 ) ;
#158 = ORIENTED_EDGE ( 'NONE', *, *, #353, .F. ) ;
#159 = APPLICATION_CONTEXT ( 'automotive_design' ) ;
#160 = CIRCLE ( 'NONE', #252, 10.25000000000000000 ) ;
#161 = CARTESIAN_POINT ( 'NONE',  ( 0.000000000000000000, 4.750000000000001776, 0.000000000000000000 ) ) ;
#162 = LINE ( 'NONE', #130, #272 ) ;
#163 = CARTESIAN_POINT ( 'NONE',  ( 0.000000000000000000, 0.2499999999999950040, 0.000000000000000000 ) ) ;
#164 = VECTOR ( 'NONE', #20, 1000.000000000000000 ) ;
#165 = AXIS2_PLACEMENT_3D ( 'NONE', #267, #29, #210 ) ;
#166 = CARTESIAN_POINT ( 'NONE',  ( 0.000000000000000000, 5.000000000000000000, -5.049999999999999822 ) ) ;
#167 = CARTESIAN_POINT ( 'NONE',  ( 0.000000000000000000, 0.2499999999999950040, 0.000000000000000000 ) ) ;
#168 = EDGE_CURVE ( 'NONE', #391, #359, #258, .T. ) ;
#169 = DIRECTION ( 'NONE',  ( 0.000000000000000000, 0.000000000000000000, 1.000000000000000000 ) ) ;
#170 = DIRECTION ( 'NONE',  ( 0.000000000000000000, 0.000000000000000000, 1.000000000000000000 ) ) ;
#171 = AXIS2_PLACEMENT_3D ( 'NONE', #208, #357, #333 ) ;
#172 = ADVANCED_BREP_SHAPE_REPRESENTATION ( 'K4-RONDELLE D''''APPUI', ( #157, #79 ), #306 ) ;
#173 = DIRECTION ( 'NONE',  ( 0.000000000000000000, 1.000000000000000000, 0.000000000000000000 ) ) ;
#174 = CARTESIAN_POINT ( 'NONE',  ( 6.184466335694133068E-16, 5.000000000000000000, 5.049999999999999822 ) ) ;
#175 = ORIENTED_EDGE ( 'NONE', *, *, #353, .T. ) ;
#176 = ADVANCED_FACE ( 'NONE', ( #295 ), #108, .F. ) ;
#177 = FACE_OUTER_BOUND ( 'NONE', #94, .T. ) ;
#178 = STYLED_ITEM ( 'NONE', ( #349 ), #157 ) ;
#179 = AXIS2_PLACEMENT_3D ( 'NONE', #150, #61, #119 ) ;
#180 = ORIENTED_EDGE ( 'NONE', *, *, #85, .T. ) ;
#181 = LINE ( 'NONE', #239, #363 ) ;
#182 = ORIENTED_EDGE ( 'NONE', *, *, #138, .T. ) ;
#183 = FACE_BOUND ( 'NONE', #212, .T. ) ;
#184 = ORIENTED_EDGE ( 'NONE', *, *, #70, .T. ) ;
#185 = CARTESIAN_POINT ( 'NONE',  ( 0.000000000000000000, 5.000000000000000000, 0.000000000000000000 ) ) ;
#186 = VERTEX_POINT ( 'NONE', #355 ) ;
#187 = AXIS2_PLACEMENT_3D ( 'NONE', #163, #285, #129 ) ;
#188 = ORIENTED_EDGE ( 'NONE', *, *, #21, .T. ) ;
#189 = FACE_OUTER_BOUND ( 'NONE', #309, .T. ) ;
#190 = ADVANCED_FACE ( 'NONE', ( #325 ), #262, .F. ) ;
#191 = DIRECTION ( 'NONE',  ( 0.000000000000000000, -1.000000000000000000, 0.000000000000000000 ) ) ;
#192 = CARTESIAN_POINT ( 'NONE',  ( 1.255262969126037241E-15, 4.000000000000000000, -10.25000000000000000 ) ) ;
#193 = EDGE_LOOP ( 'NONE', ( #378, #62 ) ) ;
#194 = DIRECTION ( 'NONE',  ( 0.000000000000000000, 1.000000000000000000, 0.000000000000000000 ) ) ;
#195 = CIRCLE ( 'NONE', #19, 10.25000000000000000 ) ;
#196 = AXIS2_PLACEMENT_3D ( 'NONE', #227, #291, #322 ) ;
#197 = SURFACE_STYLE_FILL_AREA ( #141 ) ;
#198 = ADVANCED_FACE ( 'NONE', ( #320 ), #384, .T. ) ;
#199 = LINE ( 'NONE', #166, #164 ) ;
#200 = CIRCLE ( 'NONE', #52, 5.049999999999999822 ) ;
#201 = CARTESIAN_POINT ( 'NONE',  ( 1.255262969126037241E-15, 5.000000000000000000, -10.25000000000000000 ) ) ;
#202 = FACE_OUTER_BOUND ( 'NONE', #47, .T. ) ;
#203 = ORIENTED_EDGE ( 'NONE', *, *, #220, .F. ) ;
#204 = DIRECTION ( 'NONE',  ( 0.000000000000000000, -1.000000000000000000, 0.000000000000000000 ) ) ;
#205 = COLOUR_RGB ( '',1.000000000000000000, 1.000000000000000000, 1.000000000000000000 ) ;
#206 = ORIENTED_EDGE ( 'NONE', *, *, #256, .F. ) ;
#207 = EDGE_CURVE ( 'NONE', #346, #307, #348, .T. ) ;
#208 = CARTESIAN_POINT ( 'NONE',  ( 0.000000000000000000, 5.000000000000000000, 0.000000000000000000 ) ) ;
#209 = ORIENTED_EDGE ( 'NONE', *, *, #280, .T. ) ;
#210 = DIRECTION ( 'NONE',  ( 0.000000000000000000, 0.000000000000000000, 1.000000000000000000 ) ) ;
#211 = VERTEX_POINT ( 'NONE', #228 ) ;
#212 = EDGE_LOOP ( 'NONE', ( #37, #86 ) ) ;
#213 = AXIS2_PLACEMENT_3D ( 'NONE', #312, #43, #14 ) ;
#214 = EDGE_CURVE ( 'NONE', #359, #391, #264, .T. ) ;
#215 = DIRECTION ( 'NONE',  ( -0.000000000000000000, -1.000000000000000000, -0.000000000000000000 ) ) ;
#216 = APPLICATION_PROTOCOL_DEFINITION ( 'draft international standard', 'automotive_design', 1998, #159 ) ;
#217 = DIRECTION ( 'NONE',  ( -0.000000000000000000, 1.000000000000000000, -0.000000000000000000 ) ) ;
#218 = EDGE_LOOP ( 'NONE', ( #247, #93 ) ) ;
#219 = CIRCLE ( 'NONE', #226, 14.00000000000000000 ) ;
#220 = EDGE_CURVE ( 'NONE', #123, #279, #127, .T. ) ;
#221 = VECTOR ( 'NONE', #358, 1000.000000000000000 ) ;
#222 = CYLINDRICAL_SURFACE ( 'NONE', #73, 10.25000000000000000 ) ;
#223 = EDGE_LOOP ( 'NONE', ( #120, #145, #299, #158 ) ) ;
#224 = DIRECTION ( 'NONE',  ( -0.000000000000000000, -1.000000000000000000, -0.000000000000000000 ) ) ;
#225 = CARTESIAN_POINT ( 'NONE',  ( 0.000000000000000000, 5.000000000000000000, 0.000000000000000000 ) ) ;
#226 = AXIS2_PLACEMENT_3D ( 'NONE', #341, #191, #343 ) ;
#227 = CARTESIAN_POINT ( 'NONE',  ( 0.000000000000000000, 4.000000000000000000, 0.000000000000000000 ) ) ;
#228 = CARTESIAN_POINT ( 'NONE',  ( 0.000000000000000000, 0.000000000000000000, 13.75000000000000355 ) ) ;
#229 = CARTESIAN_POINT ( 'NONE',  ( 0.000000000000000000, 4.000000000000000000, 10.25000000000000000 ) ) ;
#230 = PRODUCT_DEFINITION_SHAPE ( 'NONE', 'NONE',  #60 ) ;
#231 = LINE ( 'NONE', #388, #380 ) ;
#232 = VECTOR ( 'NONE', #64, 1000.000000000000114 ) ;
#233 = LINE ( 'NONE', #174, #221 ) ;
#234 = EDGE_LOOP ( 'NONE', ( #75, #27 ) ) ;
#235 = DIRECTION ( 'NONE',  ( 0.000000000000000000, 1.000000000000000000, 0.000000000000000000 ) ) ;
#236 = ORIENTED_EDGE ( 'NONE', *, *, #305, .F. ) ;
#237 = DIRECTION ( 'NONE',  ( 0.000000000000000000, -1.000000000000000000, 0.000000000000000000 ) ) ;
#238 =( GEOMETRIC_REPRESENTATION_CONTEXT ( 3 ) GLOBAL_UNCERTAINTY_ASSIGNED_CONTEXT ( ( #101 ) ) GLOBAL_UNIT_ASSIGNED_CONTEXT ( ( #257, #135, #259 ) ) REPRESENTATION_CONTEXT ( 'NONE', 'WORKASPACE' ) );
#239 = CARTESIAN_POINT ( 'NONE',  ( 0.000000000000000000, 0.2499999999999950040, 14.00000000000000000 ) ) ;
#240 = ORIENTED_EDGE ( 'NONE', *, *, #39, .T. ) ;
#241 = ORIENTED_EDGE ( 'NONE', *, *, #107, .T. ) ;
#242 = EDGE_CURVE ( 'NONE', #337, #359, #199, .T. ) ;
#243 = SHAPE_DEFINITION_REPRESENTATION ( #230, #172 ) ;
#244 = DIRECTION ( 'NONE',  ( 0.000000000000000000, 0.000000000000000000, 1.000000000000000000 ) ) ;
#245 =( GEOMETRIC_REPRESENTATION_CONTEXT ( 3 ) GLOBAL_UNCERTAINTY_ASSIGNED_CONTEXT ( ( #289 ) ) GLOBAL_UNIT_ASSIGNED_CONTEXT ( ( #122, #369, #313 ) ) REPRESENTATION_CONTEXT ( 'NONE', 'WORKASPACE' ) );
#246 = DIRECTION ( 'NONE',  ( 0.000000000000000000, 1.000000000000000000, 0.000000000000000000 ) ) ;
#247 = ORIENTED_EDGE ( 'NONE', *, *, #321, .T. ) ;
#248 = ADVANCED_FACE ( 'NONE', ( #294 ), #137, .F. ) ;
#249 = PRODUCT_CONTEXT ( 'NONE', #131, 'mechanical' ) ;
#250 = ORIENTED_EDGE ( 'NONE', *, *, #70, .F. ) ;
#251 = CONICAL_SURFACE ( 'NONE', #187, 14.00000000000000000, 0.7853981633974517207 ) ;
#252 = AXIS2_PLACEMENT_3D ( 'NONE', #112, #114, #146 ) ;
#253 = CARTESIAN_POINT ( 'NONE',  ( 0.000000000000000000, 0.2499999999999950040, 0.000000000000000000 ) ) ;
#254 = UNCERTAINTY_MEASURE_WITH_UNIT (LENGTH_MEASURE( 1.000000000000000082E-05 ), #274, 'distance_accuracy_value', 'NONE');
#255 = DIRECTION ( 'NONE',  ( 0.000000000000000000, 0.000000000000000000, 1.000000000000000000 ) ) ;
#256 = EDGE_CURVE ( 'NONE', #337, #334, #118, .T. ) ;
#257 =( LENGTH_UNIT ( ) NAMED_UNIT ( * ) SI_UNIT ( .MILLI., .METRE. ) );
#258 = CIRCLE ( 'NONE', #89, 5.049999999999999822 ) ;
#259 =( NAMED_UNIT ( * ) SI_UNIT ( $, .STERADIAN. ) SOLID_ANGLE_UNIT ( ) );
#260 = FACE_OUTER_BOUND ( 'NONE', #155, .T. ) ;
#261 = ADVANCED_FACE ( 'NONE', ( #202 ), #96, .T. ) ;
#262 = CYLINDRICAL_SURFACE ( 'NONE', #24, 5.049999999999999822 ) ;
#263 = VECTOR ( 'NONE', #246, 1000.000000000000000 ) ;
#264 = CIRCLE ( 'NONE', #292, 5.049999999999999822 ) ;
#265 = CARTESIAN_POINT ( 'NONE',  ( 0.000000000000000000, 4.750000000000001776, -14.00000000000000000 ) ) ;
#266 = ORIENTED_EDGE ( 'NONE', *, *, #335, .F. ) ;
#267 = CARTESIAN_POINT ( 'NONE',  ( 0.000000000000000000, 0.000000000000000000, 0.000000000000000000 ) ) ;
#268 = EDGE_LOOP ( 'NONE', ( #270, #206, #7, #1 ) ) ;
#269 = FACE_BOUND ( 'NONE', #361, .T. ) ;
#270 = ORIENTED_EDGE ( 'NONE', *, *, #280, .F. ) ;
#271 = CARTESIAN_POINT ( 'NONE',  ( 0.000000000000000000, 0.2499999999999950040, -14.00000000000000000 ) ) ;
#272 = VECTOR ( 'NONE', #284, 1000.000000000000000 ) ;
#273 = ORIENTED_EDGE ( 'NONE', *, *, #85, .F. ) ;
#274 =( LENGTH_UNIT ( ) NAMED_UNIT ( * ) SI_UNIT ( .MILLI., .METRE. ) );
#275 = ORIENTED_EDGE ( 'NONE', *, *, #138, .F. ) ;
#276 = EDGE_CURVE ( 'NONE', #382, #156, #160, .T. ) ;
#277 = APPLICATION_PROTOCOL_DEFINITION ( 'draft international standard', 'automotive_design', 1998, #131 ) ;
#278 = CARTESIAN_POINT ( 'NONE',  ( 1.683889348827611245E-15, 5.000000000000000000, 13.75000000000000355 ) ) ;
#279 = VERTEX_POINT ( 'NONE', #271 ) ;
#280 = EDGE_CURVE ( 'NONE', #334, #391, #233, .T. ) ;
#281 = SURFACE_STYLE_USAGE ( .BOTH. , #11 ) ;
#282 = CARTESIAN_POINT ( 'NONE',  ( 1.714505518806294638E-15, 4.750000000000001776, 14.00000000000000000 ) ) ;
#283 = FILL_AREA_STYLE ('',( #315 ) ) ;
#284 = DIRECTION ( 'NONE',  ( 0.000000000000000000, 1.000000000000000000, 0.000000000000000000 ) ) ;
#285 = DIRECTION ( 'NONE',  ( -0.000000000000000000, 1.000000000000000000, -0.000000000000000000 ) ) ;
#286 = CIRCLE ( 'NONE', #153, 13.75000000000000355 ) ;
#287 = CIRCLE ( 'NONE', #165, 13.75000000000000355 ) ;
#288 = CARTESIAN_POINT ( 'NONE',  ( 1.699197433816952942E-15, 5.000000000000000000, 13.75000000000000355 ) ) ;
#289 = UNCERTAINTY_MEASURE_WITH_UNIT (LENGTH_MEASURE( 1.000000000000000082E-05 ), #122, 'distance_accuracy_value', 'NONE');
#290 = CARTESIAN_POINT ( 'NONE',  ( 0.000000000000000000, 5.000000000000000000, -13.75000000000000355 ) ) ;
#291 = DIRECTION ( 'NONE',  ( 0.000000000000000000, 1.000000000000000000, 0.000000000000000000 ) ) ;
#292 = AXIS2_PLACEMENT_3D ( 'NONE', #48, #194, #169 ) ;
#293 = ADVANCED_FACE ( 'NONE', ( #148 ), #143, .T. ) ;
#294 = FACE_OUTER_BOUND ( 'NONE', #134, .T. ) ;
#295 = FACE_OUTER_BOUND ( 'NONE', #115, .T. ) ;
#296 = CARTESIAN_POINT ( 'NONE',  ( 0.000000000000000000, 5.000000000000000000, 0.000000000000000000 ) ) ;
#297 = VERTEX_POINT ( 'NONE', #392 ) ;
#298 = DIRECTION ( 'NONE',  ( 0.000000000000000000, 0.000000000000000000, -1.000000000000000000 ) ) ;
#299 = ORIENTED_EDGE ( 'NONE', *, *, #128, .T. ) ;
#300 = DIRECTION ( 'NONE',  ( 0.000000000000000000, 0.000000000000000000, -1.000000000000000000 ) ) ;
#301 = ORIENTED_EDGE ( 'NONE', *, *, #381, .F. ) ;
#302 = CARTESIAN_POINT ( 'NONE',  ( 1.255262969126037241E-15, 4.000000000000000000, -10.25000000000000000 ) ) ;
#303 = EDGE_LOOP ( 'NONE', ( #241, #188, #365, #316 ) ) ;
#304 = DIRECTION ( 'NONE',  ( 0.000000000000000000, 0.000000000000000000, 1.000000000000000000 ) ) ;
#305 = EDGE_CURVE ( 'NONE', #297, #332, #319, .T. ) ;
#306 =( GEOMETRIC_REPRESENTATION_CONTEXT ( 3 ) GLOBAL_UNCERTAINTY_ASSIGNED_CONTEXT ( ( #254 ) ) GLOBAL_UNIT_ASSIGNED_CONTEXT ( ( #274, #377, #124 ) ) REPRESENTATION_CONTEXT ( 'NONE', 'WORKASPACE' ) );
#307 = VERTEX_POINT ( 'NONE', #265 ) ;
#308 = CARTESIAN_POINT ( 'NONE',  ( 0.000000000000000000, 0.000000000000000000, 0.000000000000000000 ) ) ;
#309 = EDGE_LOOP ( 'NONE', ( #301, #88, #5, #59 ) ) ;
#310 = LINE ( 'NONE', #18, #338 ) ;
#311 = EDGE_CURVE ( 'NONE', #307, #279, #231, .T. ) ;
#312 = CARTESIAN_POINT ( 'NONE',  ( 0.000000000000000000, 0.2499999999999950040, 0.000000000000000000 ) ) ;
#313 =( NAMED_UNIT ( * ) SI_UNIT ( $, .STERADIAN. ) SOLID_ANGLE_UNIT ( ) );
#314 = CARTESIAN_POINT ( 'NONE',  ( 0.000000000000000000, 0.000000000000000000, 0.000000000000000000 ) ) ;
#315 = FILL_AREA_STYLE_COLOUR ( '', #205 ) ;
#316 = ORIENTED_EDGE ( 'NONE', *, *, #311, .F. ) ;
#317 = FILL_AREA_STYLE_COLOUR ( '', #110 ) ;
#318 = ADVANCED_FACE ( 'NONE', ( #183, #36 ), #34, .F. ) ;
#319 = CIRCLE ( 'NONE', #344, 10.25000000000000000 ) ;
#320 = FACE_OUTER_BOUND ( 'NONE', #303, .T. ) ;
#321 = EDGE_CURVE ( 'NONE', #211, #186, #287, .T. ) ;
#322 = DIRECTION ( 'NONE',  ( 0.000000000000000000, 0.000000000000000000, 1.000000000000000000 ) ) ;
#323 = AXIS2_PLACEMENT_3D ( 'NONE', #161, #68, #100 ) ;
#324 = PRODUCT_DEFINITION_FORMATION_WITH_SPECIFIED_SOURCE ( 'ANY', '', #354, .NOT_KNOWN. ) ;
#325 = FACE_OUTER_BOUND ( 'NONE', #268, .T. ) ;
#326 = CARTESIAN_POINT ( 'NONE',  ( 6.184466335694133068E-16, 4.000000000000000000, 5.049999999999999822 ) ) ;
#327 = ORIENTED_EDGE ( 'NONE', *, *, #54, .T. ) ;
#328 = CARTESIAN_POINT ( 'NONE',  ( 0.000000000000000000, 4.000000000000000000, 0.000000000000000000 ) ) ;
#329 = ORIENTED_EDGE ( 'NONE', *, *, #381, .T. ) ;
#330 = ADVANCED_FACE ( 'NONE', ( #269, #177 ), #4, .T. ) ;
#331 = PLANE ( 'NONE',  #179 ) ;
#332 = VERTEX_POINT ( 'NONE', #201 ) ;
#333 = DIRECTION ( 'NONE',  ( 0.000000000000000000, 0.000000000000000000, -1.000000000000000000 ) ) ;
#334 = VERTEX_POINT ( 'NONE', #326 ) ;
#335 = EDGE_CURVE ( 'NONE', #149, #346, #28, .T. ) ;
#336 = FACE_OUTER_BOUND ( 'NONE', #218, .T. ) ;
#337 = VERTEX_POINT ( 'NONE', #90 ) ;
#338 = VECTOR ( 'NONE', #215, 1000.000000000000000 ) ;
#339 = AXIS2_PLACEMENT_3D ( 'NONE', #167, #81, #170 ) ;
#340 = DIRECTION ( 'NONE',  ( 0.000000000000000000, 0.000000000000000000, -1.000000000000000000 ) ) ;
#341 = CARTESIAN_POINT ( 'NONE',  ( 0.000000000000000000, 4.750000000000001776, 0.000000000000000000 ) ) ;
#342 = EDGE_LOOP ( 'NONE', ( #117, #180, #57, #240 ) ) ;
#343 = DIRECTION ( 'NONE',  ( 0.000000000000000000, 0.000000000000000000, 1.000000000000000000 ) ) ;
#344 = AXIS2_PLACEMENT_3D ( 'NONE', #116, #360, #32 ) ;
#345 = CARTESIAN_POINT ( 'NONE',  ( 6.184466335694133068E-16, 0.000000000000000000, 5.049999999999999822 ) ) ;
#346 = VERTEX_POINT ( 'NONE', #56 ) ;
#347 = ADVANCED_FACE ( 'NONE', ( #336, #87 ), #331, .F. ) ;
#348 = LINE ( 'NONE', #290, #12 ) ;
#349 = PRESENTATION_STYLE_ASSIGNMENT (( #80 ) ) ;
#350 = AXIS2_PLACEMENT_3D ( 'NONE', #139, #51, #78 ) ;
#351 = MECHANICAL_DESIGN_GEOMETRIC_PRESENTATION_REPRESENTATION (  '', ( #49 ), #245 ) ;
#352 = DIRECTION ( 'NONE',  ( 0.000000000000000000, 0.000000000000000000, 1.000000000000000000 ) ) ;
#353 = EDGE_CURVE ( 'NONE', #332, #297, #372, .T. ) ;
#354 = PRODUCT ( 'K4-RONDELLE D''''APPUI', 'K4-RONDELLE D''''APPUI', '', ( #249 ) ) ;
#355 = CARTESIAN_POINT ( 'NONE',  ( 1.699197433816952942E-15, 0.000000000000000000, -13.75000000000000355 ) ) ;
#356 = CIRCLE ( 'NONE', #323, 14.00000000000000000 ) ;
#357 = DIRECTION ( 'NONE',  ( 0.000000000000000000, -1.000000000000000000, 0.000000000000000000 ) ) ;
#358 = DIRECTION ( 'NONE',  ( -0.000000000000000000, -1.000000000000000000, -0.000000000000000000 ) ) ;
#359 = VERTEX_POINT ( 'NONE', #26 ) ;
#360 = DIRECTION ( 'NONE',  ( 0.000000000000000000, -1.000000000000000000, 0.000000000000000000 ) ) ;
#361 = EDGE_LOOP ( 'NONE', ( #393, #175 ) ) ;
#362 = AXIS2_PLACEMENT_3D ( 'NONE', #225, #383, #386 ) ;
#363 = VECTOR ( 'NONE', #390, 1000.000000000000114 ) ;
#364 = DIRECTION ( 'NONE',  ( 0.000000000000000000, -0.000000000000000000, 1.000000000000000000 ) ) ;
#365 = ORIENTED_EDGE ( 'NONE', *, *, #220, .T. ) ;
#366 = EDGE_CURVE ( 'NONE', #211, #123, #181, .T. ) ;
#367 = LINE ( 'NONE', #63, #232 ) ;
#368 = ORIENTED_EDGE ( 'NONE', *, *, #82, .F. ) ;
#369 =( NAMED_UNIT ( * ) PLANE_ANGLE_UNIT ( ) SI_UNIT ( $, .RADIAN. ) );
#370 = EDGE_LOOP ( 'NONE', ( #368, #329, #203, #376 ) ) ;
#371 = CIRCLE ( 'NONE', #95, 13.75000000000000355 ) ;
#372 = CIRCLE ( 'NONE', #171, 10.25000000000000000 ) ;
#373 = DIRECTION ( 'NONE',  ( 0.000000000000000000, -1.000000000000000000, 0.000000000000000000 ) ) ;
#374 = DIRECTION ( 'NONE',  ( 0.000000000000000000, 0.000000000000000000, 1.000000000000000000 ) ) ;
#375 = LINE ( 'NONE', #278, #2 ) ;
#376 = ORIENTED_EDGE ( 'NONE', *, *, #366, .F. ) ;
#377 =( NAMED_UNIT ( * ) PLANE_ANGLE_UNIT ( ) SI_UNIT ( $, .RADIAN. ) );
#378 = ORIENTED_EDGE ( 'NONE', *, *, #99, .F. ) ;
#379 = MECHANICAL_DESIGN_GEOMETRIC_PRESENTATION_REPRESENTATION (  '', ( #178 ), #238 ) ;
#380 = VECTOR ( 'NONE', #83, 1000.000000000000000 ) ;
#381 = EDGE_CURVE ( 'NONE', #186, #279, #367, .T. ) ;
#382 = VERTEX_POINT ( 'NONE', #302 ) ;
#383 = DIRECTION ( 'NONE',  ( -0.000000000000000000, -1.000000000000000000, -0.000000000000000000 ) ) ;
#384 = CYLINDRICAL_SURFACE ( 'NONE', #66, 14.00000000000000000 ) ;
#385 = AXIS2_PLACEMENT_3D ( 'NONE', #328, #237, #109 ) ;
#386 = DIRECTION ( 'NONE',  ( 0.000000000000000000, 0.000000000000000000, -1.000000000000000000 ) ) ;
#387 = DIRECTION ( 'NONE',  ( 0.000000000000000000, -1.000000000000000000, 0.000000000000000000 ) ) ;
#388 = CARTESIAN_POINT ( 'NONE',  ( 0.000000000000000000, 5.000000000000000000, -14.00000000000000000 ) ) ;
#389 = ADVANCED_FACE ( 'NONE', ( #102 ), #222, .F. ) ;
#390 = DIRECTION ( 'NONE',  ( 0.000000000000000000, 0.7071067811865451302, 0.7071067811865500152 ) ) ;
#391 = VERTEX_POINT ( 'NONE', #345 ) ;
#392 = CARTESIAN_POINT ( 'NONE',  ( 0.000000000000000000, 5.000000000000000000, 10.25000000000000000 ) ) ;
#393 = ORIENTED_EDGE ( 'NONE', *, *, #305, .T. ) ;
#394 = DIRECTION ( 'NONE',  ( 0.000000000000000000, 1.000000000000000000, 0.000000000000000000 ) ) ;
ENDSEC;
END-ISO-10303-21;
