                                                                        S      1
,,,10HAlu5086H24,33HAutoCAD 2018 - Français (French),62HAutodesk TranslG      1
ation Framework DWG producer (atf_dwg_producer),32,38,7,99,15,,1.,2,2HMMG      2
,1,0.08,15H20220529.173714,0.01,10000.,,7Hunknown,11,0,15H20220423.09431G      3
6;                                                                      G      4
     186       1                       1                        00000000D      1
     186             -73       1       0                               0D      2
     514       2                                                00010000D      3
     514                       1       1                               0D      4
     510       3                                                00010000D      5
     510             -73       1       1                               0D      6
     510       4                                                00010000D      7
     510             -73       1       1                               0D      8
     510       5                                                00010000D      9
     510             -73       1       1                               0D     10
     510       6                                                00010000D     11
     510             -73       1       1                               0D     12
     510       7                                                00010000D     13
     510             -73       1       1                               0D     14
     510       8                                                00010000D     15
     510             -73       1       1                               0D     16
     508       9                                                00010000D     17
     508                       1       1                               0D     18
     508      10                                                00010000D     19
     508                       1       1                               0D     20
     508      11                                                00010000D     21
     508                       1       1                               0D     22
     508      12                                                00010000D     23
     508                       1       1                               0D     24
     508      13                                                00010000D     25
     508                       1       1                               0D     26
     508      14                                                00010000D     27
     508                       1       1                               0D     28
     126      15                                                00010000D     29
     126       0               2       0                               0D     30
     126      17                                                00010000D     31
     126       0               2       0                               0D     32
     126      19                                                00010000D     33
     126       0               2       0                               0D     34
     126      21                                                00010000D     35
     126       0               2       0                               0D     36
     126      23                                                00010000D     37
     126       0               2       0                               0D     38
     126      25                                                00010000D     39
     126       0               3       0                               0D     40
     126      28                                                00010000D     41
     126       0               2       0                               0D     42
     126      30                                                00010000D     43
     126       0               3       0                               0D     44
     126      33                                                00010000D     45
     126       0               3       0                               0D     46
     126      36                                                00010000D     47
     126       0               2       0                               0D     48
     126      38                                                00010000D     49
     126       0               2       0                               0D     50
     126      40                                                00010000D     51
     126       0               2       0                               0D     52
     128      42                                                00010000D     53
     128       0     -73       4       0                               0D     54
     128      46                                                00010000D     55
     128       0     -73       6       0                               0D     56
     128      52                                                00010000D     57
     128       0     -73       5       0                               0D     58
     128      57                                                00010000D     59
     128       0     -73       5       0                               0D     60
     128      62                                                00010000D     61
     128       0     -73       7       0                               0D     62
     128      69                                                00010000D     63
     128       0     -73       7       0                               0D     64
     502      76                                                00010000D     65
     502                       3       1                               0D     66
     504      79                                                00010001D     67
     504                       3       1                               0D     68
     406      82                                                00000000D     69
     406                       1      15                               0D     70
     406      83                       1                        00000000D     71
     406                       1       3                               0D     72
     314      84                                                00000200D     73
     314                       1       0                               0D     74
186,3,1,0,0,1,69;                                                      1P      1
514,6,5,1,7,1,9,1,11,1,13,1,15,1;                                      3P      2
510,53,1,1,17;                                                         5P      3
510,55,1,1,19;                                                         7P      4
510,57,1,1,21;                                                         9P      5
510,59,1,1,23;                                                        11P      6
510,61,1,1,25;                                                        13P      7
510,63,1,1,27;                                                        15P      8
508,4,0,67,1,0,0,0,67,2,1,0,0,67,3,0,0,0,67,4,0,0;                    17P      9
508,4,0,67,5,0,0,0,67,4,1,0,0,67,6,0,0,0,67,7,0,0;                    19P     10
508,4,0,67,8,0,0,0,67,7,1,0,0,67,9,0,0,0,67,10,0,0;                   21P     11
508,4,0,67,11,0,0,0,67,10,1,0,0,67,12,0,0,0,67,2,0,0;                 23P     12
508,4,0,67,11,1,0,0,67,1,1,0,0,67,5,1,0,0,67,8,1,0;                   25P     13
508,4,0,67,12,1,0,0,67,9,1,0,0,67,6,1,0,0,67,3,1,0;                   27P     14
126,1,1,0,0,1,0,0.,0.,9.,9.,1.,1.,25.,0.,-49.5982905982906,25.,       29P     15
0.,-40.5982905982906,0.,9.,0.,0.,0.;                                  29P     16
126,1,1,0,0,1,0,0.,0.,0.6,0.6,1.,1.,25.,0.,-49.5982905982906,         31P     17
25.,0.6,-49.5982905982906,0.,0.6,0.,0.,0.;                            31P     18
126,1,1,0,0,1,0,-9.,-9.,0.,0.,1.,1.,25.,0.6,-40.5982905982906,        33P     19
25.,0.6,-49.5982905982906,-9.,0.,0.,0.,0.;                            33P     20
126,1,1,0,0,1,0,0.,0.,0.6,0.6,1.,1.,25.,0.,-40.5982905982906,         35P     21
25.,0.6,-40.5982905982906,0.,0.6,0.,0.,0.;                            35P     22
126,1,1,0,0,1,0,0.,0.,47.6783095285818,47.6783095285818,1.,1.,        37P     23
25.,0.,-40.5982905982906,0.,0.,0.,0.,47.6783095285818,0.,0.,0.;       37P     24
126,1,1,0,0,1,0,-47.6783095285818,-47.6783095285818,0.,0.,1.,1.,      39P     25
0.,0.6,0.,25.,0.6,-40.5982905982906,-47.6783095285818,0.,0.,0.,       39P     26
0.;                                                                   39P     27
126,1,1,0,0,1,0,0.,0.,0.6,0.6,1.,1.,0.,0.,0.,0.,0.6,0.,0.,0.6,        41P     28
0.,0.,0.;                                                             41P     29
126,1,1,0,0,1,0,0.,0.,49.5982905982906,49.5982905982906,1.,1.,        43P     30
0.,0.,-3.5527136788005D-15,0.,0.,-49.5982905982906,0.,                43P     31
49.5982905982906,0.,0.,0.;                                            43P     32
126,1,1,0,0,1,0,-49.5982905982906,-49.5982905982906,0.,0.,1.,1.,      45P     33
0.,0.6,-49.5982905982906,0.,0.6,-3.5527136788005D-15,                 45P     34
-49.5982905982906,0.,0.,0.,0.;                                        45P     35
126,1,1,0,0,1,0,0.,0.,0.6,0.6,1.,1.,0.,0.,-49.5982905982906,0.,       47P     36
0.6,-49.5982905982906,0.,0.6,0.,0.,0.;                                47P     37
126,1,1,0,0,1,0,0.,0.,25.,25.,1.,1.,0.,0.,-49.5982905982906,25.,      49P     38
0.,-49.5982905982906,0.,25.,0.,0.,0.;                                 49P     39
126,1,1,0,0,1,0,-25.,-25.,0.,0.,1.,1.,25.,0.6,-49.5982905982906,      51P     40
0.,0.6,-49.5982905982906,-25.,0.,0.,0.,0.;                            51P     41
128,1,1,1,1,0,0,1,0,0,-0.001,-0.001,9.001,9.001,-0.001,-0.001,        53P     42
0.601,0.601,1.,1.,1.,1.,25.,-0.001,-40.5972905982906,25.,-0.001,      53P     43
-49.5992905982906,25.,0.601,-40.5972905982906,25.,0.601,              53P     44
-49.5992905982906,-0.001,9.001,-0.001,0.601;                          53P     45
128,1,1,1,1,0,0,1,0,0,-0.001,-0.001,47.6793095285818,                 55P     46
47.6793095285818,-0.001,-0.001,0.601,0.601,1.,1.,1.,1.,               55P     47
-0.000524347449548657,-0.001,0.000851504405247283,                    55P     48
25.0005243474495,-0.001,-40.5991421026959,-0.000524347449548657,      55P     49
0.601,0.000851504405247283,25.0005243474495,0.601,                    55P     50
-40.5991421026958,-0.001,47.6793095285818,-0.001,0.601;               55P     51
128,1,1,1,1,0,0,1,0,0,-0.001,-0.001,49.5992905982906,                 57P     52
49.5992905982906,-0.001,-0.001,0.601,0.601,1.,1.,1.,1.,0.,            57P     53
-0.001,-49.5992905982906,0.,-0.001,0.000999999999997669,0.,           57P     54
0.601,-49.5992905982906,0.,0.601,0.00100000000000477,-0.001,          57P     55
49.5992905982906,-0.001,0.601;                                        57P     56
128,1,1,1,1,0,0,1,0,0,-0.001,-0.001,25.001,25.001,-0.001,-0.001,      59P     57
0.601,0.601,1.,1.,1.,1.,25.001,-0.001,-49.5982905982906,              59P     58
-0.00100000000000477,-0.001,-49.5982905982906,25.001,0.601,           59P     59
-49.5982905982906,-0.00100000000000477,0.601,-49.5982905982906,       59P     60
-0.001,25.001,-0.001,0.601;                                           59P     61
128,1,1,1,1,0,0,1,0,0,-29.2801405665725,-29.2801405665725,            61P     62
20.3201500317181,20.3201500317181,-16.3667204100973,                  61P     63
-16.3667204100973,8.63527958990269,8.63527958990269,1.,1.,1.,1.,      61P     64
25.001,0.,-49.5992905982906,25.001,0.,0.00100000000000122,            61P     65
-0.00100000000000477,0.,-49.5992905982906,-0.000999999999997669,      61P     66
0.,0.00100000000000122,-29.2801405665725,20.3201500317181,            61P     67
-16.3667204100973,8.63527958990269;                                   61P     68
128,1,1,1,1,0,0,1,0,0,-29.2801405665725,-29.2801405665725,            63P     69
20.3201500317181,20.3201500317181,-16.3667204100973,                  63P     70
-16.3667204100973,8.63527958990269,8.63527958990269,1.,1.,1.,1.,      63P     71
25.001,0.6,0.00100000000000122,25.001,0.6,-49.5992905982906,          63P     72
-0.000999999999997669,0.6,0.00100000000000122,                        63P     73
-0.00100000000000477,0.6,-49.5992905982906,-29.2801405665725,         63P     74
20.3201500317181,-16.3667204100973,8.63527958990269;                  63P     75
502,8,25.,0.,-49.5982905982906,25.,0.,-40.5982905982906,25.,0.6,      65P     76
-49.5982905982906,25.,0.6,-40.5982905982906,0.,0.,0.,0.,0.6,0.,       65P     77
0.,0.,-49.5982905982906,0.,0.6,-49.5982905982906;                     65P     78
504,12,29,65,1,65,2,31,65,1,65,3,33,65,4,65,3,35,65,2,65,4,37,        67P     79
65,2,65,5,39,65,6,65,4,41,65,5,65,6,43,65,5,65,7,45,65,8,65,6,        67P     80
47,65,7,65,8,49,65,7,65,1,51,65,3,65,8;                               67P     81
406,1,2H5C;                                                           69P     82
406,2,0,16HAG4MCH24-5086H24;                                          71P     83
314,100.,74.9019607843137,50.1960784313725,;                          73P     84
S      1G      4D     74P     84                                        T      1
