ISO-10303-21;
HEADER;
FILE_DESCRIPTION(('CATIA V5 STEP Exchange'),'2;1');

FILE_NAME('I:\\RST-DT\\BE LAS\\AY53362\\00_RUDY\\00_PERSO\\3D\\Poulie Nico\\V2\\Poulie Nico v2.stp','2022-05-20T13:01:44+00:00',('none'),('none'),'CATIA Version 5 Release 19 GA (IN-10)','CATIA V5 STEP AP203','none');

FILE_SCHEMA(('CONFIG_CONTROL_DESIGN'));

ENDSEC;
/* file written by CATIA V5R19 */
DATA;
#5=PRODUCT('Poulie Nico v2','','',(#2)) ;
#1=APPLICATION_CONTEXT('configuration controlled 3D design of mechanical parts and assemblies') ;
#14=PRODUCT_DEFINITION('',' ',#6,#3) ;
#16=SECURITY_CLASSIFICATION(' ',' ',#15) ;
#15=SECURITY_CLASSIFICATION_LEVEL('unclassified') ;
#47=CARTESIAN_POINT(' ',(0.,0.,0.)) ;
#52=CARTESIAN_POINT('Axis2P3D Location',(9.25,0.,0.)) ;
#57=CARTESIAN_POINT('Axis2P3D Location',(13.3,0.,0.)) ;
#61=CARTESIAN_POINT('Vertex',(13.3,9.52177079651,5.20176709386)) ;
#63=CARTESIAN_POINT('Vertex',(13.3,-9.52177079651,-5.20176709386)) ;
#66=CARTESIAN_POINT('Line Origine',(15.9,9.52177079651,5.20176709386)) ;
#70=CARTESIAN_POINT('Vertex',(18.5,9.52177079651,5.20176709386)) ;
#73=CARTESIAN_POINT('Axis2P3D Location',(18.5,0.,0.)) ;
#77=CARTESIAN_POINT('Vertex',(18.5,-9.52177079651,-5.20176709386)) ;
#80=CARTESIAN_POINT('Line Origine',(15.9,-9.52177079651,-5.20176709386)) ;
#92=CARTESIAN_POINT('Axis2P3D Location',(13.3,0.,0.)) ;
#97=CARTESIAN_POINT('Axis2P3D Location',(18.5,0.,0.)) ;
#109=CARTESIAN_POINT('Axis2P3D Location',(9.25,0.,0.)) ;
#114=CARTESIAN_POINT('Axis2P3D Location',(16.,0.,0.)) ;
#118=CARTESIAN_POINT('Vertex',(16.,24.4845534767,13.3759725271)) ;
#120=CARTESIAN_POINT('Vertex',(16.,-24.4845534767,-13.3759725271)) ;
#123=CARTESIAN_POINT('Line Origine',(9.25,24.4845534767,13.3759725271)) ;
#127=CARTESIAN_POINT('Vertex',(2.5,24.4845534767,13.3759725271)) ;
#130=CARTESIAN_POINT('Axis2P3D Location',(2.5,0.,0.)) ;
#134=CARTESIAN_POINT('Vertex',(2.5,-24.4845534767,-13.3759725271)) ;
#137=CARTESIAN_POINT('Line Origine',(9.25,-24.4845534767,-13.3759725271)) ;
#149=CARTESIAN_POINT('Axis2P3D Location',(16.,0.,0.)) ;
#154=CARTESIAN_POINT('Axis2P3D Location',(2.5,0.,0.)) ;
#166=CARTESIAN_POINT('Axis2P3D Location',(13.3,10.85,0.)) ;
#171=CARTESIAN_POINT('Axis2P3D Location',(13.3,0.,0.)) ;
#175=CARTESIAN_POINT('Vertex',(13.3,11.4085733046,6.23253200185)) ;
#177=CARTESIAN_POINT('Vertex',(13.3,-11.4085733046,-6.23253200185)) ;
#180=CARTESIAN_POINT('Axis2P3D Location',(13.3,0.,0.)) ;
#194=CARTESIAN_POINT('Axis2P3D Location',(18.5,32.,0.)) ;
#199=CARTESIAN_POINT('Axis2P3D Location',(18.5,0.,0.)) ;
#203=CARTESIAN_POINT('Vertex',(18.5,-28.0826419805,-15.3416172353)) ;
#205=CARTESIAN_POINT('Vertex',(18.5,28.0826419805,15.3416172353)) ;
#208=CARTESIAN_POINT('Axis2P3D Location',(18.5,0.,0.)) ;
#222=CARTESIAN_POINT('Axis2P3D Location',(9.25,0.,0.)) ;
#227=CARTESIAN_POINT('Line Origine',(9.25,28.0826419805,15.3416172353)) ;
#231=CARTESIAN_POINT('Vertex',(1.5,28.0826419805,15.3416172353)) ;
#233=CARTESIAN_POINT('Vertex',(0.,28.0826419805,15.3416172353)) ;
#236=CARTESIAN_POINT('Axis2P3D Location',(0.,0.,0.)) ;
#240=CARTESIAN_POINT('Vertex',(0.,-28.0826419805,-15.3416172353)) ;
#243=CARTESIAN_POINT('Line Origine',(9.25,-28.0826419805,-15.3416172353)) ;
#247=CARTESIAN_POINT('Vertex',(1.5,-28.0826419805,-15.3416172353)) ;
#250=CARTESIAN_POINT('Axis2P3D Location',(1.5,0.,0.)) ;
#262=CARTESIAN_POINT('Axis2P3D Location',(0.,0.,0.)) ;
#267=CARTESIAN_POINT('Axis2P3D Location',(1.5,0.,0.)) ;
#279=CARTESIAN_POINT('Axis2P3D Location',(2.5,32.,0.)) ;
#284=CARTESIAN_POINT('Axis2P3D Location',(2.5,7.1054273576E-015,4.4408920985E-016)) ;
#288=CARTESIAN_POINT('Vertex',(2.5,-27.2050598583,-14.8621908919)) ;
#290=CARTESIAN_POINT('Vertex',(2.5,27.2050594186,14.8621916967)) ;
#293=CARTESIAN_POINT('Axis2P3D Location',(2.5,3.5527136788E-015,-4.4408920985E-016)) ;
#307=CARTESIAN_POINT('Axis2P3D Location',(33.5,1.10134124043E-013,-1.06581410364E-013)) ;
#312=CARTESIAN_POINT('Line Origine',(2.,-27.6438506995,-15.101904466)) ;
#317=CARTESIAN_POINT('Line Origine',(2.,27.6438506995,15.101904466)) ;
#329=CARTESIAN_POINT('Axis2P3D Location',(33.5,3.39284156325E-013,-4.51194637208E-013)) ;
#341=CARTESIAN_POINT('Line Origine',(9.25,-28.0826419805,-15.3416172353)) ;
#345=CARTESIAN_POINT('Vertex',(17.,-28.0826419805,-15.3416172353)) ;
#348=CARTESIAN_POINT('Line Origine',(9.25,28.0826419805,15.3416172353)) ;
#352=CARTESIAN_POINT('Vertex',(17.,28.0826419805,15.3416172353)) ;
#355=CARTESIAN_POINT('Axis2P3D Location',(17.,0.,0.)) ;
#367=CARTESIAN_POINT('Axis2P3D Location',(17.,0.,0.)) ;
#379=CARTESIAN_POINT('Axis2P3D Location',(16.,27.9,0.)) ;
#384=CARTESIAN_POINT('Axis2P3D Location',(16.,-1.42108547152E-014,-8.43769498715E-015)) ;
#388=CARTESIAN_POINT('Vertex',(16.,27.2050594186,14.8621916967)) ;
#390=CARTESIAN_POINT('Vertex',(16.,-27.2050598583,-14.8621908919)) ;
#393=CARTESIAN_POINT('Axis2P3D Location',(16.,0.,8.881784197E-016)) ;
#407=CARTESIAN_POINT('Axis2P3D Location',(-15.,3.89022147829E-013,3.5527136788E-015)) ;
#412=CARTESIAN_POINT('Line Origine',(16.5,-27.6438509477,-15.1019040117)) ;
#417=CARTESIAN_POINT('Line Origine',(16.5,27.6438506995,15.101904466)) ;
#429=CARTESIAN_POINT('Axis2P3D Location',(-15.,0.,-3.30402372128E-013)) ;
#441=CARTESIAN_POINT('Axis2P3D Location',(9.25,0.,0.)) ;
#446=CARTESIAN_POINT('Axis2P3D Location',(1.,0.,0.)) ;
#450=CARTESIAN_POINT('Vertex',(1.,11.4085733046,6.23253200185)) ;
#452=CARTESIAN_POINT('Vertex',(1.,-11.4085733046,-6.23253200185)) ;
#455=CARTESIAN_POINT('Line Origine',(6.65,11.4085733046,6.23253200185)) ;
#460=CARTESIAN_POINT('Line Origine',(6.65,-11.4085733046,-6.23253200185)) ;
#472=CARTESIAN_POINT('Axis2P3D Location',(1.,0.,0.)) ;
#484=CARTESIAN_POINT('Axis2P3D Location',(0.,13.,0.)) ;
#493=CARTESIAN_POINT('Axis2P3D Location',(0.,-1.7763568394E-015,-2.6645352591E-015)) ;
#497=CARTESIAN_POINT('Vertex',(0.,-12.2861561446,-6.71195703137)) ;
#499=CARTESIAN_POINT('Vertex',(0.,12.2861558665,6.71195754046)) ;
#502=CARTESIAN_POINT('Axis2P3D Location',(0.,1.7763568394E-015,-2.22044604925E-016)) ;
#512=CARTESIAN_POINT('Axis2P3D Location',(14.,-3.46389583683E-014,5.86197757002E-014)) ;
#517=CARTESIAN_POINT('Line Origine',(0.5,-11.8473645855,-6.47224477116)) ;
#522=CARTESIAN_POINT('Line Origine',(0.5,11.8473645855,6.47224477116)) ;
#534=CARTESIAN_POINT('Axis2P3D Location',(14.,-1.59872115546E-014,7.1054273576E-014)) ;
#53=DIRECTION('Axis2P3D Direction',(1.,0.,0.)) ;
#54=DIRECTION('Axis2P3D XDirection',(0.,0.87758256189,0.479425538604)) ;
#58=DIRECTION('Axis2P3D Direction',(1.,0.,0.)) ;
#67=DIRECTION('Vector Direction',(1.,0.,0.)) ;
#74=DIRECTION('Axis2P3D Direction',(1.,0.,0.)) ;
#81=DIRECTION('Vector Direction',(1.,0.,0.)) ;
#93=DIRECTION('Axis2P3D Direction',(1.,0.,0.)) ;
#98=DIRECTION('Axis2P3D Direction',(1.,0.,0.)) ;
#110=DIRECTION('Axis2P3D Direction',(1.,0.,0.)) ;
#111=DIRECTION('Axis2P3D XDirection',(0.,0.87758256189,0.479425538604)) ;
#115=DIRECTION('Axis2P3D Direction',(1.,0.,0.)) ;
#124=DIRECTION('Vector Direction',(1.,0.,0.)) ;
#131=DIRECTION('Axis2P3D Direction',(1.,0.,0.)) ;
#138=DIRECTION('Vector Direction',(1.,0.,0.)) ;
#150=DIRECTION('Axis2P3D Direction',(1.,0.,0.)) ;
#155=DIRECTION('Axis2P3D Direction',(1.,0.,0.)) ;
#167=DIRECTION('Axis2P3D Direction',(1.,0.,0.)) ;
#168=DIRECTION('Axis2P3D XDirection',(0.,1.,0.)) ;
#172=DIRECTION('Axis2P3D Direction',(1.,0.,0.)) ;
#181=DIRECTION('Axis2P3D Direction',(1.,0.,0.)) ;
#195=DIRECTION('Axis2P3D Direction',(1.,0.,0.)) ;
#196=DIRECTION('Axis2P3D XDirection',(0.,1.,0.)) ;
#200=DIRECTION('Axis2P3D Direction',(1.,0.,0.)) ;
#209=DIRECTION('Axis2P3D Direction',(1.,0.,0.)) ;
#223=DIRECTION('Axis2P3D Direction',(1.,0.,0.)) ;
#224=DIRECTION('Axis2P3D XDirection',(0.,0.87758256189,0.479425538604)) ;
#228=DIRECTION('Vector Direction',(1.,0.,0.)) ;
#237=DIRECTION('Axis2P3D Direction',(1.,0.,0.)) ;
#244=DIRECTION('Vector Direction',(1.,0.,0.)) ;
#251=DIRECTION('Axis2P3D Direction',(1.,0.,0.)) ;
#263=DIRECTION('Axis2P3D Direction',(1.,0.,0.)) ;
#268=DIRECTION('Axis2P3D Direction',(1.,0.,0.)) ;
#280=DIRECTION('Axis2P3D Direction',(1.,0.,0.)) ;
#281=DIRECTION('Axis2P3D XDirection',(0.,1.,0.)) ;
#285=DIRECTION('Axis2P3D Direction',(1.,0.,0.)) ;
#294=DIRECTION('Axis2P3D Direction',(1.,0.,0.)) ;
#308=DIRECTION('Axis2P3D Direction',(-1.,-3.5527136788E-015,3.5527136788E-015)) ;
#309=DIRECTION('Axis2P3D XDirection',(3.02930473672E-015,-0.98727587096,-0.159016837538)) ;
#313=DIRECTION('Vector Direction',(-0.707106781187,-0.620544580564,-0.339005049421)) ;
#318=DIRECTION('Vector Direction',(-0.707106781187,0.620544580564,0.339005049421)) ;
#330=DIRECTION('Axis2P3D Direction',(-1.,-1.06581410364E-014,1.42108547152E-014)) ;
#331=DIRECTION('Axis2P3D XDirection',(-2.50246913033E-015,0.87758256189,0.479425538604)) ;
#342=DIRECTION('Vector Direction',(1.,0.,0.)) ;
#349=DIRECTION('Vector Direction',(1.,0.,0.)) ;
#356=DIRECTION('Axis2P3D Direction',(1.,0.,0.)) ;
#368=DIRECTION('Axis2P3D Direction',(1.,0.,0.)) ;
#380=DIRECTION('Axis2P3D Direction',(1.,0.,0.)) ;
#381=DIRECTION('Axis2P3D XDirection',(0.,1.,0.)) ;
#385=DIRECTION('Axis2P3D Direction',(1.,0.,0.)) ;
#394=DIRECTION('Axis2P3D Direction',(1.,0.,0.)) ;
#408=DIRECTION('Axis2P3D Direction',(1.,-1.24344978758E-014,0.)) ;
#409=DIRECTION('Axis2P3D XDirection',(-1.14586744389E-014,-0.917528633081,-0.3976697216)) ;
#413=DIRECTION('Vector Direction',(0.707106781187,-0.620544586135,-0.339005039223)) ;
#418=DIRECTION('Vector Direction',(0.707106781187,0.620544580564,0.339005049421)) ;
#430=DIRECTION('Axis2P3D Direction',(1.,0.,1.06581410364E-014)) ;
#431=DIRECTION('Axis2P3D XDirection',(-5.13664716227E-015,0.87758256189,0.479425538604)) ;
#442=DIRECTION('Axis2P3D Direction',(1.,0.,0.)) ;
#443=DIRECTION('Axis2P3D XDirection',(0.,0.87758256189,0.479425538604)) ;
#447=DIRECTION('Axis2P3D Direction',(1.,0.,0.)) ;
#456=DIRECTION('Vector Direction',(1.,0.,0.)) ;
#461=DIRECTION('Vector Direction',(1.,0.,0.)) ;
#473=DIRECTION('Axis2P3D Direction',(1.,0.,0.)) ;
#485=DIRECTION('Axis2P3D Direction',(1.,0.,0.)) ;
#486=DIRECTION('Axis2P3D XDirection',(0.,1.,0.)) ;
#494=DIRECTION('Axis2P3D Direction',(1.,0.,0.)) ;
#503=DIRECTION('Axis2P3D Direction',(1.,0.,0.)) ;
#513=DIRECTION('Axis2P3D Direction',(-1.,2.6645352591E-015,-4.4408920985E-015)) ;
#514=DIRECTION('Axis2P3D XDirection',(-1.71221572076E-015,-0.977645795428,-0.210258647105)) ;
#518=DIRECTION('Vector Direction',(-0.707106781187,-0.620544580564,-0.339005049421)) ;
#523=DIRECTION('Vector Direction',(-0.707106781187,0.620544580564,0.339005049421)) ;
#535=DIRECTION('Axis2P3D Direction',(-1.,1.33226762955E-015,-5.3290705182E-015)) ;
#536=DIRECTION('Axis2P3D XDirection',(-1.31708901597E-015,0.87758256189,0.479425538604)) ;
#48=AXIS2_PLACEMENT_3D(' ',#47,$,$) ;
#55=AXIS2_PLACEMENT_3D('Cylinder Axis2P3D',#52,#53,#54) ;
#59=AXIS2_PLACEMENT_3D('Circle Axis2P3D',#57,#58,$) ;
#75=AXIS2_PLACEMENT_3D('Circle Axis2P3D',#73,#74,$) ;
#94=AXIS2_PLACEMENT_3D('Circle Axis2P3D',#92,#93,$) ;
#99=AXIS2_PLACEMENT_3D('Circle Axis2P3D',#97,#98,$) ;
#112=AXIS2_PLACEMENT_3D('Cylinder Axis2P3D',#109,#110,#111) ;
#116=AXIS2_PLACEMENT_3D('Circle Axis2P3D',#114,#115,$) ;
#132=AXIS2_PLACEMENT_3D('Circle Axis2P3D',#130,#131,$) ;
#151=AXIS2_PLACEMENT_3D('Circle Axis2P3D',#149,#150,$) ;
#156=AXIS2_PLACEMENT_3D('Circle Axis2P3D',#154,#155,$) ;
#169=AXIS2_PLACEMENT_3D('Plane Axis2P3D',#166,#167,#168) ;
#173=AXIS2_PLACEMENT_3D('Circle Axis2P3D',#171,#172,$) ;
#182=AXIS2_PLACEMENT_3D('Circle Axis2P3D',#180,#181,$) ;
#197=AXIS2_PLACEMENT_3D('Plane Axis2P3D',#194,#195,#196) ;
#201=AXIS2_PLACEMENT_3D('Circle Axis2P3D',#199,#200,$) ;
#210=AXIS2_PLACEMENT_3D('Circle Axis2P3D',#208,#209,$) ;
#225=AXIS2_PLACEMENT_3D('Cylinder Axis2P3D',#222,#223,#224) ;
#238=AXIS2_PLACEMENT_3D('Circle Axis2P3D',#236,#237,$) ;
#252=AXIS2_PLACEMENT_3D('Circle Axis2P3D',#250,#251,$) ;
#264=AXIS2_PLACEMENT_3D('Circle Axis2P3D',#262,#263,$) ;
#269=AXIS2_PLACEMENT_3D('Circle Axis2P3D',#267,#268,$) ;
#282=AXIS2_PLACEMENT_3D('Plane Axis2P3D',#279,#280,#281) ;
#286=AXIS2_PLACEMENT_3D('Circle Axis2P3D',#284,#285,$) ;
#295=AXIS2_PLACEMENT_3D('Circle Axis2P3D',#293,#294,$) ;
#310=AXIS2_PLACEMENT_3D('Cone Axis2P3D',#307,#308,#309) ;
#332=AXIS2_PLACEMENT_3D('Cone Axis2P3D',#329,#330,#331) ;
#357=AXIS2_PLACEMENT_3D('Circle Axis2P3D',#355,#356,$) ;
#369=AXIS2_PLACEMENT_3D('Circle Axis2P3D',#367,#368,$) ;
#382=AXIS2_PLACEMENT_3D('Plane Axis2P3D',#379,#380,#381) ;
#386=AXIS2_PLACEMENT_3D('Circle Axis2P3D',#384,#385,$) ;
#395=AXIS2_PLACEMENT_3D('Circle Axis2P3D',#393,#394,$) ;
#410=AXIS2_PLACEMENT_3D('Cone Axis2P3D',#407,#408,#409) ;
#432=AXIS2_PLACEMENT_3D('Cone Axis2P3D',#429,#430,#431) ;
#444=AXIS2_PLACEMENT_3D('Cylinder Axis2P3D',#441,#442,#443) ;
#448=AXIS2_PLACEMENT_3D('Circle Axis2P3D',#446,#447,$) ;
#474=AXIS2_PLACEMENT_3D('Circle Axis2P3D',#472,#473,$) ;
#487=AXIS2_PLACEMENT_3D('Plane Axis2P3D',#484,#485,#486) ;
#495=AXIS2_PLACEMENT_3D('Circle Axis2P3D',#493,#494,$) ;
#504=AXIS2_PLACEMENT_3D('Circle Axis2P3D',#502,#503,$) ;
#515=AXIS2_PLACEMENT_3D('Cone Axis2P3D',#512,#513,#514) ;
#537=AXIS2_PLACEMENT_3D('Cone Axis2P3D',#534,#535,#536) ;
#40=PRODUCT_DEFINITION_SHAPE(' ',' ',#14) ;
#31=APPROVAL_PERSON_ORGANIZATION(#25,#21,#19) ;
#25=PERSON_AND_ORGANIZATION(#22,#23) ;
#22=PERSON(' ',' ',' ',$,$,$) ;
#23=ORGANIZATION(' ',' ',' ') ;
#21=APPROVAL(#20,' ') ;
#20=APPROVAL_STATUS('not_yet_approved') ;
#19=APPROVAL_ROLE('APPROVER') ;
#13=DATE_AND_TIME(#11,#12) ;
#12=LOCAL_TIME(15,1,44.,#10) ;
#10=COORDINATED_UNIVERSAL_TIME_OFFSET(0,0,.AHEAD.) ;
#86=ORIENTED_EDGE('',*,*,#65,.F.) ;
#87=ORIENTED_EDGE('',*,*,#72,.T.) ;
#88=ORIENTED_EDGE('',*,*,#79,.T.) ;
#89=ORIENTED_EDGE('',*,*,#84,.F.) ;
#103=ORIENTED_EDGE('',*,*,#96,.F.) ;
#104=ORIENTED_EDGE('',*,*,#84,.T.) ;
#105=ORIENTED_EDGE('',*,*,#101,.T.) ;
#106=ORIENTED_EDGE('',*,*,#72,.F.) ;
#143=ORIENTED_EDGE('',*,*,#122,.F.) ;
#144=ORIENTED_EDGE('',*,*,#129,.T.) ;
#145=ORIENTED_EDGE('',*,*,#136,.T.) ;
#146=ORIENTED_EDGE('',*,*,#141,.F.) ;
#160=ORIENTED_EDGE('',*,*,#153,.F.) ;
#161=ORIENTED_EDGE('',*,*,#141,.T.) ;
#162=ORIENTED_EDGE('',*,*,#158,.T.) ;
#163=ORIENTED_EDGE('',*,*,#129,.F.) ;
#186=ORIENTED_EDGE('',*,*,#179,.F.) ;
#187=ORIENTED_EDGE('',*,*,#184,.F.) ;
#190=ORIENTED_EDGE('',*,*,#96,.T.) ;
#191=ORIENTED_EDGE('',*,*,#65,.T.) ;
#214=ORIENTED_EDGE('',*,*,#207,.T.) ;
#215=ORIENTED_EDGE('',*,*,#212,.T.) ;
#218=ORIENTED_EDGE('',*,*,#79,.F.) ;
#219=ORIENTED_EDGE('',*,*,#101,.F.) ;
#256=ORIENTED_EDGE('',*,*,#235,.T.) ;
#257=ORIENTED_EDGE('',*,*,#242,.T.) ;
#258=ORIENTED_EDGE('',*,*,#249,.F.) ;
#259=ORIENTED_EDGE('',*,*,#254,.F.) ;
#273=ORIENTED_EDGE('',*,*,#249,.T.) ;
#274=ORIENTED_EDGE('',*,*,#266,.T.) ;
#275=ORIENTED_EDGE('',*,*,#235,.F.) ;
#276=ORIENTED_EDGE('',*,*,#271,.F.) ;
#299=ORIENTED_EDGE('',*,*,#292,.T.) ;
#300=ORIENTED_EDGE('',*,*,#297,.T.) ;
#303=ORIENTED_EDGE('',*,*,#136,.F.) ;
#304=ORIENTED_EDGE('',*,*,#158,.F.) ;
#323=ORIENTED_EDGE('',*,*,#316,.T.) ;
#324=ORIENTED_EDGE('',*,*,#271,.T.) ;
#325=ORIENTED_EDGE('',*,*,#321,.F.) ;
#326=ORIENTED_EDGE('',*,*,#292,.F.) ;
#335=ORIENTED_EDGE('',*,*,#321,.T.) ;
#336=ORIENTED_EDGE('',*,*,#254,.T.) ;
#337=ORIENTED_EDGE('',*,*,#316,.F.) ;
#338=ORIENTED_EDGE('',*,*,#297,.F.) ;
#361=ORIENTED_EDGE('',*,*,#347,.F.) ;
#362=ORIENTED_EDGE('',*,*,#212,.F.) ;
#363=ORIENTED_EDGE('',*,*,#354,.T.) ;
#364=ORIENTED_EDGE('',*,*,#359,.T.) ;
#373=ORIENTED_EDGE('',*,*,#354,.F.) ;
#374=ORIENTED_EDGE('',*,*,#207,.F.) ;
#375=ORIENTED_EDGE('',*,*,#347,.T.) ;
#376=ORIENTED_EDGE('',*,*,#371,.T.) ;
#399=ORIENTED_EDGE('',*,*,#392,.F.) ;
#400=ORIENTED_EDGE('',*,*,#397,.F.) ;
#403=ORIENTED_EDGE('',*,*,#153,.T.) ;
#404=ORIENTED_EDGE('',*,*,#122,.T.) ;
#423=ORIENTED_EDGE('',*,*,#416,.T.) ;
#424=ORIENTED_EDGE('',*,*,#397,.T.) ;
#425=ORIENTED_EDGE('',*,*,#421,.F.) ;
#426=ORIENTED_EDGE('',*,*,#371,.F.) ;
#435=ORIENTED_EDGE('',*,*,#421,.T.) ;
#436=ORIENTED_EDGE('',*,*,#392,.T.) ;
#437=ORIENTED_EDGE('',*,*,#416,.F.) ;
#438=ORIENTED_EDGE('',*,*,#359,.F.) ;
#466=ORIENTED_EDGE('',*,*,#454,.F.) ;
#467=ORIENTED_EDGE('',*,*,#459,.T.) ;
#468=ORIENTED_EDGE('',*,*,#179,.T.) ;
#469=ORIENTED_EDGE('',*,*,#464,.F.) ;
#478=ORIENTED_EDGE('',*,*,#476,.F.) ;
#479=ORIENTED_EDGE('',*,*,#464,.T.) ;
#480=ORIENTED_EDGE('',*,*,#184,.T.) ;
#481=ORIENTED_EDGE('',*,*,#459,.F.) ;
#490=ORIENTED_EDGE('',*,*,#242,.F.) ;
#491=ORIENTED_EDGE('',*,*,#266,.F.) ;
#508=ORIENTED_EDGE('',*,*,#501,.T.) ;
#509=ORIENTED_EDGE('',*,*,#506,.T.) ;
#528=ORIENTED_EDGE('',*,*,#521,.T.) ;
#529=ORIENTED_EDGE('',*,*,#476,.T.) ;
#530=ORIENTED_EDGE('',*,*,#526,.F.) ;
#531=ORIENTED_EDGE('',*,*,#501,.F.) ;
#540=ORIENTED_EDGE('',*,*,#526,.T.) ;
#541=ORIENTED_EDGE('',*,*,#454,.T.) ;
#542=ORIENTED_EDGE('',*,*,#521,.F.) ;
#543=ORIENTED_EDGE('',*,*,#506,.F.) ;
#192=FACE_BOUND('',#189,.T.) ;
#220=FACE_BOUND('',#217,.T.) ;
#305=FACE_BOUND('',#302,.T.) ;
#405=FACE_BOUND('',#402,.T.) ;
#510=FACE_BOUND('',#507,.T.) ;
#51=CLOSED_SHELL('Closed Shell',(#91,#108,#148,#165,#193,#221,#261,#278,#306,#328,#340,#366,#378,#406,#428,#440,#471,#483,#511,#533,#545)) ;
#68=VECTOR('Line Direction',#67,1.) ;
#82=VECTOR('Line Direction',#81,1.) ;
#125=VECTOR('Line Direction',#124,1.) ;
#139=VECTOR('Line Direction',#138,1.) ;
#229=VECTOR('Line Direction',#228,1.) ;
#245=VECTOR('Line Direction',#244,1.) ;
#314=VECTOR('Line Direction',#313,1.) ;
#319=VECTOR('Line Direction',#318,1.) ;
#343=VECTOR('Line Direction',#342,1.) ;
#350=VECTOR('Line Direction',#349,1.) ;
#414=VECTOR('Line Direction',#413,1.) ;
#419=VECTOR('Line Direction',#418,1.) ;
#457=VECTOR('Line Direction',#456,1.) ;
#462=VECTOR('Line Direction',#461,1.) ;
#519=VECTOR('Line Direction',#518,1.) ;
#524=VECTOR('Line Direction',#523,1.) ;
#547=ADVANCED_BREP_SHAPE_REPRESENTATION('NONE',(#546),#46) ;
#49=SHAPE_REPRESENTATION(' ',(#48),#46) ;
#91=ADVANCED_FACE('Corps principal',(#90),#56,.F.) ;
#108=ADVANCED_FACE('Corps principal',(#107),#56,.F.) ;
#148=ADVANCED_FACE('Corps principal',(#147),#113,.T.) ;
#165=ADVANCED_FACE('Corps principal',(#164),#113,.T.) ;
#193=ADVANCED_FACE('Corps principal',(#188,#192),#170,.F.) ;
#221=ADVANCED_FACE('Corps principal',(#216,#220),#198,.T.) ;
#261=ADVANCED_FACE('Corps principal',(#260),#226,.T.) ;
#278=ADVANCED_FACE('Corps principal',(#277),#226,.T.) ;
#306=ADVANCED_FACE('Corps principal',(#301,#305),#283,.T.) ;
#328=ADVANCED_FACE('Corps principal',(#327),#311,.T.) ;
#340=ADVANCED_FACE('Corps principal',(#339),#333,.T.) ;
#366=ADVANCED_FACE('Corps principal',(#365),#226,.T.) ;
#378=ADVANCED_FACE('Corps principal',(#377),#226,.T.) ;
#406=ADVANCED_FACE('Corps principal',(#401,#405),#383,.F.) ;
#428=ADVANCED_FACE('Corps principal',(#427),#411,.T.) ;
#440=ADVANCED_FACE('Corps principal',(#439),#433,.T.) ;
#471=ADVANCED_FACE('Corps principal',(#470),#445,.F.) ;
#483=ADVANCED_FACE('Corps principal',(#482),#445,.F.) ;
#511=ADVANCED_FACE('Corps principal',(#492,#510),#488,.F.) ;
#533=ADVANCED_FACE('Corps principal',(#532),#516,.F.) ;
#545=ADVANCED_FACE('Corps principal',(#544),#538,.F.) ;
#4=APPLICATION_PROTOCOL_DEFINITION('international standard','config_control_design',1994,#1) ;
#32=APPROVAL_DATE_TIME(#13,#21) ;
#546=MANIFOLD_SOLID_BREP('Corps principal',#51) ;
#11=CALENDAR_DATE(2022,20,5) ;
#30=CC_DESIGN_APPROVAL(#21,(#16,#6,#14)) ;
#18=CC_DESIGN_DATE_AND_TIME_ASSIGNMENT(#13,#17,(#16)) ;
#29=CC_DESIGN_DATE_AND_TIME_ASSIGNMENT(#13,#28,(#14)) ;
#17=DATE_TIME_ROLE('classification_date') ;
#28=DATE_TIME_ROLE('creation_date') ;
#27=CC_DESIGN_PERSON_AND_ORGANIZATION_ASSIGNMENT(#25,#26,(#16)) ;
#33=CC_DESIGN_PERSON_AND_ORGANIZATION_ASSIGNMENT(#25,#34,(#6)) ;
#35=CC_DESIGN_PERSON_AND_ORGANIZATION_ASSIGNMENT(#25,#36,(#6,#14)) ;
#37=CC_DESIGN_PERSON_AND_ORGANIZATION_ASSIGNMENT(#25,#38,(#5)) ;
#26=PERSON_AND_ORGANIZATION_ROLE('classification_officer') ;
#34=PERSON_AND_ORGANIZATION_ROLE('design_supplier') ;
#36=PERSON_AND_ORGANIZATION_ROLE('creator') ;
#38=PERSON_AND_ORGANIZATION_ROLE('design_owner') ;
#39=CC_DESIGN_SECURITY_CLASSIFICATION(#16,(#6)) ;
#60=CIRCLE('generated circle',#59,10.85) ;
#76=CIRCLE('generated circle',#75,10.85) ;
#95=CIRCLE('generated circle',#94,10.85) ;
#100=CIRCLE('generated circle',#99,10.85) ;
#117=CIRCLE('generated circle',#116,27.9) ;
#133=CIRCLE('generated circle',#132,27.9) ;
#152=CIRCLE('generated circle',#151,27.9) ;
#157=CIRCLE('generated circle',#156,27.9) ;
#174=CIRCLE('generated circle',#173,13.) ;
#183=CIRCLE('generated circle',#182,13.) ;
#202=CIRCLE('generated circle',#201,32.) ;
#211=CIRCLE('generated circle',#210,32.) ;
#239=CIRCLE('generated circle',#238,32.) ;
#253=CIRCLE('generated circle',#252,32.) ;
#265=CIRCLE('generated circle',#264,32.) ;
#270=CIRCLE('generated circle',#269,32.) ;
#287=CIRCLE('generated circle',#286,31.) ;
#296=CIRCLE('generated circle',#295,31.) ;
#358=CIRCLE('generated circle',#357,32.) ;
#370=CIRCLE('generated circle',#369,32.) ;
#387=CIRCLE('generated circle',#386,31.) ;
#396=CIRCLE('generated circle',#395,31.) ;
#449=CIRCLE('generated circle',#448,13.) ;
#475=CIRCLE('generated circle',#474,13.) ;
#496=CIRCLE('generated circle',#495,14.) ;
#505=CIRCLE('generated circle',#504,14.) ;
#311=CONICAL_SURFACE('Cone',#310,0.,0.785398163397) ;
#333=CONICAL_SURFACE('Cone',#332,0.,0.785398163397) ;
#411=CONICAL_SURFACE('Cone',#410,0.,0.785398163397) ;
#433=CONICAL_SURFACE('Cone',#432,0.,0.785398163397) ;
#516=CONICAL_SURFACE('Cone',#515,0.,0.785398163397) ;
#538=CONICAL_SURFACE('Cone',#537,0.,0.785398163397) ;
#548=SHAPE_REPRESENTATION_RELATIONSHIP(' ',' ',#49,#547) ;
#56=CYLINDRICAL_SURFACE('generated cylinder',#55,10.85) ;
#113=CYLINDRICAL_SURFACE('generated cylinder',#112,27.9) ;
#226=CYLINDRICAL_SURFACE('generated cylinder',#225,32.) ;
#445=CYLINDRICAL_SURFACE('generated cylinder',#444,13.) ;
#3=DESIGN_CONTEXT(' ',#1,'design') ;
#65=EDGE_CURVE('',#62,#64,#60,.T.) ;
#72=EDGE_CURVE('',#62,#71,#69,.T.) ;
#79=EDGE_CURVE('',#71,#78,#76,.T.) ;
#84=EDGE_CURVE('',#64,#78,#83,.T.) ;
#96=EDGE_CURVE('',#64,#62,#95,.T.) ;
#101=EDGE_CURVE('',#78,#71,#100,.T.) ;
#122=EDGE_CURVE('',#119,#121,#117,.T.) ;
#129=EDGE_CURVE('',#119,#128,#126,.F.) ;
#136=EDGE_CURVE('',#128,#135,#133,.T.) ;
#141=EDGE_CURVE('',#121,#135,#140,.F.) ;
#153=EDGE_CURVE('',#121,#119,#152,.T.) ;
#158=EDGE_CURVE('',#135,#128,#157,.T.) ;
#179=EDGE_CURVE('',#176,#178,#174,.T.) ;
#184=EDGE_CURVE('',#178,#176,#183,.T.) ;
#207=EDGE_CURVE('',#204,#206,#202,.T.) ;
#212=EDGE_CURVE('',#206,#204,#211,.T.) ;
#235=EDGE_CURVE('',#232,#234,#230,.F.) ;
#242=EDGE_CURVE('',#234,#241,#239,.T.) ;
#249=EDGE_CURVE('',#248,#241,#246,.F.) ;
#254=EDGE_CURVE('',#232,#248,#253,.T.) ;
#266=EDGE_CURVE('',#241,#234,#265,.T.) ;
#271=EDGE_CURVE('',#248,#232,#270,.T.) ;
#292=EDGE_CURVE('',#289,#291,#287,.T.) ;
#297=EDGE_CURVE('',#291,#289,#296,.T.) ;
#316=EDGE_CURVE('',#289,#248,#315,.T.) ;
#321=EDGE_CURVE('',#291,#232,#320,.T.) ;
#347=EDGE_CURVE('',#204,#346,#344,.F.) ;
#354=EDGE_CURVE('',#206,#353,#351,.F.) ;
#359=EDGE_CURVE('',#353,#346,#358,.T.) ;
#371=EDGE_CURVE('',#346,#353,#370,.T.) ;
#392=EDGE_CURVE('',#389,#391,#387,.T.) ;
#397=EDGE_CURVE('',#391,#389,#396,.T.) ;
#416=EDGE_CURVE('',#346,#391,#415,.F.) ;
#421=EDGE_CURVE('',#353,#389,#420,.F.) ;
#454=EDGE_CURVE('',#451,#453,#449,.T.) ;
#459=EDGE_CURVE('',#451,#176,#458,.T.) ;
#464=EDGE_CURVE('',#453,#178,#463,.T.) ;
#476=EDGE_CURVE('',#453,#451,#475,.T.) ;
#501=EDGE_CURVE('',#498,#500,#496,.T.) ;
#506=EDGE_CURVE('',#500,#498,#505,.T.) ;
#521=EDGE_CURVE('',#498,#453,#520,.F.) ;
#526=EDGE_CURVE('',#500,#451,#525,.F.) ;
#85=EDGE_LOOP('',(#86,#87,#88,#89)) ;
#102=EDGE_LOOP('',(#103,#104,#105,#106)) ;
#142=EDGE_LOOP('',(#143,#144,#145,#146)) ;
#159=EDGE_LOOP('',(#160,#161,#162,#163)) ;
#185=EDGE_LOOP('',(#186,#187)) ;
#189=EDGE_LOOP('',(#190,#191)) ;
#213=EDGE_LOOP('',(#214,#215)) ;
#217=EDGE_LOOP('',(#218,#219)) ;
#255=EDGE_LOOP('',(#256,#257,#258,#259)) ;
#272=EDGE_LOOP('',(#273,#274,#275,#276)) ;
#298=EDGE_LOOP('',(#299,#300)) ;
#302=EDGE_LOOP('',(#303,#304)) ;
#322=EDGE_LOOP('',(#323,#324,#325,#326)) ;
#334=EDGE_LOOP('',(#335,#336,#337,#338)) ;
#360=EDGE_LOOP('',(#361,#362,#363,#364)) ;
#372=EDGE_LOOP('',(#373,#374,#375,#376)) ;
#398=EDGE_LOOP('',(#399,#400)) ;
#402=EDGE_LOOP('',(#403,#404)) ;
#422=EDGE_LOOP('',(#423,#424,#425,#426)) ;
#434=EDGE_LOOP('',(#435,#436,#437,#438)) ;
#465=EDGE_LOOP('',(#466,#467,#468,#469)) ;
#477=EDGE_LOOP('',(#478,#479,#480,#481)) ;
#489=EDGE_LOOP('',(#490,#491)) ;
#507=EDGE_LOOP('',(#508,#509)) ;
#527=EDGE_LOOP('',(#528,#529,#530,#531)) ;
#539=EDGE_LOOP('',(#540,#541,#542,#543)) ;
#90=FACE_OUTER_BOUND('',#85,.T.) ;
#107=FACE_OUTER_BOUND('',#102,.T.) ;
#147=FACE_OUTER_BOUND('',#142,.T.) ;
#164=FACE_OUTER_BOUND('',#159,.T.) ;
#188=FACE_OUTER_BOUND('',#185,.T.) ;
#216=FACE_OUTER_BOUND('',#213,.T.) ;
#260=FACE_OUTER_BOUND('',#255,.T.) ;
#277=FACE_OUTER_BOUND('',#272,.T.) ;
#301=FACE_OUTER_BOUND('',#298,.T.) ;
#327=FACE_OUTER_BOUND('',#322,.T.) ;
#339=FACE_OUTER_BOUND('',#334,.T.) ;
#365=FACE_OUTER_BOUND('',#360,.T.) ;
#377=FACE_OUTER_BOUND('',#372,.T.) ;
#401=FACE_OUTER_BOUND('',#398,.T.) ;
#427=FACE_OUTER_BOUND('',#422,.T.) ;
#439=FACE_OUTER_BOUND('',#434,.T.) ;
#470=FACE_OUTER_BOUND('',#465,.T.) ;
#482=FACE_OUTER_BOUND('',#477,.T.) ;
#492=FACE_OUTER_BOUND('',#489,.T.) ;
#532=FACE_OUTER_BOUND('',#527,.T.) ;
#544=FACE_OUTER_BOUND('',#539,.T.) ;
#45=UNCERTAINTY_MEASURE_WITH_UNIT(LENGTH_MEASURE(0.005),#41,'distance_accuracy_value','CONFUSED CURVE UNCERTAINTY') ;
#69=LINE('Line',#66,#68) ;
#83=LINE('Line',#80,#82) ;
#126=LINE('Line',#123,#125) ;
#140=LINE('Line',#137,#139) ;
#230=LINE('Line',#227,#229) ;
#246=LINE('Line',#243,#245) ;
#315=LINE('Line',#312,#314) ;
#320=LINE('Line',#317,#319) ;
#344=LINE('Line',#341,#343) ;
#351=LINE('Line',#348,#350) ;
#415=LINE('Line',#412,#414) ;
#420=LINE('Line',#417,#419) ;
#458=LINE('Line',#455,#457) ;
#463=LINE('Line',#460,#462) ;
#520=LINE('Line',#517,#519) ;
#525=LINE('Line',#522,#524) ;
#2=MECHANICAL_CONTEXT(' ',#1,'mechanical') ;
#24=PERSONAL_ADDRESS(' ',' ',' ',' ',' ',' ',' ',' ',' ',' ',' ',' ',(#22),' ') ;
#170=PLANE('Plane',#169) ;
#198=PLANE('Plane',#197) ;
#283=PLANE('Plane',#282) ;
#383=PLANE('Plane',#382) ;
#488=PLANE('Plane',#487) ;
#43=PLANE_ANGLE_MEASURE_WITH_UNIT(PLANE_ANGLE_MEASURE(0.0174532925199),#42) ;
#7=PRODUCT_CATEGORY('part',$) ;
#9=PRODUCT_CATEGORY_RELATIONSHIP(' ',' ',#7,#8) ;
#6=PRODUCT_DEFINITION_FORMATION_WITH_SPECIFIED_SOURCE('',' ',#5,.NOT_KNOWN.) ;
#8=PRODUCT_RELATED_PRODUCT_CATEGORY('detail',$,(#5)) ;
#50=SHAPE_DEFINITION_REPRESENTATION(#40,#49) ;
#62=VERTEX_POINT('',#61) ;
#64=VERTEX_POINT('',#63) ;
#71=VERTEX_POINT('',#70) ;
#78=VERTEX_POINT('',#77) ;
#119=VERTEX_POINT('',#118) ;
#121=VERTEX_POINT('',#120) ;
#128=VERTEX_POINT('',#127) ;
#135=VERTEX_POINT('',#134) ;
#176=VERTEX_POINT('',#175) ;
#178=VERTEX_POINT('',#177) ;
#204=VERTEX_POINT('',#203) ;
#206=VERTEX_POINT('',#205) ;
#232=VERTEX_POINT('',#231) ;
#234=VERTEX_POINT('',#233) ;
#241=VERTEX_POINT('',#240) ;
#248=VERTEX_POINT('',#247) ;
#289=VERTEX_POINT('',#288) ;
#291=VERTEX_POINT('',#290) ;
#346=VERTEX_POINT('',#345) ;
#353=VERTEX_POINT('',#352) ;
#389=VERTEX_POINT('',#388) ;
#391=VERTEX_POINT('',#390) ;
#451=VERTEX_POINT('',#450) ;
#453=VERTEX_POINT('',#452) ;
#498=VERTEX_POINT('',#497) ;
#500=VERTEX_POINT('',#499) ;
#41=(LENGTH_UNIT()NAMED_UNIT(*)SI_UNIT(.MILLI.,.METRE.)) ;
#42=(NAMED_UNIT(*)PLANE_ANGLE_UNIT()SI_UNIT($,.RADIAN.)) ;
#44=(NAMED_UNIT(*)SI_UNIT($,.STERADIAN.)SOLID_ANGLE_UNIT()) ;
#46=(GEOMETRIC_REPRESENTATION_CONTEXT(3)GLOBAL_UNCERTAINTY_ASSIGNED_CONTEXT((#45))GLOBAL_UNIT_ASSIGNED_CONTEXT((#41,#42,#44))REPRESENTATION_CONTEXT(' ',' ')) ;
ENDSEC;
END-ISO-10303-21;
