  0
SECTION
  2
HEADER
  9
$ACADVER
  1
AC1015
  9
$ACADMAINTVER
 70
     6
  9
$DWGCODEPAGE
  3
ANSI_1252
  9
$INSBASE
 10
0.0
 20
0.0
 30
0.0
  9
$EXTMIN
 10
-33.8649204117
 20
-7.897383549
 30
0.0
  9
$EXTMAX
 10
1.3517136385
 20
30.1484969083
 30
0.0
  9
$LIMMIN
 10
0.0
 20
0.0
  9
$LIMMAX
 10
420.0
 20
297.0
  9
$ORTHOMODE
 70
     0
  9
$REGENMODE
 70
     1
  9
$FILLMODE
 70
     1
  9
$QTEXTMODE
 70
     0
  9
$MIRRTEXT
 70
     1
  9
$LTSCALE
 40
1.0
  9
$ATTMODE
 70
     1
  9
$TEXTSIZE
 40
3.5
  9
$TRACEWID
 40
1.0
  9
$TEXTSTYLE
  7
Standard
  9
$CLAYER
  8
0
  9
$CELTYPE
  6
ByLayer
  9
$CECOLOR
 62
   256
  9
$CELTSCALE
 40
1.0
  9
$DISPSILH
 70
     0
  9
$DIMSCALE
 40
1.0
  9
$DIMASZ
 40
3.302
  9
$DIMEXO
 40
0.0
  9
$DIMDLI
 40
3.75
  9
$DIMRND
 40
0.0
  9
$DIMDLE
 40
0.0
  9
$DIMEXE
 40
1.0
  9
$DIMTP
 40
0.0
  9
$DIMTM
 40
0.0
  9
$DIMTXT
 40
3.5
  9
$DIMCEN
 40
2.5
  9
$DIMTSZ
 40
0.0
  9
$DIMTOL
 70
     0
  9
$DIMLIM
 70
     0
  9
$DIMTIH
 70
     1
  9
$DIMTOH
 70
     1
  9
$DIMSE1
 70
     0
  9
$DIMSE2
 70
     0
  9
$DIMTAD
 70
     1
  9
$DIMZIN
 70
     1
  9
$DIMBLK
  1

  9
$DIMASO
 70
     1
  9
$DIMSHO
 70
     1
  9
$DIMPOST
  1

  9
$DIMAPOST
  1

  9
$DIMALT
 70
     0
  9
$DIMALTD
 70
     3
  9
$DIMALTF
 40
0.0393700787
  9
$DIMLFAC
 40
1.0
  9
$DIMTOFL
 70
     1
  9
$DIMTVP
 40
0.0
  9
$DIMTIX
 70
     0
  9
$DIMSOXD
 70
     0
  9
$DIMSAH
 70
     0
  9
$DIMBLK1
  1

  9
$DIMBLK2
  1

  9
$DIMSTYLE
  2
ISO-25
  9
$DIMCLRD
 70
     0
  9
$DIMCLRE
 70
     0
  9
$DIMCLRT
 70
     0
  9
$DIMTFAC
 40
1.0
  9
$DIMGAP
 40
1.524
  9
$DIMJUST
 70
     0
  9
$DIMSD1
 70
     0
  9
$DIMSD2
 70
     0
  9
$DIMTOLJ
 70
     0
  9
$DIMTZIN
 70
     1
  9
$DIMALTZ
 70
     0
  9
$DIMALTTZ
 70
     0
  9
$DIMUPT
 70
     0
  9
$DIMDEC
 70
     2
  9
$DIMTDEC
 70
     2
  9
$DIMALTU
 70
     2
  9
$DIMALTTD
 70
     3
  9
$DIMTXSTY
  7
Standard
  9
$DIMAUNIT
 70
     0
  9
$DIMADEC
 70
     2
  9
$DIMALTRND
 40
0.0
  9
$DIMAZIN
 70
     0
  9
$DIMDSEP
 70
    44
  9
$DIMATFIT
 70
     3
  9
$DIMFRAC
 70
     0
  9
$DIMLDRBLK
  1

  9
$DIMLUNIT
 70
     2
  9
$DIMLWD
 70
    -2
  9
$DIMLWE
 70
    -2
  9
$DIMTMOVE
 70
     0
  9
$LUNITS
 70
     2
  9
$LUPREC
 70
     2
  9
$SKETCHINC
 40
1.0
  9
$FILLETRAD
 40
10.0
  9
$AUNITS
 70
     0
  9
$AUPREC
 70
     2
  9
$MENU
  1
.
  9
$ELEVATION
 40
0.0
  9
$PELEVATION
 40
0.0
  9
$THICKNESS
 40
0.0
  9
$LIMCHECK
 70
     0
  9
$CHAMFERA
 40
0.0
  9
$CHAMFERB
 40
0.0
  9
$CHAMFERC
 40
0.0
  9
$CHAMFERD
 40
0.0
  9
$SKPOLY
 70
     0
  9
$TDCREATE
 40
2459718.446030313
  9
$TDUCREATE
 40
2459718.362696979
  9
$TDUPDATE
 40
2459718.446111806
  9
$TDUUPDATE
 40
2459718.362778472
  9
$TDINDWG
 40
0.0000000116
  9
$TDUSRTIMER
 40
0.0000000116
  9
$USRTIMER
 70
     1
  9
$ANGBASE
 50
0.0
  9
$ANGDIR
 70
     0
  9
$PDMODE
 70
     0
  9
$PDSIZE
 40
-1.0
  9
$PLINEWID
 40
0.0
  9
$SPLFRAME
 70
     0
  9
$SPLINETYPE
 70
     6
  9
$SPLINESEGS
 70
     8
  9
$HANDSEED
  5
8C
  9
$SURFTAB1
 70
     6
  9
$SURFTAB2
 70
     6
  9
$SURFTYPE
 70
     6
  9
$SURFU
 70
     6
  9
$SURFV
 70
     6
  9
$UCSBASE
  2

  9
$UCSNAME
  2

  9
$UCSORG
 10
0.0
 20
0.0
 30
0.0
  9
$UCSXDIR
 10
1.0
 20
0.0
 30
0.0
  9
$UCSYDIR
 10
0.0
 20
1.0
 30
0.0
  9
$UCSORTHOREF
  2

  9
$UCSORTHOVIEW
 70
     0
  9
$UCSORGTOP
 10
0.0
 20
0.0
 30
0.0
  9
$UCSORGBOTTOM
 10
0.0
 20
0.0
 30
0.0
  9
$UCSORGLEFT
 10
0.0
 20
0.0
 30
0.0
  9
$UCSORGRIGHT
 10
0.0
 20
0.0
 30
0.0
  9
$UCSORGFRONT
 10
0.0
 20
0.0
 30
0.0
  9
$UCSORGBACK
 10
0.0
 20
0.0
 30
0.0
  9
$PUCSBASE
  2

  9
$PUCSNAME
  2

  9
$PUCSORG
 10
0.0
 20
0.0
 30
0.0
  9
$PUCSXDIR
 10
1.0
 20
0.0
 30
0.0
  9
$PUCSYDIR
 10
0.0
 20
1.0
 30
0.0
  9
$PUCSORTHOREF
  2

  9
$PUCSORTHOVIEW
 70
     0
  9
$PUCSORGTOP
 10
0.0
 20
0.0
 30
0.0
  9
$PUCSORGBOTTOM
 10
0.0
 20
0.0
 30
0.0
  9
$PUCSORGLEFT
 10
0.0
 20
0.0
 30
0.0
  9
$PUCSORGRIGHT
 10
0.0
 20
0.0
 30
0.0
  9
$PUCSORGFRONT
 10
0.0
 20
0.0
 30
0.0
  9
$PUCSORGBACK
 10
0.0
 20
0.0
 30
0.0
  9
$USERI1
 70
     0
  9
$USERI2
 70
     0
  9
$USERI3
 70
     0
  9
$USERI4
 70
     0
  9
$USERI5
 70
     0
  9
$USERR1
 40
0.0
  9
$USERR2
 40
0.0
  9
$USERR3
 40
0.0
  9
$USERR4
 40
0.0
  9
$USERR5
 40
0.0
  9
$WORLDVIEW
 70
     1
  9
$SHADEDGE
 70
     3
  9
$SHADEDIF
 70
    70
  9
$TILEMODE
 70
     1
  9
$MAXACTVP
 70
    64
  9
$PINSBASE
 10
0.0
 20
0.0
 30
0.0
  9
$PLIMCHECK
 70
     0
  9
$PEXTMIN
 10
1.0000000000E+20
 20
1.0000000000E+20
 30
1.0000000000E+20
  9
$PEXTMAX
 10
-1.0000000000E+20
 20
-1.0000000000E+20
 30
-1.0000000000E+20
  9
$PLIMMIN
 10
0.0
 20
0.0
  9
$PLIMMAX
 10
420.0
 20
297.0
  9
$UNITMODE
 70
     0
  9
$VISRETAIN
 70
     1
  9
$PLINEGEN
 70
     0
  9
$PSLTSCALE
 70
     1
  9
$TREEDEPTH
 70
  3020
  9
$CMLSTYLE
  2
Standard
  9
$CMLJUST
 70
     0
  9
$CMLSCALE
 40
20.0
  9
$PROXYGRAPHICS
 70
     1
  9
$MEASUREMENT
 70
     1
  9
$CELWEIGHT
370
    -1
  9
$ENDCAPS
280
     0
  9
$JOINSTYLE
280
     0
  9
$LWDISPLAY
290
     1
  9
$INSUNITS
 70
     4
  9
$HYPERLINKBASE
  1

  9
$STYLESHEET
  1

  9
$XEDIT
290
     1
  9
$CEPSNTYPE
380
     0
  9
$PSTYLEMODE
290
     1
  9
$FINGERPRINTGUID
  2
{97b5f1c0-6206-47b6-81d4-3ebc13ae221f}
  9
$VERSIONGUID
  2
{FAEB1C32-E019-11D5-929B-00C0DF256EC4}
  9
$EXTNAMES
290
     1
  9
$PSVPSCALE
 40
0.0
  9
$OLESTARTUP
290
     0
  0
ENDSEC
  0
SECTION
  2
CLASSES
  0
CLASS
  1
ACDBDICTIONARYWDFLT
  2
AcDbDictionaryWithDefault
  3
ObjectDBX Classes
 90
        0
280
     0
281
     0
  0
CLASS
  1
VISUALSTYLE
  2
AcDbVisualStyle
  3
ObjectDBX Classes
 90
     4095
280
     0
281
     0
  0
CLASS
  1
MATERIAL
  2
AcDbMaterial
  3
ObjectDBX Classes
 90
     1153
280
     0
281
     0
  0
CLASS
  1
SCALE
  2
AcDbScale
  3
ObjectDBX Classes
 90
     1153
280
     0
281
     0
  0
CLASS
  1
TABLESTYLE
  2
AcDbTableStyle
  3
ObjectDBX Classes
 90
     4095
280
     0
281
     0
  0
CLASS
  1
MLEADERSTYLE
  2
AcDbMLeaderStyle
  3
ACDB_MLEADERSTYLE_CLASS
 90
     4095
280
     0
281
     0
  0
CLASS
  1
SUN
  2
AcDbSun
  3
SCENEOE
 90
     1153
280
     0
281
     0
  0
CLASS
  1
ACDBPLACEHOLDER
  2
AcDbPlaceHolder
  3
ObjectDBX Classes
 90
        0
280
     0
281
     0
  0
CLASS
  1
LAYOUT
  2
AcDbLayout
  3
ObjectDBX Classes
 90
        0
280
     0
281
     0
  0
ENDSEC
  0
SECTION
  2
TABLES
  0
TABLE
  2
VPORT
  5
8
330
0
100
AcDbSymbolTable
 70
     1
  0
VPORT
  5
29
330
8
100
AcDbSymbolTableRecord
100
AcDbViewportTableRecord
  2
*Active
 70
     0
 10
0.0
 20
0.0
 11
1.0
 21
1.0
 12
-16.2566033866
 22
11.1255566797
 13
0.0
 23
0.0
 14
10.0
 24
10.0
 15
10.0
 25
10.0
 16
0.0
 26
0.0
 36
1.0
 17
0.0
 27
0.0
 37
0.0
 40
38.8067980665
 41
0.9256359329
 42
50.0
 43
0.0
 44
0.0
 50
0.0
 51
0.0
 71
     0
 72
   100
 73
     1
 74
     3
 75
     0
 76
     0
 77
     0
 78
     0
281
     0
 65
     1
110
0.0
120
0.0
130
0.0
111
1.0
121
0.0
131
0.0
112
0.0
122
1.0
132
0.0
 79
     0
146
0.0
  0
ENDTAB
  0
TABLE
  2
LTYPE
  5
5
330
0
100
AcDbSymbolTable
 70
     6
  0
LTYPE
  5
14
330
5
100
AcDbSymbolTableRecord
100
AcDbLinetypeTableRecord
  2
ByBlock
 70
     0
  3

 72
    65
 73
     0
 40
0.0
  0
LTYPE
  5
15
330
5
100
AcDbSymbolTableRecord
100
AcDbLinetypeTableRecord
  2
ByLayer
 70
     0
  3

 72
    65
 73
     0
 40
0.0
  0
LTYPE
  5
16
330
5
100
AcDbSymbolTableRecord
100
AcDbLinetypeTableRecord
  2
Continuous
 70
     0
  3
Solid line
 72
    65
 73
     0
 40
0.0
  0
LTYPE
  5
6E
330
5
100
AcDbSymbolTableRecord
100
AcDbLinetypeTableRecord
  2
HIDDEN
 70
     0
  3
Hidden __ __ __ __ __ __ __ __ __ __ __ __ __ __
 72
    65
 73
     2
 40
1.905
 49
1.27
 74
     0
 49
-0.635
 74
     0
  0
LTYPE
  5
6F
330
5
100
AcDbSymbolTableRecord
100
AcDbLinetypeTableRecord
  2
PHANTOM
 70
     0
  3
Phantom ______  __  __  ______  __  __  ______
 72
    65
 73
     6
 40
12.7
 49
6.35
 74
     0
 49
-1.27
 74
     0
 49
1.27
 74
     0
 49
-1.27
 74
     0
 49
1.27
 74
     0
 49
-1.27
 74
     0
  0
LTYPE
  5
70
330
5
100
AcDbSymbolTableRecord
100
AcDbLinetypeTableRecord
  2
CENTER
 70
     0
  3
Center ____ _ ____ _ ____ _ ____ _ ____ _ ____
 72
    65
 73
     4
 40
10.16
 49
6.35
 74
     0
 49
-1.27
 74
     0
 49
1.27
 74
     0
 49
-1.27
 74
     0
  0
LTYPE
  5
71
330
5
100
AcDbSymbolTableRecord
100
AcDbLinetypeTableRecord
  2
CENTERX2
 70
     0
  3
Center (2x) ________  __  ________  __  _____
 72
    65
 73
     4
 40
20.32
 49
12.7
 74
     0
 49
-2.54
 74
     0
 49
2.54
 74
     0
 49
-2.54
 74
     0
  0
LTYPE
  5
72
330
5
100
AcDbSymbolTableRecord
100
AcDbLinetypeTableRecord
  2
DOT2
 70
     0
  3
Dot (.5x) ........................................
 72
    65
 73
     2
 40
0.635
 49
0.0
 74
     0
 49
-0.635
 74
     0
  0
ENDTAB
  0
TABLE
  2
LAYER
  5
2
330
0
100
AcDbSymbolTable
 70
     1
  0
LAYER
  5
10
330
2
100
AcDbSymbolTableRecord
100
AcDbLayerTableRecord
  2
0
 70
     0
 62
     7
  6
Continuous
370
    -3
390
F
  0
ENDTAB
  0
TABLE
  2
STYLE
  5
3
330
0
100
AcDbSymbolTable
 70
     2
  0
STYLE
  5
11
330
3
100
AcDbSymbolTableRecord
100
AcDbTextStyleTableRecord
  2
Standard
 70
     0
 40
0.0
 41
1.0
 50
0.0
 71
     0
 42
3.5
  3
txt
  4

  0
STYLE
  5
89
330
3
100
AcDbSymbolTableRecord
100
AcDbTextStyleTableRecord
  2
SLDTEXTSTYLE0
 70
     0
 40
0.0
 41
0.7
 50
0.0
 71
     0
 42
3.5
  3
TXT
  4
bigfont
  0
ENDTAB
  0
TABLE
  2
VIEW
  5
6
330
0
100
AcDbSymbolTable
 70
     0
  0
ENDTAB
  0
TABLE
  2
UCS
  5
7
330
0
100
AcDbSymbolTable
 70
     0
  0
ENDTAB
  0
TABLE
  2
APPID
  5
9
330
0
100
AcDbSymbolTable
 70
     1
  0
APPID
  5
12
330
9
100
AcDbSymbolTableRecord
100
AcDbRegAppTableRecord
  2
ACAD
 70
     0
  0
ENDTAB
  0
TABLE
  2
DIMSTYLE
  5
A
330
0
100
AcDbSymbolTable
 70
     1
100
AcDbDimStyleTable
  0
DIMSTYLE
105
27
330
A
100
AcDbSymbolTableRecord
100
AcDbDimStyleTableRecord
  2
ISO-25
 70
     0
 41
2.5
 42
0.625
 43
3.75
 44
1.25
 73
     0
 74
     0
 77
     1
 78
     8
140
2.5
141
2.5
143
0.0393700787
147
0.625
171
     3
172
     1
178
     0
271
     2
272
     2
274
     3
278
    44
283
     0
284
     8
340
11
  0
ENDTAB
  0
TABLE
  2
BLOCK_RECORD
  5
1
330
0
100
AcDbSymbolTable
 70
     1
  0
BLOCK_RECORD
  5
1F
330
1
100
AcDbSymbolTableRecord
100
AcDbBlockTableRecord
  2
*Model_Space
340
22
  0
BLOCK_RECORD
  5
1B
330
1
100
AcDbSymbolTableRecord
100
AcDbBlockTableRecord
  2
*Paper_Space
340
1E
  0
BLOCK_RECORD
  5
23
330
1
100
AcDbSymbolTableRecord
100
AcDbBlockTableRecord
  2
*Paper_Space0
340
26
  0
ENDTAB
  0
ENDSEC
  0
SECTION
  2
BLOCKS
  0
BLOCK
  5
20
330
1F
100
AcDbEntity
  8
0
100
AcDbBlockBegin
  2
*Model_Space
 70
     0
 10
0.0
 20
0.0
 30
0.0
  3
*Model_Space
  1

  0
ENDBLK
  5
21
330
1F
100
AcDbEntity
  8
0
100
AcDbBlockEnd
  0
BLOCK
  5
1C
330
1B
100
AcDbEntity
 67
     1
  8
0
100
AcDbBlockBegin
  2
*Paper_Space
 70
     0
 10
0.0
 20
0.0
 30
0.0
  3
*Paper_Space
  1

  0
ENDBLK
  5
1D
330
1B
100
AcDbEntity
 67
     1
  8
0
100
AcDbBlockEnd
  0
BLOCK
  5
24
330
23
100
AcDbEntity
  8
0
100
AcDbBlockBegin
  2
*Paper_Space0
 70
     0
 10
0.0
 20
0.0
 30
0.0
  3
*Paper_Space0
  1

  0
ENDBLK
  5
25
330
23
100
AcDbEntity
  8
0
100
AcDbBlockEnd
  0
ENDSEC
  0
SECTION
  2
ENTITIES
  0
LWPOLYLINE
  5
75
330
1F
100
AcDbEntity
  8
0
  6
Continuous
 62
     7
370
    25
100
AcDbPolyline
 90
       47
 70
   128
 43
0.0
 10
-1.3517136385
 20
21.0142787454
 10
-1.3485624821
 20
21.5520530752
 10
-1.3391237048
 20
22.0912977351
 10
-1.3234413146
 20
22.6294985177
 10
-1.3015884301
 20
23.1641460823
 10
-1.2736669395
 20
23.6927476552
 10
-1.2398070257
 20
24.212838652
 10
-1.2001665592
 20
24.7219941682
 10
-1.1549303622
 20
25.2178402858
 10
-1.1043093467
 20
25.6980651414
 10
-1.0485395312
 20
26.1604297049
 10
-0.9878809405
 20
26.6027782194
 10
-0.9226163927
 20
27.0230482519
 10
-0.8530501815
 20
27.4192803094
 10
-0.7795066565
 20
27.7896269753
 10
-0.7023287116
 20
28.1323615223
 10
-0.6218761861
 20
28.4458859639
 10
-0.5385241868
 20
28.7287385044
 10
-0.452661339
 20
28.9796003546
 10
-0.3646879752
 20
29.1973018807
 10
-0.2750142677
 20
29.3808280579
 10
-0.1840583167
 20
29.5293232023
 10
-0.0922442009
 20
29.642094961
 10
0.0
 20
29.71861754
 10
0.0922442009
 20
29.7585341558
 10
0.1840583167
 20
29.7616586986
 10
0.2750142677
 20
29.7279766003
 10
0.3646879752
 20
29.6576449026
 10
0.452661339
 20
29.5509915241
 10
0.5385241868
 20
29.4085137323
 10
0.6218761861
 20
29.2308758243
 10
0.7023287116
 20
29.01890603
 10
0.7795066565
 20
28.7735926506
 10
0.8530501815
 20
28.4960794501
 10
0.9226163927
 20
28.1876603233
 10
0.9878809405
 20
27.8497732625
 10
1.0485395312
 20
27.4839936531
 10
1.1043093467
 20
27.0920269286
 10
1.1549303622
 20
26.6757006187
 10
1.2001665592
 20
26.2369558289
 10
1.2398070257
 20
25.77783819
 10
1.2736669395
 20
25.3004883202
 10
1.3015884301
 20
24.8071318451
 10
1.3234413146
 20
24.3000690202
 10
1.3391237048
 20
23.7816640066
 10
1.3485624821
 20
23.2543338477
 10
1.3517136385
 20
22.7205372001
  0
LWPOLYLINE
  5
76
330
1F
100
AcDbEntity
  8
0
  6
Continuous
 62
     7
370
    25
100
AcDbPolyline
 90
       64
 70
   128
 43
0.0
 10
-31.1614931346
 20
23.3396128238
 10
-30.5431600583
 20
23.7180972961
 10
-29.9297248285
 20
24.0935197827
 10
-29.3227125419
 20
24.4649469241
 10
-28.7236323266
 20
24.8314552939
 10
-28.1339735906
 20
25.1921336946
 10
-27.5552023182
 20
25.5460854229
 10
-26.9887574261
 20
25.8924304989
 10
-26.4360471855
 20
26.2303078543
 10
-25.8984457211
 20
26.5588774727
 10
-25.377289595
 20
26.8773224783
 10
-24.8738744834
 20
27.1848511665
 10
-24.3894519554
 20
27.4806989727
 10
-23.925226362
 20
27.7641303726
 10
-23.482351841
 20
28.0344407111
 10
-23.0619294483
 20
28.290957954
 10
-22.6650044201
 20
28.5330443591
 10
-22.2925635748
 20
28.7600980614
 10
-21.9455328588
 20
28.9715545697
 10
-21.6247750452
 20
29.1668881697
 10
-21.3310875885
 20
29.3456132314
 10
-21.0652006419
 20
29.5072854161
 10
-20.8277752424
 20
29.6515027813
 10
-20.6194016669
 20
29.7779067798
 10
-20.4405979648
 20
29.8861831514
 10
-20.2918086705
 20
29.976062704
 10
-20.1734036974
 20
30.0473219829
 10
-20.0856774191
 20
30.0997838263
 10
-20.0288479369
 20
30.1333178057
 10
-20.0030565378
 20
30.1478405504
 10
-20.0083673433
 20
30.1433159546
 10
-20.0447671499
 20
30.1197552672
 10
-20.112165462
 20
30.0772170636
 10
-20.2103947167
 20
30.0158071006
 10
-20.3392107007
 20
29.9356780531
 10
-20.498293157
 20
29.8370291344
 10
-20.6872465817
 20
29.7201056014
 10
-20.9056012068
 20
29.5851981443
 10
-21.1528141682
 20
29.4326421643
 10
-21.4282708556
 20
29.2628169397
 10
-21.7312864402
 20
29.0761446827
 10
-22.0611075776
 20
28.87308949
 10
-22.4169142805
 20
28.6541561887
 10
-22.7978219573
 20
28.4198890816
 10
-23.2028836115
 20
28.1708705936
 10
-23.6310921961
 20
27.9077198238
 10
-24.081383117
 20
27.6310910066
 10
-24.55263688
 20
27.3416718848
 10
-25.0436818741
 20
27.0401819999
 10
-25.553297284
 20
26.7273709033
 10
-26.0802161255
 20
26.4040162926
 10
-26.6231283953
 20
26.0709220784
 10
-27.180684328
 20
25.7289163854
 10
-27.7514977518
 20
25.3788494935
 10
-28.3341495344
 20
25.0215917243
 10
-28.9271911118
 20
24.6580312769
 10
-29.5291480892
 20
24.2890720198
 10
-30.1385239066
 20
23.9156312438
 10
-30.7538035598
 20
23.5386373816
 10
-31.3734573665
 20
23.1590276994
 10
-31.9959447699
 20
22.7777459665
 10
-32.6197181681
 20
22.3957401095
 10
-33.2432267623
 20
22.013959855
 10
-33.8649204117
 20
21.6333543691
  0
LWPOLYLINE
  5
79
330
1F
100
AcDbEntity
  8
0
  6
Continuous
 62
     7
370
    25
100
AcDbPolyline
 90
       47
 70
   128
 43
0.0
 10
1.3517136385
 20
0.8531292274
 10
1.3485624821
 20
0.3153548975
 10
1.3391237048
 20
-0.2238897624
 10
1.3234413146
 20
-0.7620905449
 10
1.3015884301
 20
-1.2967381095
 10
1.2736669395
 20
-1.8253396825
 10
1.2398070257
 20
-2.3454306792
 10
1.2001665592
 20
-2.8545861954
 10
1.1549303622
 20
-3.3504323131
 10
1.1043093467
 20
-3.8306571686
 10
1.0485395312
 20
-4.2930217322
 10
0.9878809405
 20
-4.7353702467
 10
0.9226163927
 20
-5.1556402791
 10
0.8530501815
 20
-5.5518723367
 10
0.7795066565
 20
-5.9222190025
 10
0.7023287116
 20
-6.2649535496
 10
0.6218761861
 20
-6.5784779912
 10
0.5385241868
 20
-6.8613305316
 10
0.452661339
 20
-7.1121923818
 10
0.3646879752
 20
-7.329893908
 10
0.2750142677
 20
-7.5134200852
 10
0.1840583167
 20
-7.6619152296
 10
0.0922442009
 20
-7.7746869883
 10
0.0
 20
-7.8512095673
 10
-0.0922442009
 20
-7.891126183
 10
-0.1840583167
 20
-7.8942507258
 10
-0.2750142677
 20
-7.8605686276
 10
-0.3646879752
 20
-7.7902369299
 10
-0.452661339
 20
-7.6835835514
 10
-0.5385241868
 20
-7.5411057596
 10
-0.6218761861
 20
-7.3634678516
 10
-0.7023287116
 20
-7.1514980573
 10
-0.7795066565
 20
-6.9061846778
 10
-0.8530501815
 20
-6.6286714774
 10
-0.9226163927
 20
-6.3202523506
 10
-0.9878809405
 20
-5.9823652898
 10
-1.0485395312
 20
-5.6165856804
 10
-1.1043093467
 20
-5.2246189559
 10
-1.1549303622
 20
-4.808292646
 10
-1.2001665592
 20
-4.3695478562
 10
-1.2398070257
 20
-3.9104302172
 10
-1.2736669395
 20
-3.4330803474
 10
-1.3015884301
 20
-2.9397238723
 10
-1.3234413146
 20
-2.4326610475
 10
-1.3391237048
 20
-1.9142560339
 10
-1.3485624821
 20
-1.3869258749
 10
-1.3517136385
 20
-0.8531292274
  0
LWPOLYLINE
  5
7A
330
1F
100
AcDbEntity
  8
0
  6
Continuous
 62
     7
370
    25
100
AcDbPolyline
 90
       41
 70
   128
 43
0.0
 10
1.0404622598
 20
22.5240920059
 10
1.0372548619
 20
22.9962239453
 10
1.0276524428
 20
23.4613963589
 10
1.0117142047
 20
23.916741304
 10
0.9895384121
 20
24.3594514277
 10
0.9612617862
 20
24.7867972748
 10
0.9270586616
 20
25.196144116
 10
0.8871399122
 20
25.584968192
 10
0.8417516502
 20
25.950872273
 10
0.7911737093
 20
26.2916004388
 10
0.7357179195
 20
26.6050519868
 10
0.675726184
 20
26.889294384
 10
0.6115683719
 20
27.1425751815
 10
0.5436400374
 20
27.363332819
 10
0.4723599813
 20
27.5502062523
 10
0.3981676688
 20
27.7020433445
 10
0.3215205203
 20
27.8179079693
 10
0.2428910908
 20
27.897085783
 10
0.162764157
 20
27.9390886279
 10
0.081633728
 20
27.9436575425
 10
0.0
 20
27.9107643579
 10
-0.081633728
 20
27.8406118716
 10
-0.162764157
 20
27.733632597
 10
-0.2428910908
 20
27.5904860969
 10
-0.3215205203
 20
27.412054917
 10
-0.3981676688
 20
27.1994391449
 10
-0.4723599813
 20
26.9539496276
 10
-0.5436400374
 20
26.6770998895
 10
-0.6115683719
 20
26.3705968013
 10
-0.675726184
 20
26.0363300566
 10
-0.7357179195
 20
25.6763605209
 10
-0.7911737093
 20
25.2929075261
 10
-0.8417516502
 20
24.8883351876
 10
-0.8871399122
 20
24.4651378281
 10
-0.9270586616
 20
24.0259246003
 10
-0.9612617862
 20
23.5734033997
 10
-0.9895384121
 20
23.11036417
 10
-1.0117142047
 20
22.639661702
 10
-1.0276524428
 20
22.1641980329
 10
-1.0372548619
 20
21.6869045545
 10
-1.0404622598
 20
21.2107239396
  0
LWPOLYLINE
  5
7C
330
1F
100
AcDbEntity
  8
0
  6
Continuous
 62
     7
370
    25
100
AcDbPolyline
 90
       41
 70
   128
 43
0.0
 10
-1.0404622598
 20
-0.6566840331
 10
-1.0372548619
 20
-1.1288159726
 10
-1.0276524428
 20
-1.5939883862
 10
-1.0117142047
 20
-2.0493333313
 10
-0.9895384121
 20
-2.492043455
 10
-0.9612617862
 20
-2.919389302
 10
-0.9270586616
 20
-3.3287361433
 10
-0.8871399122
 20
-3.7175602193
 10
-0.8417516502
 20
-4.0834643003
 10
-0.7911737093
 20
-4.424192466
 10
-0.7357179195
 20
-4.737644014
 10
-0.675726184
 20
-5.0218864112
 10
-0.6115683719
 20
-5.2751672088
 10
-0.5436400374
 20
-5.4959248463
 10
-0.4723599813
 20
-5.6827982796
 10
-0.3981676688
 20
-5.8346353717
 10
-0.3215205203
 20
-5.9504999966
 10
-0.2428910908
 20
-6.0296778103
 10
-0.162764157
 20
-6.0716806551
 10
-0.081633728
 20
-6.0762495697
 10
0.0
 20
-6.0433563852
 10
0.081633728
 20
-5.9732038989
 10
0.162764157
 20
-5.8662246243
 10
0.2428910908
 20
-5.7230781241
 10
0.3215205203
 20
-5.5446469443
 10
0.3981676688
 20
-5.3320311722
 10
0.4723599813
 20
-5.0865416548
 10
0.5436400374
 20
-4.8096919167
 10
0.6115683719
 20
-4.5031888286
 10
0.675726184
 20
-4.1689220839
 10
0.7357179195
 20
-3.8089525482
 10
0.7911737093
 20
-3.4254995534
 10
0.8417516502
 20
-3.0209272148
 10
0.8871399122
 20
-2.5977298554
 10
0.9270586616
 20
-2.1585166276
 10
0.9612617862
 20
-1.7059954269
 10
0.9895384121
 20
-1.2429561972
 10
1.0117142047
 20
-0.7722537292
 10
1.0276524428
 20
-0.2967900602
 10
1.0372548619
 20
0.1805034183
 10
1.0404622598
 20
0.6566840331
  0
LWPOLYLINE
  5
7F
330
1F
100
AcDbEntity
  8
0
  6
Continuous
 62
     7
370
    25
100
AcDbPolyline
 90
       31
 70
   128
 43
0.0
 10
-20.3021791917
 20
-7.5136781624
 10
-20.3392107007
 20
-7.5122858234
 10
-20.498293157
 20
-7.4942429431
 10
-20.6872465817
 20
-7.4560290744
 10
-20.9056012068
 20
-7.3977392232
 10
-21.1528141682
 20
-7.319518307
 10
-21.4282708556
 20
-7.2215607956
 10
-21.7312864402
 20
-7.1041102266
 10
-22.0611075776
 20
-6.9674586007
 10
-22.4169142805
 20
-6.8119456554
 10
-22.7978219573
 20
-6.6379580203
 10
-23.2028836115
 20
-6.4459282562
 10
-23.6310921961
 20
-6.2363337792
 10
-24.081383117
 20
-6.0096956743
 10
-24.55263688
 20
-5.7665773996
 10
-25.0436818741
 20
-5.5075833852
 10
-25.553297284
 20
-5.2333575313
 10
-26.0802161255
 20
-4.9445816064
 10
-26.6231283953
 20
-4.6419735529
 10
-27.180684328
 20
-4.3262857023
 10
-27.7514977518
 20
-3.9983029043
 10
-28.3341495344
 20
-3.6588405757
 10
-28.9271911118
 20
-3.3087426734
 10
-29.5291480892
 20
-2.9488795959
 10
-30.1385239066
 20
-2.5801460196
 10
-30.7538035598
 20
-2.2034586742
 10
-31.3734573665
 20
-1.8197540638
 10
-31.9959447699
 20
-1.4299861385
 10
-32.6197181681
 20
-1.0351239229
 10
-33.2432267623
 20
-0.6361491065
 10
-33.8649204117
 20
-0.2340536037
  0
LINE
  5
81
330
1F
100
AcDbEntity
  8
0
  6
Continuous
 62
     7
370
    25
100
AcDbLine
 10
0.1503720528
 20
29.7647915217
 30
0.0
 11
-20.0014350861
 21
30.1484969083
 31
0.0
  0
LINE
  5
82
330
1F
100
AcDbEntity
  8
0
  6
Continuous
 62
     7
370
    25
100
AcDbLine
 10
-20.3021791917
 20
-7.5136781624
 30
0.0
 11
-0.1503720528
 21
-7.897383549
 31
0.0
  0
LINE
  5
83
330
1F
100
AcDbEntity
  8
0
  6
Continuous
 62
     7
370
    25
100
AcDbLine
 10
-1.3517136385
 20
-0.8531292274
 30
0.0
 11
-1.3517136385
 21
21.0142787454
 31
0.0
  0
LINE
  5
84
330
1F
100
AcDbEntity
  8
0
  6
Continuous
 62
     7
370
    25
100
AcDbLine
 10
1.3517136385
 20
22.7205372001
 30
0.0
 11
1.3517136385
 21
0.8531292274
 31
0.0
  0
LINE
  5
85
330
1F
100
AcDbEntity
  8
0
  6
Continuous
 62
     7
370
    25
100
AcDbLine
 10
-1.0404622598
 20
21.2107239396
 30
0.0
 11
-1.0404622598
 21
-0.6566840331
 31
0.0
  0
LINE
  5
86
330
1F
100
AcDbEntity
  8
0
  6
Continuous
 62
     7
370
    25
100
AcDbLine
 10
1.0404622598
 20
0.6566840331
 30
0.0
 11
1.0404622598
 21
22.5240920059
 31
0.0
  0
LINE
  5
87
330
1F
100
AcDbEntity
  8
0
  6
Continuous
 62
     7
370
    25
100
AcDbLine
 10
-33.8649204117
 20
-0.2340536037
 30
0.0
 11
-33.8649204117
 21
21.6333543691
 31
0.0
  0
LINE
  5
88
330
1F
100
AcDbEntity
  8
0
  6
Continuous
 62
     7
370
    25
100
AcDbLine
 10
-31.1614931346
 20
23.3396128238
 30
0.0
 11
-33.8649204117
 21
21.6333543691
 31
0.0
  0
MTEXT
  5
8A
330
1F
100
AcDbEntity
  8
0
  6
Continuous
 62
     7
100
AcDbMText
 10
-33.8649204117
 20
-8.9169499407
 30
0.0
 40
4.83362
 41
0.0
 71
     1
 72
     1
  1
Produit d'éducation SOLIDWORKS – A titre éducatif uniquement.
  7
SLDTEXTSTYLE0
 73
     1
 44
1.0
  0
ENDSEC
  0
SECTION
  2
OBJECTS
  0
DICTIONARY
  5
C
330
0
100
AcDbDictionary
281
     1
  3
ACAD_GROUP
350
D
  3
ACAD_LAYOUT
350
1A
  3
ACAD_MLINESTYLE
350
17
  3
ACAD_PLOTSETTINGS
350
19
  3
ACAD_PLOTSTYLENAME
350
E
  3
ACAD_SCALELIST
350
47
  3
DWGPROPS
350
8B
  0
DICTIONARY
  5
D
102
{ACAD_REACTORS
330
C
102
}
330
C
100
AcDbDictionary
281
     1
  0
DICTIONARY
  5
1A
102
{ACAD_REACTORS
330
C
102
}
330
C
100
AcDbDictionary
281
     1
  3
Layout1
350
1E
  3
Layout2
350
26
  3
Model
350
22
  0
DICTIONARY
  5
17
102
{ACAD_REACTORS
330
C
102
}
330
C
100
AcDbDictionary
281
     1
  3
Standard
350
18
  0
DICTIONARY
  5
19
102
{ACAD_REACTORS
330
C
102
}
330
C
100
AcDbDictionary
281
     1
  0
ACDBDICTIONARYWDFLT
  5
E
102
{ACAD_REACTORS
330
C
102
}
330
C
100
AcDbDictionary
281
     1
  3
Normal
350
F
100
AcDbDictionaryWithDefault
340
F
  0
DICTIONARY
  5
47
102
{ACAD_REACTORS
330
C
102
}
330
C
100
AcDbDictionary
281
     1
  3
A0
350
48
  3
A1
350
49
  3
A2
350
4A
  3
A3
350
4B
  3
A4
350
4C
  3
A5
350
4D
  3
A6
350
4E
  3
A7
350
4F
  3
A8
350
50
  3
A9
350
51
  3
B0
350
52
  3
B1
350
53
  3
B2
350
54
  3
B3
350
55
  3
B4
350
56
  3
B5
350
57
  3
B6
350
58
  3
B7
350
59
  3
B8
350
5A
  3
B9
350
5B
  3
C0
350
5C
  3
C1
350
5D
  3
C2
350
5E
  3
C3
350
5F
  3
C4
350
60
  3
C5
350
61
  3
C6
350
62
  3
C7
350
63
  3
C8
350
64
  3
C9
350
65
  3
D0
350
66
  3
D1
350
67
  3
D2
350
68
  0
XRECORD
  5
8B
102
{ACAD_REACTORS
330
C
102
}
330
C
100
AcDbXrecord
280
     1
  1
DWGPROPS COOKIE
  2

  3

  4

  6

  7

  8
gabma
  9

300
=
301
=
302
=
303
=
304
=
305
=
306
=
307
=
308
=
309
=
 40
0.0
 41
2459718.362696979
 42
2459718.362778472
  1

 90
        0
  0
LAYOUT
  5
1E
102
{ACAD_REACTORS
330
1A
102
}
330
1A
100
AcDbPlotSettings
  1

  2
none_device
  4

  6

 40
0.0
 41
0.0
 42
0.0
 43
0.0
 44
0.0
 45
0.0
 46
0.0
 47
0.0
 48
0.0
 49
0.0
140
0.0
141
0.0
142
1.0
143
1.0
 70
   688
 72
     1
 73
     0
 74
     5
  7

 75
    16
147
1.0
148
0.0
149
0.0
100
AcDbLayout
  1
Layout1
 70
     1
 71
     1
 10
0.0
 20
0.0
 11
420.0
 21
297.0
 12
0.0
 22
0.0
 32
0.0
 14
1.0000000000E+20
 24
1.0000000000E+20
 34
1.0000000000E+20
 15
-1.0000000000E+20
 25
-1.0000000000E+20
 35
-1.0000000000E+20
146
0.0
 13
0.0
 23
0.0
 33
0.0
 16
1.0
 26
0.0
 36
0.0
 17
0.0
 27
1.0
 37
0.0
 76
     0
330
1B
  0
LAYOUT
  5
26
102
{ACAD_REACTORS
330
1A
102
}
330
1A
100
AcDbPlotSettings
  1

  2
none_device
  4

  6

 40
0.0
 41
0.0
 42
0.0
 43
0.0
 44
0.0
 45
0.0
 46
0.0
 47
0.0
 48
0.0
 49
0.0
140
0.0
141
0.0
142
1.0
143
1.0
 70
   688
 72
     1
 73
     0
 74
     5
  7

 75
    16
147
1.0
148
0.0
149
0.0
100
AcDbLayout
  1
Layout2
 70
     1
 71
     2
 10
0.0
 20
0.0
 11
0.0
 21
0.0
 12
0.0
 22
0.0
 32
0.0
 14
0.0
 24
0.0
 34
0.0
 15
0.0
 25
0.0
 35
0.0
146
0.0
 13
0.0
 23
0.0
 33
0.0
 16
1.0
 26
0.0
 36
0.0
 17
0.0
 27
1.0
 37
0.0
 76
     0
330
23
  0
LAYOUT
  5
22
102
{ACAD_REACTORS
330
1A
102
}
330
1A
100
AcDbPlotSettings
  1

  2
none_device
  4
ANSI_A_(11.00_x_8.50_Inches)
  6

 40
6.35
 41
19.05
 42
6.35000508
 43
19.05000254
 44
279.4
 45
215.9
 46
224.67927208
 47
26.3968424965
 48
0.0
 49
0.0
140
0.0
141
0.0
142
0.2211803196
143
1.0
 70
  1696
 72
     0
 73
     0
 74
     0
  7

 75
     0
147
0.0179189148
148
-1300.4909072572
149
0.0
100
AcDbLayout
  1
Model
 70
     1
 71
     0
 10
0.0
 20
0.0
 11
420.0
 21
297.0
 12
0.0
 22
0.0
 32
0.0
 14
-33.8649204117
 24
-7.897383549
 34
0.0
 15
1.3517136385
 25
30.1484969083
 35
0.0
146
0.0
 13
0.0
 23
0.0
 33
0.0
 16
1.0
 26
0.0
 36
0.0
 17
0.0
 27
1.0
 37
0.0
 76
     0
330
1F
331
29
  0
MLINESTYLE
  5
18
102
{ACAD_REACTORS
330
17
102
}
330
17
100
AcDbMlineStyle
  2
Standard
 70
     0
  3

 62
   256
 51
90.0
 52
90.0
 71
     2
 49
0.5
 62
   256
  6
BYLAYER
 49
-0.5
 62
   256
  6
BYLAYER
  0
ACDBPLACEHOLDER
  5
F
102
{ACAD_REACTORS
330
E
102
}
330
E
  0
SCALE
  5
48
102
{ACAD_REACTORS
330
47
102
}
330
47
100
AcDbScale
 70
     0
300
1:1
140
1.0
141
1.0
290
     1
  0
SCALE
  5
49
102
{ACAD_REACTORS
330
47
102
}
330
47
100
AcDbScale
 70
     0
300
1:2
140
1.0
141
2.0
290
     0
  0
SCALE
  5
4A
102
{ACAD_REACTORS
330
47
102
}
330
47
100
AcDbScale
 70
     0
300
1:4
140
1.0
141
4.0
290
     0
  0
SCALE
  5
4B
102
{ACAD_REACTORS
330
47
102
}
330
47
100
AcDbScale
 70
     0
300
1:5
140
1.0
141
5.0
290
     0
  0
SCALE
  5
4C
102
{ACAD_REACTORS
330
47
102
}
330
47
100
AcDbScale
 70
     0
300
1:8
140
1.0
141
8.0
290
     0
  0
SCALE
  5
4D
102
{ACAD_REACTORS
330
47
102
}
330
47
100
AcDbScale
 70
     0
300
1:10
140
1.0
141
10.0
290
     0
  0
SCALE
  5
4E
102
{ACAD_REACTORS
330
47
102
}
330
47
100
AcDbScale
 70
     0
300
1:16
140
1.0
141
16.0
290
     0
  0
SCALE
  5
4F
102
{ACAD_REACTORS
330
47
102
}
330
47
100
AcDbScale
 70
     0
300
1:20
140
1.0
141
20.0
290
     0
  0
SCALE
  5
50
102
{ACAD_REACTORS
330
47
102
}
330
47
100
AcDbScale
 70
     0
300
1:30
140
1.0
141
30.0
290
     0
  0
SCALE
  5
51
102
{ACAD_REACTORS
330
47
102
}
330
47
100
AcDbScale
 70
     0
300
1:40
140
1.0
141
40.0
290
     0
  0
SCALE
  5
52
102
{ACAD_REACTORS
330
47
102
}
330
47
100
AcDbScale
 70
     0
300
1:50
140
1.0
141
50.0
290
     0
  0
SCALE
  5
53
102
{ACAD_REACTORS
330
47
102
}
330
47
100
AcDbScale
 70
     0
300
1:100
140
1.0
141
100.0
290
     0
  0
SCALE
  5
54
102
{ACAD_REACTORS
330
47
102
}
330
47
100
AcDbScale
 70
     0
300
2:1
140
2.0
141
1.0
290
     0
  0
SCALE
  5
55
102
{ACAD_REACTORS
330
47
102
}
330
47
100
AcDbScale
 70
     0
300
4:1
140
4.0
141
1.0
290
     0
  0
SCALE
  5
56
102
{ACAD_REACTORS
330
47
102
}
330
47
100
AcDbScale
 70
     0
300
8:1
140
8.0
141
1.0
290
     0
  0
SCALE
  5
57
102
{ACAD_REACTORS
330
47
102
}
330
47
100
AcDbScale
 70
     0
300
10:1
140
10.0
141
1.0
290
     0
  0
SCALE
  5
58
102
{ACAD_REACTORS
330
47
102
}
330
47
100
AcDbScale
 70
     0
300
100:1
140
100.0
141
1.0
290
     0
  0
SCALE
  5
59
102
{ACAD_REACTORS
330
47
102
}
330
47
100
AcDbScale
 70
     0
300
1/128" = 1'-0"
140
0.0078125
141
12.0
290
     0
  0
SCALE
  5
5A
102
{ACAD_REACTORS
330
47
102
}
330
47
100
AcDbScale
 70
     0
300
1/64" = 1'-0"
140
0.015625
141
12.0
290
     0
  0
SCALE
  5
5B
102
{ACAD_REACTORS
330
47
102
}
330
47
100
AcDbScale
 70
     0
300
1/32" = 1'-0"
140
0.03125
141
12.0
290
     0
  0
SCALE
  5
5C
102
{ACAD_REACTORS
330
47
102
}
330
47
100
AcDbScale
 70
     0
300
1/16" = 1'-0"
140
0.0625
141
12.0
290
     0
  0
SCALE
  5
5D
102
{ACAD_REACTORS
330
47
102
}
330
47
100
AcDbScale
 70
     0
300
3/32" = 1'-0"
140
0.09375
141
12.0
290
     0
  0
SCALE
  5
5E
102
{ACAD_REACTORS
330
47
102
}
330
47
100
AcDbScale
 70
     0
300
1/8" = 1'-0"
140
0.125
141
12.0
290
     0
  0
SCALE
  5
5F
102
{ACAD_REACTORS
330
47
102
}
330
47
100
AcDbScale
 70
     0
300
3/16" = 1'-0"
140
0.1875
141
12.0
290
     0
  0
SCALE
  5
60
102
{ACAD_REACTORS
330
47
102
}
330
47
100
AcDbScale
 70
     0
300
1/4" = 1'-0"
140
0.25
141
12.0
290
     0
  0
SCALE
  5
61
102
{ACAD_REACTORS
330
47
102
}
330
47
100
AcDbScale
 70
     0
300
3/8" = 1'-0"
140
0.375
141
12.0
290
     0
  0
SCALE
  5
62
102
{ACAD_REACTORS
330
47
102
}
330
47
100
AcDbScale
 70
     0
300
1/2" = 1'-0"
140
0.5
141
12.0
290
     0
  0
SCALE
  5
63
102
{ACAD_REACTORS
330
47
102
}
330
47
100
AcDbScale
 70
     0
300
3/4" = 1'-0"
140
0.75
141
12.0
290
     0
  0
SCALE
  5
64
102
{ACAD_REACTORS
330
47
102
}
330
47
100
AcDbScale
 70
     0
300
1" = 1'-0"
140
1.0
141
12.0
290
     0
  0
SCALE
  5
65
102
{ACAD_REACTORS
330
47
102
}
330
47
100
AcDbScale
 70
     0
300
1-1/2" = 1'-0"
140
1.5
141
12.0
290
     0
  0
SCALE
  5
66
102
{ACAD_REACTORS
330
47
102
}
330
47
100
AcDbScale
 70
     0
300
3" = 1'-0"
140
3.0
141
12.0
290
     0
  0
SCALE
  5
67
102
{ACAD_REACTORS
330
47
102
}
330
47
100
AcDbScale
 70
     0
300
6" = 1'-0"
140
6.0
141
12.0
290
     0
  0
SCALE
  5
68
102
{ACAD_REACTORS
330
47
102
}
330
47
100
AcDbScale
 70
     0
300
1'-0" = 1'-0"
140
12.0
141
12.0
290
     0
  0
ENDSEC
  0
EOF
