ISO-10303-21;
HEADER;
FILE_DESCRIPTION (( 'STEP AP203' ),
    '1' );
FILE_NAME ('Entretoise Fixation Plaque.STEP',
    '2022-05-16T09:39:57',
    ( '' ),
    ( '' ),
    'SwSTEP 2.0',
    'SolidWorks 2020',
    '' );
FILE_SCHEMA (( 'CONFIG_CONTROL_DESIGN' ));
ENDSEC;

DATA;
#1 = AXIS2_PLACEMENT_3D ( 'NONE', #22, #195, #112 ) ;
#2 = COORDINATED_UNIVERSAL_TIME_OFFSET ( 1, 0, .AHEAD. ) ;
#3 = LINE ( 'NONE', #334, #381 ) ;
#4 = COORDINATED_UNIVERSAL_TIME_OFFSET ( 1, 0, .AHEAD. ) ;
#5 = ORIENTED_EDGE ( 'NONE', *, *, #12, .F. ) ;
#6 = PERSON_AND_ORGANIZATION ( #300, #36 ) ;
#7 = CARTESIAN_POINT ( 'NONE',  ( 6.000000000000000000, 22.00000000000000000, -10.70000000000000107 ) ) ;
#8 = AXIS2_PLACEMENT_3D ( 'NONE', #238, #327, #297 ) ;
#9 = ORIENTED_EDGE ( 'NONE', *, *, #175, .T. ) ;
#10 = EDGE_LOOP ( 'NONE', ( #362, #61, #86, #218 ) ) ;
#11 = PERSON_AND_ORGANIZATION_ROLE ( 'design_supplier' ) ;
#12 = EDGE_CURVE ( 'NONE', #47, #193, #3, .T. ) ;
#13 = CARTESIAN_POINT ( 'NONE',  ( 0.0000000000000000000, 22.00000000000000000, -28.00000000000000000 ) ) ;
#14 = VECTOR ( 'NONE', #376, 1000.000000000000000 ) ;
#15 = DIRECTION ( 'NONE',  ( 0.0000000000000000000, 1.000000000000000000, -0.0000000000000000000 ) ) ;
#16 = EDGE_LOOP ( 'NONE', ( #356, #66 ) ) ;
#17 = EDGE_CURVE ( 'NONE', #64, #47, #143, .T. ) ;
#18 = PLANE ( 'NONE',  #269 ) ;
#19 = ORIENTED_EDGE ( 'NONE', *, *, #162, .T. ) ;
#20 = CARTESIAN_POINT ( 'NONE',  ( 0.0000000000000000000, 22.00000000000000000, -28.00000000000000000 ) ) ;
#21 = AXIS2_PLACEMENT_3D ( 'NONE', #383, #121, #34 ) ;
#22 = CARTESIAN_POINT ( 'NONE',  ( 6.000000000000000000, 0.0000000000000000000, -14.00000000000000000 ) ) ;
#23 = DIRECTION ( 'NONE',  ( 1.000000000000000000, -0.0000000000000000000, 0.0000000000000000000 ) ) ;
#24 = EDGE_CURVE ( 'NONE', #324, #90, #210, .T. ) ;
#25 = PLANE ( 'NONE',  #8 ) ;
#26 = VERTEX_POINT ( 'NONE', #146 ) ;
#27 = AXIS2_PLACEMENT_3D ( 'NONE', #345, #167, #135 ) ;
#28 = AXIS2_PLACEMENT_3D ( 'NONE', #120, #211, #272 ) ;
#29 = CARTESIAN_POINT ( 'NONE',  ( 0.0000000000000000000, 22.00000000000000000, 0.0000000000000000000 ) ) ;
#30 = CC_DESIGN_PERSON_AND_ORGANIZATION_ASSIGNMENT ( #92, #214, ( #160 ) ) ;
#31 = DIRECTION ( 'NONE',  ( 0.0000000000000000000, 0.0000000000000000000, 1.000000000000000000 ) ) ;
#32 = DIRECTION ( 'NONE',  ( -0.0000000000000000000, -1.000000000000000000, -0.0000000000000000000 ) ) ;
#33 = ORIENTED_EDGE ( 'NONE', *, *, #339, .F. ) ;
#34 = DIRECTION ( 'NONE',  ( 0.0000000000000000000, -0.0000000000000000000, -1.000000000000000000 ) ) ;
#35 = CALENDAR_DATE ( 2022, 16, 5 ) ;
#36 = ORGANIZATION ( 'UNSPECIFIED', 'UNSPECIFIED', '' ) ;
#37 = VERTEX_POINT ( 'NONE', #177 ) ;
#38 = DATE_AND_TIME ( #35, #71 ) ;
#39 = AXIS2_PLACEMENT_3D ( 'NONE', #205, #23, #87 ) ;
#40 = ADVANCED_FACE ( 'NONE', ( #304, #302, #180 ), #212, .F. ) ;
#41 = CYLINDRICAL_SURFACE ( 'NONE', #104, 3.299999999999998934 ) ;
#42 = PLANE ( 'NONE',  #342 ) ;
#43 = EDGE_CURVE ( 'NONE', #335, #324, #183, .T. ) ;
#44 = DIRECTION ( 'NONE',  ( 0.0000000000000000000, 0.0000000000000000000, 1.000000000000000000 ) ) ;
#45 = CARTESIAN_POINT ( 'NONE',  ( 79.00000000000001421, 0.0000000000000000000, -14.00000000000000000 ) ) ;
#46 = LINE ( 'NONE', #107, #222 ) ;
#47 = VERTEX_POINT ( 'NONE', #368 ) ;
#48 = CIRCLE ( 'NONE', #134, 3.299999999999998934 ) ;
#49 = CARTESIAN_POINT ( 'NONE',  ( 85.00000000000000000, 22.00000000000000000, 0.0000000000000000000 ) ) ;
#50 = VERTEX_POINT ( 'NONE', #96 ) ;
#51 = VERTEX_POINT ( 'NONE', #357 ) ;
#52 = PRODUCT_DEFINITION_SHAPE ( 'NONE', 'NONE',  #129 ) ;
#53 = CARTESIAN_POINT ( 'NONE',  ( 0.0000000000000000000, 22.00000000000000000, -28.00000000000000000 ) ) ;
#54 =( NAMED_UNIT ( * ) PLANE_ANGLE_UNIT ( ) SI_UNIT ( $, .RADIAN. ) );
#55 = ADVANCED_FACE ( 'NONE', ( #379 ), #25, .F. ) ;
#56 = DIRECTION ( 'NONE',  ( 0.0000000000000000000, 0.0000000000000000000, -1.000000000000000000 ) ) ;
#57 = VECTOR ( 'NONE', #140, 1000.000000000000000 ) ;
#58 = CARTESIAN_POINT ( 'NONE',  ( 0.0000000000000000000, 22.00000000000000000, 0.0000000000000000000 ) ) ;
#59 = ORIENTED_EDGE ( 'NONE', *, *, #221, .F. ) ;
#60 = CALENDAR_DATE ( 2022, 16, 5 ) ;
#61 = ORIENTED_EDGE ( 'NONE', *, *, #24, .F. ) ;
#62 = VECTOR ( 'NONE', #359, 1000.000000000000000 ) ;
#63 = EDGE_CURVE ( 'NONE', #324, #26, #119, .T. ) ;
#64 = VERTEX_POINT ( 'NONE', #7 ) ;
#65 = COORDINATED_UNIVERSAL_TIME_OFFSET ( 1, 0, .AHEAD. ) ;
#66 = ORIENTED_EDGE ( 'NONE', *, *, #88, .F. ) ;
#67 = CALENDAR_DATE ( 2022, 16, 5 ) ;
#68 = VERTEX_POINT ( 'NONE', #220 ) ;
#69 = PERSON_AND_ORGANIZATION_ROLE ( 'creator' ) ;
#70 = DIRECTION ( 'NONE',  ( 0.0000000000000000000, 1.000000000000000000, -0.0000000000000000000 ) ) ;
#71 = LOCAL_TIME ( 11, 39, 57.00000000000000000, #153 ) ;
#72 = FACE_OUTER_BOUND ( 'NONE', #337, .T. ) ;
#73 = ORIENTED_EDGE ( 'NONE', *, *, #380, .F. ) ;
#74 = CARTESIAN_POINT ( 'NONE',  ( 0.0000000000000000000, 0.0000000000000000000, -28.00000000000000000 ) ) ;
#75 = CARTESIAN_POINT ( 'NONE',  ( 6.000000000000000000, 0.0000000000000000000, -14.00000000000000000 ) ) ;
#76 = ORIENTED_EDGE ( 'NONE', *, *, #198, .T. ) ;
#77 = EDGE_CURVE ( 'NONE', #37, #50, #244, .T. ) ;
#78 = CIRCLE ( 'NONE', #375, 3.300000000000002487 ) ;
#79 = CC_DESIGN_APPROVAL ( #108, ( #116 ) ) ;
#80 = DIRECTION ( 'NONE',  ( -0.0000000000000000000, -1.000000000000000000, -0.0000000000000000000 ) ) ;
#81 = VERTEX_POINT ( 'NONE', #273 ) ;
#82 = DIRECTION ( 'NONE',  ( 0.0000000000000000000, 0.0000000000000000000, -1.000000000000000000 ) ) ;
#83 = ADVANCED_FACE ( 'NONE', ( #283 ), #133, .F. ) ;
#84 = LINE ( 'NONE', #29, #62 ) ;
#85 = PERSON_AND_ORGANIZATION ( #300, #36 ) ;
#86 = ORIENTED_EDGE ( 'NONE', *, *, #43, .F. ) ;
#87 = DIRECTION ( 'NONE',  ( 0.0000000000000000000, 0.0000000000000000000, -1.000000000000000000 ) ) ;
#88 = EDGE_CURVE ( 'NONE', #81, #68, #122, .T. ) ;
#89 = CARTESIAN_POINT ( 'NONE',  ( 79.00000000000001421, 22.00000000000000000, -14.00000000000000000 ) ) ;
#90 = VERTEX_POINT ( 'NONE', #309 ) ;
#91 = APPROVAL_PERSON_ORGANIZATION ( #250, #99, #189 ) ;
#92 = PERSON_AND_ORGANIZATION ( #300, #36 ) ;
#93 = APPLICATION_CONTEXT ( 'configuration controlled 3d designs of mechanical parts and assemblies' ) ;
#94 = PERSON_AND_ORGANIZATION_ROLE ( 'classification_officer' ) ;
#95 = EDGE_CURVE ( 'NONE', #332, #185, #154, .T. ) ;
#96 = CARTESIAN_POINT ( 'NONE',  ( 79.00000000000001421, 0.0000000000000000000, -17.30000000000000426 ) ) ;
#97 = CIRCLE ( 'NONE', #1, 3.299999999999998934 ) ;
#98 = PERSON_AND_ORGANIZATION ( #300, #36 ) ;
#99 = APPROVAL ( #305, 'UNSPECIFIED' ) ;
#100 = EDGE_LOOP ( 'NONE', ( #171, #113 ) ) ;
#101 = APPROVAL_STATUS ( 'not_yet_approved' ) ;
#102 = ADVANCED_FACE ( 'NONE', ( #72 ), #18, .F. ) ;
#103 = ORIENTED_EDGE ( 'NONE', *, *, #374, .T. ) ;
#104 = AXIS2_PLACEMENT_3D ( 'NONE', #111, #166, #199 ) ;
#105 = MANIFOLD_SOLID_BREP ( 'Boss.-Extru.1', #361 ) ;
#106 = CARTESIAN_POINT ( 'NONE',  ( 6.000000000000000000, 22.00000000000000000, -14.00000000000000000 ) ) ;
#107 = CARTESIAN_POINT ( 'NONE',  ( 0.0000000000000000000, 0.0000000000000000000, 0.0000000000000000000 ) ) ;
#108 = APPROVAL ( #101, 'UNSPECIFIED' ) ;
#109 = DIRECTION ( 'NONE',  ( 0.0000000000000000000, 1.000000000000000000, 0.0000000000000000000 ) ) ;
#110 = LINE ( 'NONE', #13, #236 ) ;
#111 = CARTESIAN_POINT ( 'NONE',  ( 6.000000000000000000, 22.00000000000000000, -14.00000000000000000 ) ) ;
#112 = DIRECTION ( 'NONE',  ( 0.0000000000000000000, 0.0000000000000000000, 1.000000000000000000 ) ) ;
#113 = ORIENTED_EDGE ( 'NONE', *, *, #77, .T. ) ;
#114 = APPROVAL_ROLE ( '' ) ;
#115 = AXIS2_PLACEMENT_3D ( 'NONE', #118, #331, #240 ) ;
#116 = PRODUCT_DEFINITION_FORMATION_WITH_SPECIFIED_SOURCE ( 'ANY', '', #160, .NOT_KNOWN. ) ;
#117 = ADVANCED_FACE ( 'NONE', ( #194, #288, #284 ), #42, .T. ) ;
#118 = CARTESIAN_POINT ( 'NONE',  ( 6.000000000000000000, 22.00000000000000000, -14.00000000000000000 ) ) ;
#119 = LINE ( 'NONE', #329, #163 ) ;
#120 = CARTESIAN_POINT ( 'NONE',  ( 0.0000000000000000000, 0.0000000000000000000, 0.0000000000000000000 ) ) ;
#121 = DIRECTION ( 'NONE',  ( 0.0000000000000000000, -1.000000000000000000, 0.0000000000000000000 ) ) ;
#122 = CIRCLE ( 'NONE', #314, 3.300000000000002487 ) ;
#123 = ORIENTED_EDGE ( 'NONE', *, *, #63, .F. ) ;
#124 = CALENDAR_DATE ( 2022, 16, 5 ) ;
#125 = EDGE_CURVE ( 'NONE', #81, #37, #260, .T. ) ;
#126 = DATE_AND_TIME ( #60, #165 ) ;
#127 = CARTESIAN_POINT ( 'NONE',  ( 0.0000000000000000000, 0.0000000000000000000, 0.0000000000000000000 ) ) ;
#128 = ORIENTED_EDGE ( 'NONE', *, *, #274, .T. ) ;
#129 = PRODUCT_DEFINITION ( 'UNKNOWN', '', #116, #152 ) ;
#130 = EDGE_LOOP ( 'NONE', ( #73, #294, #132, #265 ) ) ;
#131 = PERSON_AND_ORGANIZATION_ROLE ( 'creator' ) ;
#132 = ORIENTED_EDGE ( 'NONE', *, *, #12, .T. ) ;
#133 = CYLINDRICAL_SURFACE ( 'NONE', #228, 3.299999999999998934 ) ;
#134 = AXIS2_PLACEMENT_3D ( 'NONE', #169, #292, #264 ) ;
#135 = DIRECTION ( 'NONE',  ( 0.0000000000000000000, 0.0000000000000000000, -1.000000000000000000 ) ) ;
#136 = ADVANCED_FACE ( 'NONE', ( #139 ), #41, .F. ) ;
#137 = LINE ( 'NONE', #291, #285 ) ;
#138 = CARTESIAN_POINT ( 'NONE',  ( 0.0000000000000000000, 0.0000000000000000000, 0.0000000000000000000 ) ) ;
#139 = FACE_OUTER_BOUND ( 'NONE', #207, .T. ) ;
#140 = DIRECTION ( 'NONE',  ( -1.000000000000000000, -0.0000000000000000000, -0.0000000000000000000 ) ) ;
#141 =( LENGTH_UNIT ( ) NAMED_UNIT ( * ) SI_UNIT ( .MILLI., .METRE. ) );
#142 = ORIENTED_EDGE ( 'NONE', *, *, #77, .F. ) ;
#143 = CIRCLE ( 'NONE', #115, 3.299999999999998934 ) ;
#144 = SECURITY_CLASSIFICATION ( '', '', #340 ) ;
#145 = FACE_OUTER_BOUND ( 'NONE', #190, .T. ) ;
#146 = CARTESIAN_POINT ( 'NONE',  ( 85.00000000000000000, 22.00000000000000000, -28.00000000000000000 ) ) ;
#147 = DIRECTION ( 'NONE',  ( 0.0000000000000000000, 0.0000000000000000000, -1.000000000000000000 ) ) ;
#148 = CARTESIAN_POINT ( 'NONE',  ( 6.000000000000000000, 22.00000000000000000, -10.70000000000000107 ) ) ;
#149 = DIRECTION ( 'NONE',  ( 1.000000000000000000, 0.0000000000000000000, 0.0000000000000000000 ) ) ;
#150 = CIRCLE ( 'NONE', #196, 3.299999999999998934 ) ;
#151 = ORIENTED_EDGE ( 'NONE', *, *, #339, .T. ) ;
#152 = DESIGN_CONTEXT ( 'detailed design', #200, 'design' ) ;
#153 = COORDINATED_UNIVERSAL_TIME_OFFSET ( 1, 0, .AHEAD. ) ;
#154 = LINE ( 'NONE', #127, #213 ) ;
#155 = ORIENTED_EDGE ( 'NONE', *, *, #344, .F. ) ;
#156 = ORIENTED_EDGE ( 'NONE', *, *, #274, .F. ) ;
#157 = VECTOR ( 'NONE', #82, 1000.000000000000000 ) ;
#158 = LOCAL_TIME ( 11, 39, 57.00000000000000000, #2 ) ;
#159 = ORIENTED_EDGE ( 'NONE', *, *, #125, .T. ) ;
#160 = PRODUCT ( 'Entretoise Fixation Plaque', 'Entretoise Fixation Plaque', '', ( #384 ) ) ;
#161 = LINE ( 'NONE', #371, #157 ) ;
#162 = EDGE_CURVE ( 'NONE', #90, #308, #161, .T. ) ;
#163 = VECTOR ( 'NONE', #56, 1000.000000000000000 ) ;
#164 = DIRECTION ( 'NONE',  ( -0.0000000000000000000, -1.000000000000000000, -0.0000000000000000000 ) ) ;
#165 = LOCAL_TIME ( 11, 39, 57.00000000000000000, #4 ) ;
#166 = DIRECTION ( 'NONE',  ( -0.0000000000000000000, -1.000000000000000000, -0.0000000000000000000 ) ) ;
#167 = DIRECTION ( 'NONE',  ( -0.0000000000000000000, -1.000000000000000000, -0.0000000000000000000 ) ) ;
#168 = ADVANCED_BREP_SHAPE_REPRESENTATION ( 'Entretoise Fixation Plaque', ( #105, #28 ), #286 ) ;
#169 = CARTESIAN_POINT ( 'NONE',  ( 6.000000000000000000, 22.00000000000000000, -14.00000000000000000 ) ) ;
#170 = VECTOR ( 'NONE', #80, 1000.000000000000000 ) ;
#171 = ORIENTED_EDGE ( 'NONE', *, *, #221, .T. ) ;
#172 = CYLINDRICAL_SURFACE ( 'NONE', #279, 3.300000000000002487 ) ;
#173 = CARTESIAN_POINT ( 'NONE',  ( 0.0000000000000000000, 0.0000000000000000000, -28.00000000000000000 ) ) ;
#174 = ORIENTED_EDGE ( 'NONE', *, *, #95, .T. ) ;
#175 = EDGE_CURVE ( 'NONE', #308, #332, #231, .T. ) ;
#176 = PLANE ( 'NONE',  #39 ) ;
#177 = CARTESIAN_POINT ( 'NONE',  ( 79.00000000000001421, 0.0000000000000000000, -10.69999999999999574 ) ) ;
#178 = ORIENTED_EDGE ( 'NONE', *, *, #175, .F. ) ;
#179 = DIRECTION ( 'NONE',  ( 0.0000000000000000000, 0.0000000000000000000, -1.000000000000000000 ) ) ;
#180 = FACE_BOUND ( 'NONE', #16, .T. ) ;
#181 = PERSON_AND_ORGANIZATION ( #300, #36 ) ;
#182 = CARTESIAN_POINT ( 'NONE',  ( 79.00000000000001421, 22.00000000000000000, -14.00000000000000000 ) ) ;
#183 = LINE ( 'NONE', #58, #336 ) ;
#184 = VECTOR ( 'NONE', #164, 1000.000000000000000 ) ;
#185 = VERTEX_POINT ( 'NONE', #373 ) ;
#186 = DIRECTION ( 'NONE',  ( 0.0000000000000000000, 0.0000000000000000000, -1.000000000000000000 ) ) ;
#187 = EDGE_CURVE ( 'NONE', #193, #234, #97, .T. ) ;
#188 = ORIENTED_EDGE ( 'NONE', *, *, #249, .T. ) ;
#189 = APPROVAL_ROLE ( '' ) ;
#190 = EDGE_LOOP ( 'NONE', ( #103, #159, #59, #263 ) ) ;
#191 = VECTOR ( 'NONE', #360, 1000.000000000000000 ) ;
#192 = ORIENTED_EDGE ( 'NONE', *, *, #266, .T. ) ;
#193 = VERTEX_POINT ( 'NONE', #349 ) ;
#194 = FACE_BOUND ( 'NONE', #323, .T. ) ;
#195 = DIRECTION ( 'NONE',  ( 0.0000000000000000000, 1.000000000000000000, 0.0000000000000000000 ) ) ;
#196 = AXIS2_PLACEMENT_3D ( 'NONE', #75, #109, #257 ) ;
#197 = LINE ( 'NONE', #20, #14 ) ;
#198 = EDGE_CURVE ( 'NONE', #26, #51, #110, .T. ) ;
#199 = DIRECTION ( 'NONE',  ( 0.0000000000000000000, 0.0000000000000000000, -1.000000000000000000 ) ) ;
#200 = APPLICATION_CONTEXT ( 'configuration controlled 3d designs of mechanical parts and assemblies' ) ;
#201 = CC_DESIGN_PERSON_AND_ORGANIZATION_ASSIGNMENT ( #276, #94, ( #144 ) ) ;
#202 = DIRECTION ( 'NONE',  ( 0.0000000000000000000, -1.000000000000000000, 0.0000000000000000000 ) ) ;
#203 = ORIENTED_EDGE ( 'NONE', *, *, #125, .F. ) ;
#204 = FACE_OUTER_BOUND ( 'NONE', #378, .T. ) ;
#205 = CARTESIAN_POINT ( 'NONE',  ( 0.0000000000000000000, 22.00000000000000000, 0.0000000000000000000 ) ) ;
#206 = EDGE_CURVE ( 'NONE', #26, #308, #227, .T. ) ;
#207 = EDGE_LOOP ( 'NONE', ( #326, #275, #223, #5 ) ) ;
#208 = ORIENTED_EDGE ( 'NONE', *, *, #95, .F. ) ;
#209 = DIRECTION ( 'NONE',  ( -0.0000000000000000000, -0.0000000000000000000, 1.000000000000000000 ) ) ;
#210 = LINE ( 'NONE', #299, #191 ) ;
#211 = DIRECTION ( 'NONE',  ( 0.0000000000000000000, 0.0000000000000000000, 1.000000000000000000 ) ) ;
#212 = PLANE ( 'NONE',  #21 ) ;
#213 = VECTOR ( 'NONE', #317, 1000.000000000000000 ) ;
#214 = PERSON_AND_ORGANIZATION_ROLE ( 'design_owner' ) ;
#215 = SHAPE_DEFINITION_REPRESENTATION ( #52, #168 ) ;
#216 = DATE_TIME_ROLE ( 'classification_date' ) ;
#217 = ADVANCED_FACE ( 'NONE', ( #347 ), #320, .F. ) ;
#218 = ORIENTED_EDGE ( 'NONE', *, *, #344, .T. ) ;
#219 = APPROVAL_ROLE ( '' ) ;
#220 = CARTESIAN_POINT ( 'NONE',  ( 79.00000000000001421, 22.00000000000000000, -17.30000000000000426 ) ) ;
#221 = EDGE_CURVE ( 'NONE', #50, #37, #330, .T. ) ;
#222 = VECTOR ( 'NONE', #346, 1000.000000000000000 ) ;
#223 = ORIENTED_EDGE ( 'NONE', *, *, #187, .F. ) ;
#224 = CC_DESIGN_APPROVAL ( #99, ( #144 ) ) ;
#225 = DIRECTION ( 'NONE',  ( -0.0000000000000000000, -1.000000000000000000, -0.0000000000000000000 ) ) ;
#226 = CARTESIAN_POINT ( 'NONE',  ( 79.00000000000001421, 22.00000000000000000, -10.69999999999999574 ) ) ;
#227 = LINE ( 'NONE', #229, #184 ) ;
#228 = AXIS2_PLACEMENT_3D ( 'NONE', #106, #225, #343 ) ;
#229 = CARTESIAN_POINT ( 'NONE',  ( 85.00000000000000000, 22.00000000000000000, -28.00000000000000000 ) ) ;
#230 = ORIENTED_EDGE ( 'NONE', *, *, #88, .T. ) ;
#231 = LINE ( 'NONE', #74, #57 ) ;
#232 = ORIENTED_EDGE ( 'NONE', *, *, #24, .T. ) ;
#233 = FACE_OUTER_BOUND ( 'NONE', #341, .T. ) ;
#234 = VERTEX_POINT ( 'NONE', #321 ) ;
#235 = DATE_AND_TIME ( #124, #158 ) ;
#236 = VECTOR ( 'NONE', #262, 1000.000000000000000 ) ;
#237 = AXIS2_PLACEMENT_3D ( 'NONE', #53, #31, #296 ) ;
#238 = CARTESIAN_POINT ( 'NONE',  ( 0.0000000000000000000, 22.00000000000000000, 0.0000000000000000000 ) ) ;
#239 = APPLICATION_PROTOCOL_DEFINITION ( 'international standard', 'config_control_design', 1994, #200 ) ;
#240 = DIRECTION ( 'NONE',  ( 0.0000000000000000000, 0.0000000000000000000, 1.000000000000000000 ) ) ;
#241 = LINE ( 'NONE', #325, #251 ) ;
#242 = CC_DESIGN_DATE_AND_TIME_ASSIGNMENT ( #126, #364, ( #129 ) ) ;
#243 = CARTESIAN_POINT ( 'NONE',  ( 0.0000000000000000000, 22.00000000000000000, 0.0000000000000000000 ) ) ;
#244 = CIRCLE ( 'NONE', #370, 3.300000000000002487 ) ;
#245 = CC_DESIGN_APPROVAL ( #255, ( #129 ) ) ;
#246 = ORIENTED_EDGE ( 'NONE', *, *, #270, .F. ) ;
#247 = ORIENTED_EDGE ( 'NONE', *, *, #206, .T. ) ;
#248 = DIRECTION ( 'NONE',  ( 0.0000000000000000000, 1.000000000000000000, -0.0000000000000000000 ) ) ;
#249 = EDGE_CURVE ( 'NONE', #68, #50, #137, .T. ) ;
#250 = PERSON_AND_ORGANIZATION ( #300, #36 ) ;
#251 = VECTOR ( 'NONE', #209, 1000.000000000000000 ) ;
#252 = APPROVAL_PERSON_ORGANIZATION ( #322, #255, #114 ) ;
#253 = APPROVAL_DATE_TIME ( #367, #108 ) ;
#254 = ORIENTED_EDGE ( 'NONE', *, *, #162, .F. ) ;
#255 = APPROVAL ( #333, 'UNSPECIFIED' ) ;
#256 = ORIENTED_EDGE ( 'NONE', *, *, #198, .F. ) ;
#257 = DIRECTION ( 'NONE',  ( 0.0000000000000000000, 0.0000000000000000000, 1.000000000000000000 ) ) ;
#258 = DIRECTION ( 'NONE',  ( -0.0000000000000000000, -1.000000000000000000, -0.0000000000000000000 ) ) ;
#259 = PRODUCT_RELATED_PRODUCT_CATEGORY ( 'detail', '', ( #160 ) ) ;
#260 = LINE ( 'NONE', #226, #170 ) ;
#261 = VECTOR ( 'NONE', #268, 1000.000000000000000 ) ;
#262 = DIRECTION ( 'NONE',  ( -1.000000000000000000, -0.0000000000000000000, -0.0000000000000000000 ) ) ;
#263 = ORIENTED_EDGE ( 'NONE', *, *, #249, .F. ) ;
#264 = DIRECTION ( 'NONE',  ( 0.0000000000000000000, 0.0000000000000000000, 1.000000000000000000 ) ) ;
#265 = ORIENTED_EDGE ( 'NONE', *, *, #266, .F. ) ;
#266 = EDGE_CURVE ( 'NONE', #234, #193, #150, .T. ) ;
#267 = APPLICATION_PROTOCOL_DEFINITION ( 'international standard', 'config_control_design', 1994, #93 ) ;
#268 = DIRECTION ( 'NONE',  ( -0.0000000000000000000, -1.000000000000000000, -0.0000000000000000000 ) ) ;
#269 = AXIS2_PLACEMENT_3D ( 'NONE', #319, #316, #44 ) ;
#270 = EDGE_CURVE ( 'NONE', #185, #90, #46, .T. ) ;
#271 = DIRECTION ( 'NONE',  ( -0.0000000000000000000, -1.000000000000000000, -0.0000000000000000000 ) ) ;
#272 = DIRECTION ( 'NONE',  ( 1.000000000000000000, 0.0000000000000000000, 0.0000000000000000000 ) ) ;
#273 = CARTESIAN_POINT ( 'NONE',  ( 79.00000000000001421, 22.00000000000000000, -10.69999999999999574 ) ) ;
#274 = EDGE_CURVE ( 'NONE', #51, #332, #197, .T. ) ;
#275 = ORIENTED_EDGE ( 'NONE', *, *, #380, .T. ) ;
#276 = PERSON_AND_ORGANIZATION ( #300, #36 ) ;
#277 = DIRECTION ( 'NONE',  ( 0.0000000000000000000, 0.0000000000000000000, -1.000000000000000000 ) ) ;
#278 = ORIENTED_EDGE ( 'NONE', *, *, #187, .T. ) ;
#279 = AXIS2_PLACEMENT_3D ( 'NONE', #328, #271, #179 ) ;
#280 = CC_DESIGN_SECURITY_CLASSIFICATION ( #144, ( #116 ) ) ;
#281 = CC_DESIGN_PERSON_AND_ORGANIZATION_ASSIGNMENT ( #181, #11, ( #116 ) ) ;
#282 = EDGE_LOOP ( 'NONE', ( #208, #178, #254, #246 ) ) ;
#283 = FACE_OUTER_BOUND ( 'NONE', #130, .T. ) ;
#284 = FACE_BOUND ( 'NONE', #100, .T. ) ;
#285 = VECTOR ( 'NONE', #258, 1000.000000000000000 ) ;
#286 =( GEOMETRIC_REPRESENTATION_CONTEXT ( 3 ) GLOBAL_UNCERTAINTY_ASSIGNED_CONTEXT ( ( #287 ) ) GLOBAL_UNIT_ASSIGNED_CONTEXT ( ( #141, #54, #351 ) ) REPRESENTATION_CONTEXT ( 'NONE', 'WORKASPACE' ) );
#287 = UNCERTAINTY_MEASURE_WITH_UNIT (LENGTH_MEASURE( 1.000000000000000082E-05 ), #141, 'distance_accuracy_value', 'NONE');
#288 = FACE_OUTER_BOUND ( 'NONE', #282, .T. ) ;
#289 = EDGE_CURVE ( 'NONE', #47, #64, #48, .T. ) ;
#290 = DIRECTION ( 'NONE',  ( 0.0000000000000000000, -0.0000000000000000000, -1.000000000000000000 ) ) ;
#291 = CARTESIAN_POINT ( 'NONE',  ( 79.00000000000001421, 22.00000000000000000, -17.30000000000000426 ) ) ;
#292 = DIRECTION ( 'NONE',  ( 0.0000000000000000000, 1.000000000000000000, 0.0000000000000000000 ) ) ;
#293 = LINE ( 'NONE', #148, #261 ) ;
#294 = ORIENTED_EDGE ( 'NONE', *, *, #17, .T. ) ;
#295 = CC_DESIGN_DATE_AND_TIME_ASSIGNMENT ( #310, #216, ( #144 ) ) ;
#296 = DIRECTION ( 'NONE',  ( 1.000000000000000000, 0.0000000000000000000, -0.0000000000000000000 ) ) ;
#297 = DIRECTION ( 'NONE',  ( -1.000000000000000000, 0.0000000000000000000, -0.0000000000000000000 ) ) ;
#298 = LOCAL_TIME ( 11, 39, 57.00000000000000000, #65 ) ;
#299 = CARTESIAN_POINT ( 'NONE',  ( 85.00000000000000000, 22.00000000000000000, 0.0000000000000000000 ) ) ;
#300 = PERSON ( 'UNSPECIFIED', 'UNSPECIFIED', 'UNSPECIFIED', ('UNSPECIFIED'), ('UNSPECIFIED'), ('UNSPECIFIED') ) ;
#301 = DIRECTION ( 'NONE',  ( 0.0000000000000000000, 1.000000000000000000, -0.0000000000000000000 ) ) ;
#302 = FACE_BOUND ( 'NONE', #350, .T. ) ;
#303 = PLANE ( 'NONE',  #237 ) ;
#304 = FACE_OUTER_BOUND ( 'NONE', #353, .T. ) ;
#305 = APPROVAL_STATUS ( 'not_yet_approved' ) ;
#306 = AXIS2_PLACEMENT_3D ( 'NONE', #45, #15, #372 ) ;
#307 = ORIENTED_EDGE ( 'NONE', *, *, #43, .T. ) ;
#308 = VERTEX_POINT ( 'NONE', #377 ) ;
#309 = CARTESIAN_POINT ( 'NONE',  ( 85.00000000000000000, 0.0000000000000000000, 0.0000000000000000000 ) ) ;
#310 = DATE_AND_TIME ( #67, #298 ) ;
#311 = CC_DESIGN_PERSON_AND_ORGANIZATION_ASSIGNMENT ( #85, #131, ( #129 ) ) ;
#312 = COORDINATED_UNIVERSAL_TIME_OFFSET ( 1, 0, .AHEAD. ) ;
#313 = CARTESIAN_POINT ( 'NONE',  ( 79.00000000000001421, 0.0000000000000000000, -14.00000000000000000 ) ) ;
#314 = AXIS2_PLACEMENT_3D ( 'NONE', #182, #248, #186 ) ;
#315 = ORIENTED_EDGE ( 'NONE', *, *, #63, .T. ) ;
#316 = DIRECTION ( 'NONE',  ( -1.000000000000000000, 0.0000000000000000000, 0.0000000000000000000 ) ) ;
#317 = DIRECTION ( 'NONE',  ( -0.0000000000000000000, -0.0000000000000000000, 1.000000000000000000 ) ) ;
#318 = ADVANCED_FACE ( 'NONE', ( #233 ), #176, .F. ) ;
#319 = CARTESIAN_POINT ( 'NONE',  ( 85.00000000000000000, 22.00000000000000000, 0.0000000000000000000 ) ) ;
#320 = CYLINDRICAL_SURFACE ( 'NONE', #27, 3.300000000000002487 ) ;
#321 = CARTESIAN_POINT ( 'NONE',  ( 6.000000000000000000, 0.0000000000000000000, -10.70000000000000107 ) ) ;
#322 = PERSON_AND_ORGANIZATION ( #300, #36 ) ;
#323 = EDGE_LOOP ( 'NONE', ( #278, #192 ) ) ;
#324 = VERTEX_POINT ( 'NONE', #49 ) ;
#325 = CARTESIAN_POINT ( 'NONE',  ( 0.0000000000000000000, 22.00000000000000000, 0.0000000000000000000 ) ) ;
#326 = ORIENTED_EDGE ( 'NONE', *, *, #289, .T. ) ;
#327 = DIRECTION ( 'NONE',  ( 0.0000000000000000000, 0.0000000000000000000, -1.000000000000000000 ) ) ;
#328 = CARTESIAN_POINT ( 'NONE',  ( 79.00000000000001421, 22.00000000000000000, -14.00000000000000000 ) ) ;
#329 = CARTESIAN_POINT ( 'NONE',  ( 85.00000000000000000, 22.00000000000000000, 0.0000000000000000000 ) ) ;
#330 = CIRCLE ( 'NONE', #306, 3.300000000000002487 ) ;
#331 = DIRECTION ( 'NONE',  ( 0.0000000000000000000, 1.000000000000000000, 0.0000000000000000000 ) ) ;
#332 = VERTEX_POINT ( 'NONE', #173 ) ;
#333 = APPROVAL_STATUS ( 'not_yet_approved' ) ;
#334 = CARTESIAN_POINT ( 'NONE',  ( 6.000000000000000000, 22.00000000000000000, -17.30000000000000071 ) ) ;
#335 = VERTEX_POINT ( 'NONE', #243 ) ;
#336 = VECTOR ( 'NONE', #149, 1000.000000000000000 ) ;
#337 = EDGE_LOOP ( 'NONE', ( #19, #363, #123, #232 ) ) ;
#338 = CALENDAR_DATE ( 2022, 16, 5 ) ;
#339 = EDGE_CURVE ( 'NONE', #51, #335, #241, .T. ) ;
#340 = SECURITY_CLASSIFICATION_LEVEL ( 'unclassified' ) ;
#341 = EDGE_LOOP ( 'NONE', ( #174, #155, #33, #128 ) ) ;
#342 = AXIS2_PLACEMENT_3D ( 'NONE', #138, #202, #290 ) ;
#343 = DIRECTION ( 'NONE',  ( 0.0000000000000000000, 0.0000000000000000000, -1.000000000000000000 ) ) ;
#344 = EDGE_CURVE ( 'NONE', #335, #185, #84, .T. ) ;
#345 = CARTESIAN_POINT ( 'NONE',  ( 79.00000000000001421, 22.00000000000000000, -14.00000000000000000 ) ) ;
#346 = DIRECTION ( 'NONE',  ( 1.000000000000000000, 0.0000000000000000000, 0.0000000000000000000 ) ) ;
#347 = FACE_OUTER_BOUND ( 'NONE', #365, .T. ) ;
#348 = CC_DESIGN_PERSON_AND_ORGANIZATION_ASSIGNMENT ( #6, #69, ( #116 ) ) ;
#349 = CARTESIAN_POINT ( 'NONE',  ( 6.000000000000000000, 0.0000000000000000000, -17.30000000000000071 ) ) ;
#350 = EDGE_LOOP ( 'NONE', ( #352, #369 ) ) ;
#351 =( NAMED_UNIT ( * ) SI_UNIT ( $, .STERADIAN. ) SOLID_ANGLE_UNIT ( ) );
#352 = ORIENTED_EDGE ( 'NONE', *, *, #289, .F. ) ;
#353 = EDGE_LOOP ( 'NONE', ( #151, #307, #315, #76 ) ) ;
#354 = LOCAL_TIME ( 11, 39, 57.00000000000000000, #312 ) ;
#355 = APPROVAL_DATE_TIME ( #235, #255 ) ;
#356 = ORIENTED_EDGE ( 'NONE', *, *, #374, .F. ) ;
#357 = CARTESIAN_POINT ( 'NONE',  ( 0.0000000000000000000, 22.00000000000000000, -28.00000000000000000 ) ) ;
#358 = ADVANCED_FACE ( 'NONE', ( #145 ), #172, .F. ) ;
#359 = DIRECTION ( 'NONE',  ( -0.0000000000000000000, -1.000000000000000000, -0.0000000000000000000 ) ) ;
#360 = DIRECTION ( 'NONE',  ( -0.0000000000000000000, -1.000000000000000000, -0.0000000000000000000 ) ) ;
#361 = CLOSED_SHELL ( 'NONE', ( #358, #136, #40, #117, #318, #55, #102, #385, #83, #217 ) ) ;
#362 = ORIENTED_EDGE ( 'NONE', *, *, #270, .T. ) ;
#363 = ORIENTED_EDGE ( 'NONE', *, *, #206, .F. ) ;
#364 = DATE_TIME_ROLE ( 'creation_date' ) ;
#365 = EDGE_LOOP ( 'NONE', ( #203, #230, #188, #142 ) ) ;
#366 = APPROVAL_DATE_TIME ( #38, #99 ) ;
#367 = DATE_AND_TIME ( #338, #354 ) ;
#368 = CARTESIAN_POINT ( 'NONE',  ( 6.000000000000000000, 22.00000000000000000, -17.30000000000000071 ) ) ;
#369 = ORIENTED_EDGE ( 'NONE', *, *, #17, .F. ) ;
#370 = AXIS2_PLACEMENT_3D ( 'NONE', #313, #70, #277 ) ;
#371 = CARTESIAN_POINT ( 'NONE',  ( 85.00000000000000000, 0.0000000000000000000, 0.0000000000000000000 ) ) ;
#372 = DIRECTION ( 'NONE',  ( 0.0000000000000000000, 0.0000000000000000000, -1.000000000000000000 ) ) ;
#373 = CARTESIAN_POINT ( 'NONE',  ( 0.0000000000000000000, 0.0000000000000000000, 0.0000000000000000000 ) ) ;
#374 = EDGE_CURVE ( 'NONE', #68, #81, #78, .T. ) ;
#375 = AXIS2_PLACEMENT_3D ( 'NONE', #89, #301, #147 ) ;
#376 = DIRECTION ( 'NONE',  ( -0.0000000000000000000, -1.000000000000000000, -0.0000000000000000000 ) ) ;
#377 = CARTESIAN_POINT ( 'NONE',  ( 85.00000000000000000, 0.0000000000000000000, -28.00000000000000000 ) ) ;
#378 = EDGE_LOOP ( 'NONE', ( #9, #156, #256, #247 ) ) ;
#379 = FACE_OUTER_BOUND ( 'NONE', #10, .T. ) ;
#380 = EDGE_CURVE ( 'NONE', #64, #234, #293, .T. ) ;
#381 = VECTOR ( 'NONE', #32, 1000.000000000000000 ) ;
#382 = APPROVAL_PERSON_ORGANIZATION ( #98, #108, #219 ) ;
#383 = CARTESIAN_POINT ( 'NONE',  ( 0.0000000000000000000, 22.00000000000000000, 0.0000000000000000000 ) ) ;
#384 = MECHANICAL_CONTEXT ( 'NONE', #93, 'mechanical' ) ;
#385 = ADVANCED_FACE ( 'NONE', ( #204 ), #303, .F. ) ;
ENDSEC;
END-ISO-10303-21;
