  0
SECTION
  2
HEADER
  9
$ACADVER
  1
AC1015
  9
$ACADMAINTVER
 70
     6
  9
$DWGCODEPAGE
  3
ANSI_1252
  9
$INSBASE
 10
0.0
 20
0.0
 30
0.0
  9
$EXTMIN
 10
-43.2718209937
 20
-51.8871514464
 30
0.0
  9
$EXTMAX
 10
459.6614924621
 20
82.2029641942
 30
0.0
  9
$LIMMIN
 10
0.0
 20
0.0
  9
$LIMMAX
 10
420.0
 20
297.0
  9
$ORTHOMODE
 70
     0
  9
$REGENMODE
 70
     1
  9
$FILLMODE
 70
     1
  9
$QTEXTMODE
 70
     0
  9
$MIRRTEXT
 70
     1
  9
$LTSCALE
 40
1.0
  9
$ATTMODE
 70
     1
  9
$TEXTSIZE
 40
3.5
  9
$TRACEWID
 40
1.0
  9
$TEXTSTYLE
  7
Standard
  9
$CLAYER
  8
0
  9
$CELTYPE
  6
ByLayer
  9
$CECOLOR
 62
   256
  9
$CELTSCALE
 40
1.0
  9
$DISPSILH
 70
     0
  9
$DIMSCALE
 40
1.0
  9
$DIMASZ
 40
3.302
  9
$DIMEXO
 40
0.0
  9
$DIMDLI
 40
3.75
  9
$DIMRND
 40
0.0
  9
$DIMDLE
 40
0.0
  9
$DIMEXE
 40
1.0
  9
$DIMTP
 40
0.0
  9
$DIMTM
 40
0.0
  9
$DIMTXT
 40
3.5
  9
$DIMCEN
 40
2.5
  9
$DIMTSZ
 40
0.0
  9
$DIMTOL
 70
     0
  9
$DIMLIM
 70
     0
  9
$DIMTIH
 70
     1
  9
$DIMTOH
 70
     1
  9
$DIMSE1
 70
     0
  9
$DIMSE2
 70
     0
  9
$DIMTAD
 70
     1
  9
$DIMZIN
 70
     1
  9
$DIMBLK
  1

  9
$DIMASO
 70
     1
  9
$DIMSHO
 70
     1
  9
$DIMPOST
  1

  9
$DIMAPOST
  1

  9
$DIMALT
 70
     0
  9
$DIMALTD
 70
     3
  9
$DIMALTF
 40
0.0393700787
  9
$DIMLFAC
 40
1.0
  9
$DIMTOFL
 70
     1
  9
$DIMTVP
 40
0.0
  9
$DIMTIX
 70
     0
  9
$DIMSOXD
 70
     0
  9
$DIMSAH
 70
     0
  9
$DIMBLK1
  1

  9
$DIMBLK2
  1

  9
$DIMSTYLE
  2
ISO-25
  9
$DIMCLRD
 70
     0
  9
$DIMCLRE
 70
     0
  9
$DIMCLRT
 70
     0
  9
$DIMTFAC
 40
1.0
  9
$DIMGAP
 40
1.524
  9
$DIMJUST
 70
     0
  9
$DIMSD1
 70
     0
  9
$DIMSD2
 70
     0
  9
$DIMTOLJ
 70
     0
  9
$DIMTZIN
 70
     1
  9
$DIMALTZ
 70
     0
  9
$DIMALTTZ
 70
     0
  9
$DIMUPT
 70
     0
  9
$DIMDEC
 70
     2
  9
$DIMTDEC
 70
     2
  9
$DIMALTU
 70
     2
  9
$DIMALTTD
 70
     3
  9
$DIMTXSTY
  7
Standard
  9
$DIMAUNIT
 70
     0
  9
$DIMADEC
 70
     2
  9
$DIMALTRND
 40
0.0
  9
$DIMAZIN
 70
     0
  9
$DIMDSEP
 70
    44
  9
$DIMATFIT
 70
     3
  9
$DIMFRAC
 70
     0
  9
$DIMLDRBLK
  1

  9
$DIMLUNIT
 70
     2
  9
$DIMLWD
 70
    -2
  9
$DIMLWE
 70
    -2
  9
$DIMTMOVE
 70
     0
  9
$LUNITS
 70
     2
  9
$LUPREC
 70
     2
  9
$SKETCHINC
 40
1.0
  9
$FILLETRAD
 40
0.0
  9
$AUNITS
 70
     0
  9
$AUPREC
 70
     2
  9
$MENU
  1
.
  9
$ELEVATION
 40
0.0
  9
$PELEVATION
 40
0.0
  9
$THICKNESS
 40
0.0
  9
$LIMCHECK
 70
     0
  9
$CHAMFERA
 40
0.0
  9
$CHAMFERB
 40
0.0
  9
$CHAMFERC
 40
0.0
  9
$CHAMFERD
 40
0.0
  9
$SKPOLY
 70
     0
  9
$TDCREATE
 40
2459706.880411725
  9
$TDUCREATE
 40
2459706.797078391
  9
$TDUPDATE
 40
2459706.880503634
  9
$TDUUPDATE
 40
2459706.797170301
  9
$TDINDWG
 40
0.0000000116
  9
$TDUSRTIMER
 40
0.0000000116
  9
$USRTIMER
 70
     1
  9
$ANGBASE
 50
0.0
  9
$ANGDIR
 70
     0
  9
$PDMODE
 70
     0
  9
$PDSIZE
 40
-1.0
  9
$PLINEWID
 40
0.0
  9
$SPLFRAME
 70
     0
  9
$SPLINETYPE
 70
     6
  9
$SPLINESEGS
 70
     8
  9
$HANDSEED
  5
D1
  9
$SURFTAB1
 70
     6
  9
$SURFTAB2
 70
     6
  9
$SURFTYPE
 70
     6
  9
$SURFU
 70
     6
  9
$SURFV
 70
     6
  9
$UCSBASE
  2

  9
$UCSNAME
  2

  9
$UCSORG
 10
0.0
 20
0.0
 30
0.0
  9
$UCSXDIR
 10
1.0
 20
0.0
 30
0.0
  9
$UCSYDIR
 10
0.0
 20
1.0
 30
0.0
  9
$UCSORTHOREF
  2

  9
$UCSORTHOVIEW
 70
     0
  9
$UCSORGTOP
 10
0.0
 20
0.0
 30
0.0
  9
$UCSORGBOTTOM
 10
0.0
 20
0.0
 30
0.0
  9
$UCSORGLEFT
 10
0.0
 20
0.0
 30
0.0
  9
$UCSORGRIGHT
 10
0.0
 20
0.0
 30
0.0
  9
$UCSORGFRONT
 10
0.0
 20
0.0
 30
0.0
  9
$UCSORGBACK
 10
0.0
 20
0.0
 30
0.0
  9
$PUCSBASE
  2

  9
$PUCSNAME
  2

  9
$PUCSORG
 10
0.0
 20
0.0
 30
0.0
  9
$PUCSXDIR
 10
1.0
 20
0.0
 30
0.0
  9
$PUCSYDIR
 10
0.0
 20
1.0
 30
0.0
  9
$PUCSORTHOREF
  2

  9
$PUCSORTHOVIEW
 70
     0
  9
$PUCSORGTOP
 10
0.0
 20
0.0
 30
0.0
  9
$PUCSORGBOTTOM
 10
0.0
 20
0.0
 30
0.0
  9
$PUCSORGLEFT
 10
0.0
 20
0.0
 30
0.0
  9
$PUCSORGRIGHT
 10
0.0
 20
0.0
 30
0.0
  9
$PUCSORGFRONT
 10
0.0
 20
0.0
 30
0.0
  9
$PUCSORGBACK
 10
0.0
 20
0.0
 30
0.0
  9
$USERI1
 70
     0
  9
$USERI2
 70
     0
  9
$USERI3
 70
     0
  9
$USERI4
 70
     0
  9
$USERI5
 70
     0
  9
$USERR1
 40
0.0
  9
$USERR2
 40
0.0
  9
$USERR3
 40
0.0
  9
$USERR4
 40
0.0
  9
$USERR5
 40
0.0
  9
$WORLDVIEW
 70
     1
  9
$SHADEDGE
 70
     3
  9
$SHADEDIF
 70
    70
  9
$TILEMODE
 70
     1
  9
$MAXACTVP
 70
    64
  9
$PINSBASE
 10
0.0
 20
0.0
 30
0.0
  9
$PLIMCHECK
 70
     0
  9
$PEXTMIN
 10
1.0000000000E+20
 20
1.0000000000E+20
 30
1.0000000000E+20
  9
$PEXTMAX
 10
-1.0000000000E+20
 20
-1.0000000000E+20
 30
-1.0000000000E+20
  9
$PLIMMIN
 10
0.0
 20
0.0
  9
$PLIMMAX
 10
420.0
 20
297.0
  9
$UNITMODE
 70
     0
  9
$VISRETAIN
 70
     1
  9
$PLINEGEN
 70
     0
  9
$PSLTSCALE
 70
     1
  9
$TREEDEPTH
 70
  3020
  9
$CMLSTYLE
  2
Standard
  9
$CMLJUST
 70
     0
  9
$CMLSCALE
 40
20.0
  9
$PROXYGRAPHICS
 70
     1
  9
$MEASUREMENT
 70
     1
  9
$CELWEIGHT
370
    -1
  9
$ENDCAPS
280
     0
  9
$JOINSTYLE
280
     0
  9
$LWDISPLAY
290
     1
  9
$INSUNITS
 70
     4
  9
$HYPERLINKBASE
  1

  9
$STYLESHEET
  1

  9
$XEDIT
290
     1
  9
$CEPSNTYPE
380
     0
  9
$PSTYLEMODE
290
     1
  9
$FINGERPRINTGUID
  2
{215fbfe0-417e-405c-860a-512e5b9dd880}
  9
$VERSIONGUID
  2
{FAEB1C32-E019-11D5-929B-00C0DF256EC4}
  9
$EXTNAMES
290
     1
  9
$PSVPSCALE
 40
0.0
  9
$OLESTARTUP
290
     0
  0
ENDSEC
  0
SECTION
  2
CLASSES
  0
CLASS
  1
ACDBDICTIONARYWDFLT
  2
AcDbDictionaryWithDefault
  3
ObjectDBX Classes
 90
        0
280
     0
281
     0
  0
CLASS
  1
VISUALSTYLE
  2
AcDbVisualStyle
  3
ObjectDBX Classes
 90
     4095
280
     0
281
     0
  0
CLASS
  1
MATERIAL
  2
AcDbMaterial
  3
ObjectDBX Classes
 90
     1153
280
     0
281
     0
  0
CLASS
  1
SCALE
  2
AcDbScale
  3
ObjectDBX Classes
 90
     1153
280
     0
281
     0
  0
CLASS
  1
TABLESTYLE
  2
AcDbTableStyle
  3
ObjectDBX Classes
 90
     4095
280
     0
281
     0
  0
CLASS
  1
MLEADERSTYLE
  2
AcDbMLeaderStyle
  3
ACDB_MLEADERSTYLE_CLASS
 90
     4095
280
     0
281
     0
  0
CLASS
  1
SUN
  2
AcDbSun
  3
SCENEOE
 90
     1153
280
     0
281
     0
  0
CLASS
  1
ACDBPLACEHOLDER
  2
AcDbPlaceHolder
  3
ObjectDBX Classes
 90
        0
280
     0
281
     0
  0
CLASS
  1
LAYOUT
  2
AcDbLayout
  3
ObjectDBX Classes
 90
        0
280
     0
281
     0
  0
ENDSEC
  0
SECTION
  2
TABLES
  0
TABLE
  2
VPORT
  5
8
330
0
100
AcDbSymbolTable
 70
     1
  0
VPORT
  5
29
330
8
100
AcDbSymbolTableRecord
100
AcDbViewportTableRecord
  2
*Active
 70
     0
 10
0.0
 20
0.0
 11
1.0
 21
1.0
 12
208.1948357342
 22
15.1579063739
 13
0.0
 23
0.0
 14
10.0
 24
10.0
 15
10.0
 25
10.0
 16
0.0
 26
0.0
 36
1.0
 17
0.0
 27
0.0
 37
0.0
 40
136.7719179534
 41
3.7507113112
 42
50.0
 43
0.0
 44
0.0
 50
0.0
 51
0.0
 71
     0
 72
   100
 73
     1
 74
     3
 75
     0
 76
     0
 77
     0
 78
     0
281
     0
 65
     1
110
0.0
120
0.0
130
0.0
111
1.0
121
0.0
131
0.0
112
0.0
122
1.0
132
0.0
 79
     0
146
0.0
  0
ENDTAB
  0
TABLE
  2
LTYPE
  5
5
330
0
100
AcDbSymbolTable
 70
     6
  0
LTYPE
  5
14
330
5
100
AcDbSymbolTableRecord
100
AcDbLinetypeTableRecord
  2
ByBlock
 70
     0
  3

 72
    65
 73
     0
 40
0.0
  0
LTYPE
  5
15
330
5
100
AcDbSymbolTableRecord
100
AcDbLinetypeTableRecord
  2
ByLayer
 70
     0
  3

 72
    65
 73
     0
 40
0.0
  0
LTYPE
  5
16
330
5
100
AcDbSymbolTableRecord
100
AcDbLinetypeTableRecord
  2
Continuous
 70
     0
  3
Solid line
 72
    65
 73
     0
 40
0.0
  0
LTYPE
  5
5E
330
5
100
AcDbSymbolTableRecord
100
AcDbLinetypeTableRecord
  2
HIDDEN
 70
     0
  3
Hidden __ __ __ __ __ __ __ __ __ __ __ __ __ __
 72
    65
 73
     2
 40
1.905
 49
1.27
 74
     0
 49
-0.635
 74
     0
  0
LTYPE
  5
5F
330
5
100
AcDbSymbolTableRecord
100
AcDbLinetypeTableRecord
  2
PHANTOM
 70
     0
  3
Phantom ______  __  __  ______  __  __  ______
 72
    65
 73
     6
 40
12.7
 49
6.35
 74
     0
 49
-1.27
 74
     0
 49
1.27
 74
     0
 49
-1.27
 74
     0
 49
1.27
 74
     0
 49
-1.27
 74
     0
  0
LTYPE
  5
60
330
5
100
AcDbSymbolTableRecord
100
AcDbLinetypeTableRecord
  2
CENTER
 70
     0
  3
Center ____ _ ____ _ ____ _ ____ _ ____ _ ____
 72
    65
 73
     4
 40
10.16
 49
6.35
 74
     0
 49
-1.27
 74
     0
 49
1.27
 74
     0
 49
-1.27
 74
     0
  0
LTYPE
  5
61
330
5
100
AcDbSymbolTableRecord
100
AcDbLinetypeTableRecord
  2
CENTERX2
 70
     0
  3
Center (2x) ________  __  ________  __  _____
 72
    65
 73
     4
 40
20.32
 49
12.7
 74
     0
 49
-2.54
 74
     0
 49
2.54
 74
     0
 49
-2.54
 74
     0
  0
LTYPE
  5
62
330
5
100
AcDbSymbolTableRecord
100
AcDbLinetypeTableRecord
  2
DOT2
 70
     0
  3
Dot (.5x) ........................................
 72
    65
 73
     2
 40
0.635
 49
0.0
 74
     0
 49
-0.635
 74
     0
  0
ENDTAB
  0
TABLE
  2
LAYER
  5
2
330
0
100
AcDbSymbolTable
 70
     1
  0
LAYER
  5
10
330
2
100
AcDbSymbolTableRecord
100
AcDbLayerTableRecord
  2
0
 70
     0
 62
     7
  6
Continuous
370
    -3
390
F
  0
ENDTAB
  0
TABLE
  2
STYLE
  5
3
330
0
100
AcDbSymbolTable
 70
     2
  0
STYLE
  5
11
330
3
100
AcDbSymbolTableRecord
100
AcDbTextStyleTableRecord
  2
Standard
 70
     0
 40
0.0
 41
1.0
 50
0.0
 71
     0
 42
3.5
  3
txt
  4

  0
STYLE
  5
CE
330
3
100
AcDbSymbolTableRecord
100
AcDbTextStyleTableRecord
  2
SLDTEXTSTYLE0
 70
     0
 40
0.0
 41
0.7
 50
0.0
 71
     0
 42
3.5
  3
TXT
  4
bigfont
  0
ENDTAB
  0
TABLE
  2
VIEW
  5
6
330
0
100
AcDbSymbolTable
 70
     0
  0
ENDTAB
  0
TABLE
  2
UCS
  5
7
330
0
100
AcDbSymbolTable
 70
     0
  0
ENDTAB
  0
TABLE
  2
APPID
  5
9
330
0
100
AcDbSymbolTable
 70
     1
  0
APPID
  5
12
330
9
100
AcDbSymbolTableRecord
100
AcDbRegAppTableRecord
  2
ACAD
 70
     0
  0
ENDTAB
  0
TABLE
  2
DIMSTYLE
  5
A
330
0
100
AcDbSymbolTable
 70
     1
100
AcDbDimStyleTable
  0
DIMSTYLE
105
27
330
A
100
AcDbSymbolTableRecord
100
AcDbDimStyleTableRecord
  2
ISO-25
 70
     0
 41
2.5
 42
0.625
 43
3.75
 44
1.25
 73
     0
 74
     0
 77
     1
 78
     8
140
2.5
141
2.5
143
0.0393700787
147
0.625
171
     3
172
     1
178
     0
271
     2
272
     2
274
     3
278
    44
283
     0
284
     8
340
11
  0
ENDTAB
  0
TABLE
  2
BLOCK_RECORD
  5
1
330
0
100
AcDbSymbolTable
 70
     1
  0
BLOCK_RECORD
  5
1F
330
1
100
AcDbSymbolTableRecord
100
AcDbBlockTableRecord
  2
*Model_Space
340
22
  0
BLOCK_RECORD
  5
1B
330
1
100
AcDbSymbolTableRecord
100
AcDbBlockTableRecord
  2
*Paper_Space
340
1E
  0
BLOCK_RECORD
  5
23
330
1
100
AcDbSymbolTableRecord
100
AcDbBlockTableRecord
  2
*Paper_Space0
340
26
  0
ENDTAB
  0
ENDSEC
  0
SECTION
  2
BLOCKS
  0
BLOCK
  5
20
330
1F
100
AcDbEntity
  8
0
100
AcDbBlockBegin
  2
*Model_Space
 70
     0
 10
0.0
 20
0.0
 30
0.0
  3
*Model_Space
  1

  0
ENDBLK
  5
21
330
1F
100
AcDbEntity
  8
0
100
AcDbBlockEnd
  0
BLOCK
  5
1C
330
1B
100
AcDbEntity
 67
     1
  8
0
100
AcDbBlockBegin
  2
*Paper_Space
 70
     0
 10
0.0
 20
0.0
 30
0.0
  3
*Paper_Space
  1

  0
ENDBLK
  5
1D
330
1B
100
AcDbEntity
 67
     1
  8
0
100
AcDbBlockEnd
  0
BLOCK
  5
24
330
23
100
AcDbEntity
  8
0
100
AcDbBlockBegin
  2
*Paper_Space0
 70
     0
 10
0.0
 20
0.0
 30
0.0
  3
*Paper_Space0
  1

  0
ENDBLK
  5
25
330
23
100
AcDbEntity
  8
0
100
AcDbBlockEnd
  0
ENDSEC
  0
SECTION
  2
ENTITIES
  0
LINE
  5
63
330
1F
100
AcDbEntity
  8
0
  6
Continuous
 62
     7
100
AcDbLine
 10
0.0
 20
0.0
 30
0.0
 11
3.9678918919
 21
0.0
 31
0.0
  0
LINE
  5
64
330
1F
100
AcDbEntity
  8
0
  6
Continuous
 62
     7
100
AcDbLine
 10
0.0
 20
0.0
 30
0.0
 11
0.0
 21
7.9357837838
 31
0.0
  0
POINT
  5
65
330
1F
100
AcDbEntity
  8
0
  6
Continuous
 62
     7
100
AcDbPoint
 10
0.0
 20
0.0
 30
0.0
  0
SPLINE
  5
6A
330
1F
100
AcDbEntity
  8
0
  6
Continuous
 62
     7
370
    25
100
AcDbSpline
210
0.0
220
0.0
230
1.0
 70
     8
 71
     3
 72
    24
 73
    20
 74
     0
 42
0.00000001
 43
0.00000001
 40
0.0
 40
0.0
 40
0.0
 40
0.0
 40
0.0311711598508148
 40
0.0624929937629822
 40
0.0939762789279946
 40
0.1256316276375753
 40
0.1574694801256527
 40
0.1895000981678271
 40
0.2217335594349394
 40
0.3371828376097262
 40
0.4511875073263699
 40
0.578963425364556
 40
0.7050653534935212
 40
0.7547730361191612
 40
0.8041843615525232
 40
0.8533554619019735
 40
0.9023432950597456
 40
0.9512054598177168
 40
1.0
 40
1.0
 40
1.0
 40
1.0
 10
221.2069993028006
 20
29.39624695124455
 30
0.0
 10
221.0208811964273
 20
29.43379082465498
 30
0.0
 10
220.6477453324931
 20
29.50906004973693
 30
0.0
 10
220.0840701990097
 20
29.60892790289688
 30
0.0
 10
219.5158828239161
 20
29.69960314433589
 30
0.0
 10
218.9429820626222
 20
29.78011570917571
 30
0.0
 10
218.3654251747001
 20
29.85073793956743
 30
0.0
 10
217.7831865780043
 20
29.91135812722002
 30
0.0
 10
216.6926180926261
 20
30.00574482305432
 30
0.0
 10
215.0989371545827
 20
30.07718178862487
 30
0.0
 10
212.9220469590725
 20
30.02513655493303
 30
0.0
 10
210.68964488391
 20
29.80637701473942
 30
0.0
 10
208.8676579578994
 20
29.47765592768876
 30
0.0
 10
207.5338311627882
 20
29.15627458881018
 30
0.0
 10
206.6631738920113
 20
28.9152503557166
 30
0.0
 10
205.8053101629611
 20
28.64632887790641
 30
0.0
 10
204.9605420664959
 20
28.3487997017438
 30
0.0
 10
204.1277160674937
 20
28.02523770056532
 30
0.0
 10
203.5831825724091
 20
27.7857270275245
 30
0.0
 10
203.3111043620829
 20
27.66605461827288
 30
0.0
  0
SPLINE
  5
6F
330
1F
100
AcDbEntity
  8
0
  6
Continuous
 62
     7
370
    25
100
AcDbSpline
210
0.0
220
0.0
230
1.0
 70
     8
 71
     3
 72
    15
 73
    11
 74
     0
 42
0.00000001
 43
0.00000001
 40
0.0
 40
0.0
 40
0.0
 40
0.0
 40
0.2419143003825115
 40
0.3628714505737525
 40
0.4248495352694369
 40
0.4894214201647736
 40
0.6132974123091915
 40
0.739673366579266
 40
0.868568265455195
 40
0.9999999999999999
 40
0.9999999999999999
 40
0.9999999999999999
 40
0.9999999999999999
 10
248.6118004038828
 20
70.55966136203297
 30
0.0
 10
247.7207866160964
 20
68.85149595864515
 30
0.0
 10
246.3842659344167
 20
66.28924785356354
 30
0.0
 10
244.8204587983477
 20
63.2888578299443
 30
0.0
 10
243.907677904976
 20
61.5418058482268
 30
0.0
 10
242.9959726427367
 20
59.76800376189257
 30
0.0
 10
241.8720231609747
 20
57.5267229301047
 30
0.0
 10
240.5528517310211
 20
54.81056906934848
 30
0.0
 10
239.2385546788168
 20
52.02531769840902
 30
0.0
 10
238.3810642714832
 20
50.13771481983787
 30
0.0
 10
237.948141023829
 20
49.1847162072779
 30
0.0
  0
SPLINE
  5
75
330
1F
100
AcDbEntity
  8
0
  6
Continuous
 62
     7
370
    25
100
AcDbSpline
210
0.0
220
0.0
230
1.0
 70
     8
 71
     3
 72
    11
 73
     7
 74
     0
 42
0.00000001
 43
0.00000001
 40
0.0
 40
0.0
 40
0.0
 40
0.0
 40
0.2504104221419439
 40
0.5005022478227011
 40
0.7503428987184328
 40
0.9999999999999999
 40
0.9999999999999999
 40
0.9999999999999999
 40
0.9999999999999999
 10
294.437111841672
 20
27.95904928846423
 30
0.0
 10
294.2931236802046
 20
28.01628340662806
 30
0.0
 10
294.0053305529944
 20
28.13067882415148
 30
0.0
 10
293.5703446029974
 20
28.29305391844578
 30
0.0
 10
293.1335519124534
 20
28.44912512975741
 30
0.0
 10
292.8403629122101
 20
28.54693539995762
 30
0.0
 10
292.6938222809273
 20
28.59582256396848
 30
0.0
  0
SPLINE
  5
7C
330
1F
100
AcDbEntity
  8
0
  6
Continuous
 62
     7
370
    25
100
AcDbSpline
210
0.0
220
0.0
230
1.0
 70
     8
 71
     3
 72
    15
 73
    11
 74
     0
 42
0.00000001
 43
0.00000001
 40
0.0
 40
0.0
 40
0.0
 40
0.0
 40
0.1255821369857568
 40
0.2509199346255069
 40
0.3760521965739082
 40
0.5010179179511737
 40
0.6258562499418607
 40
0.7506064636690133
 40
0.8753079135065772
 40
1.0
 40
1.0
 40
1.0
 40
1.0
 10
361.2931522859403
 20
30.6872818740188
 30
0.0
 10
361.1898598942639
 20
30.81635773377388
 30
0.0
 10
360.9834760821323
 20
31.07425831636349
 30
0.0
 10
360.6656314306163
 20
31.4538157398813
 30
0.0
 10
360.3421596637079
 20
31.82749222437324
 30
0.0
 10
360.0124341402054
 20
32.1947885544479
 30
0.0
 10
359.6766591229253
 20
32.55587663166055
 30
0.0
 10
359.3346434672704
 20
32.91056641761577
 30
0.0
 10
358.986947916883
 20
33.25944528905342
 30
0.0
 10
358.750013086312
 20
33.48670202365214
 30
0.0
 10
358.631550118821
 20
33.60032612483649
 30
0.0
  0
SPLINE
  5
7E
330
1F
100
AcDbEntity
  8
0
  6
Continuous
 62
     7
370
    25
100
AcDbSpline
210
0.0
220
0.0
230
1.0
 70
     8
 71
     3
 72
    25
 73
    21
 74
     0
 42
0.00000001
 43
0.00000001
 40
0.0
 40
0.0
 40
0.0
 40
0.0
 40
0.0220256435204326
 40
0.0439996189100956
 40
0.0659334463321253
 40
0.0878387092922188
 40
0.1097270366458546
 40
0.1316100842477402
 40
0.1534995163868023
 40
0.1754069871539258
 40
0.2569553189111627
 40
0.3388721420979865
 40
0.4829060125108826
 40
0.6267321062419708
 40
0.73517628276141
 40
0.8442655637569546
 40
0.8832808087786032
 40
0.9222024745863473
 40
0.961089254573462
 40
1.0
 40
1.0
 40
1.0
 40
1.0
 10
384.5849205730776
 20
23.13222210098842
 30
0.0
 10
384.4826646668661
 20
23.24091546884403
 30
0.0
 10
384.2783927280943
 20
23.45804722979645
 30
0.0
 10
383.9629782957924
 20
23.77445572337653
 30
0.0
 10
383.64149826543
 20
24.08348270218317
 30
0.0
 10
383.3132778050079
 20
24.38450088474308
 30
0.0
 10
382.9784973074701
 20
24.67767823514891
 30
0.0
 10
382.637109883889
 20
24.96296696089797
 30
0.0
 10
382.2891245945226
 20
25.24038893954527
 30
0.0
 10
381.6130097495528
 20
25.75431285453246
 30
0.0
 10
380.5721550903115
 20
26.46032374835534
 30
0.0
 10
378.7534467206775
 20
27.48057112825419
 30
0.0
 10
376.4339312750602
 20
28.45309752403526
 30
0.0
 10
373.8199963554496
 20
29.11027152830118
 30
0.0
 10
371.3839053301765
 20
29.39721508978227
 30
0.0
 10
369.6417565952381
 20
29.40538796020769
 30
0.0
 10
368.3773922495531
 20
29.31857835424247
 30
0.0
 10
367.5903319315803
 20
29.23326219596273
 30
0.0
 10
366.8074504975809
 20
29.11962691290995
 30
0.0
 10
366.2901275913766
 20
29.01828579593138
 30
0.0
 10
366.0313864579072
 20
28.96759962843404
 30
0.0
  0
SPLINE
  5
80
330
1F
100
AcDbEntity
  8
0
  6
Continuous
 62
     7
370
    25
100
AcDbSpline
210
0.0
220
0.0
230
1.0
 70
     8
 71
     3
 72
    36
 73
    32
 74
     0
 42
0.00000001
 43
0.00000001
 40
0.0
 40
0.0
 40
0.0
 40
0.0
 40
0.0087556785350186
 40
0.0174884331989671
 40
0.0262010000848704
 40
0.0348961343432051
 40
0.0435766077236195
 40
0.0522452060390452
 40
0.0609047265632327
 40
0.0695579753734737
 40
0.1072242602999121
 40
0.1446058792927717
 40
0.1868662719179512
 40
0.2287845754800195
 40
0.2741614224872359
 40
0.3195677568087669
 40
0.3613043899615528
 40
0.4033892192645744
 40
0.4774676045086743
 40
0.5422681732860676
 40
0.6078949679132376
 40
0.6656716280036028
 40
0.7239311286532866
 40
0.7740026607630525
 40
0.8251162189315254
 40
0.8697722301900415
 40
0.9148626299276514
 40
0.9359964541843082
 40
0.9572171502308842
 40
0.9785450046353213
 40
1.0
 40
1.0
 40
1.0
 40
1.0
 10
438.7862738985686
 20
9.528287017387312
 30
0.0
 10
438.7426483284297
 20
9.694921170062441
 30
0.0
 10
438.6555114073914
 20
10.02775319856488
 30
0.0
 10
438.5138418174533
 20
10.52338225763484
 30
0.0
 10
438.364371169413
 20
11.01544964573991
 30
0.0
 10
438.2063044249276
 20
11.50375122717714
 30
0.0
 10
438.0398539164673
 20
11.98834190937104
 30
0.0
 10
437.8649628838743
 20
12.46920461656254
 30
0.0
 10
437.6816466757493
 20
12.94635191975357
 30
0.0
 10
437.2755998745287
 20
13.9488324727471
 30
0.0
 10
436.5840132886298
 20
15.44535069664134
 30
0.0
 10
435.4501151413307
 20
17.45798665101927
 30
0.0
 10
434.0983244469773
 20
19.43506390630222
 30
0.0
 10
432.4634044983857
 20
21.39522696867137
 30
0.0
 10
430.5956527463941
 20
23.22610580284823
 30
0.0
 10
428.5476244830065
 20
24.8469904669966
 30
0.0
 10
426.4035175979164
 20
26.22011579382722
 30
0.0
 10
423.6371892713644
 20
27.64200298949411
 30
0.0
 10
420.2748200299103
 20
28.8596369694375
 30
0.0
 10
416.3264436408373
 20
29.685277755594
 30
0.0
 10
412.6241984068436
 20
29.96642950252226
 30
0.0
 10
409.0466728575989
 20
29.82063781037999
 30
0.0
 10
405.8091298469432
 20
29.33114872071802
 30
0.0
 10
402.7644074421869
 20
28.56126559088681
 30
0.0
 10
400.0510039921996
 20
27.61832243344488
 30
0.0
 10
397.5079222402699
 20
26.5124282424662
 30
0.0
 10
395.5704464416579
 20
25.50632199393813
 30
0.0
 10
394.0841726559317
 20
24.63967781247539
 30
0.0
 10
393.0222792773621
 20
23.9746298539264
 30
0.0
 10
391.9745137178753
 20
23.27586353049769
 30
0.0
 10
391.2927290743638
 20
22.7822609836794
 30
0.0
 10
390.9508236976723
 20
22.53472627266478
 30
0.0
  0
SPLINE
  5
84
330
1F
100
AcDbEntity
  8
0
  6
Continuous
 62
     7
370
    25
100
AcDbSpline
210
0.0
220
0.0
230
1.0
 70
     8
 71
     3
 72
    41
 73
    37
 74
     0
 42
0.00000001
 43
0.00000001
 40
0.0
 40
0.0
 40
0.0
 40
0.0
 40
0.0067381255485989
 40
0.0134915335948743
 40
0.0202619962463725
 40
0.0270512722560949
 40
0.0338611058004654
 40
0.0406932253114865
 40
0.047549342366258
 40
0.0544311506365885
 40
0.0613403249009593
 40
0.0682785201206337
 40
0.075247370581232
 40
0.0822484891006577
 40
0.0892834663038145
 40
0.1287793480226453
 40
0.1685522066366476
 40
0.2063238908729374
 40
0.2443749073086077
 40
0.280628933158634
 40
0.3172100423195696
 40
0.387240479712162
 40
0.4547254544520996
 40
0.5182399668417255
 40
0.5831301309658192
 40
0.6421130206320856
 40
0.7027994191352077
 40
0.7570971736636886
 40
0.8137405233931663
 40
0.8394214934570147
 40
0.8658408800767375
 40
0.877195362860328
 40
0.8904996217136343
 40
0.9123996973709109
 40
0.9561998486854555
 40
1.0
 40
1.0
 40
1.0
 40
1.0
 10
390.6117227040285
 20
-46.27193347420526
 30
0.0
 10
390.7873838602002
 20
-46.34602828842772
 30
0.0
 10
391.139104583228
 20
-46.49438596862799
 30
0.0
 10
391.6718333869788
 20
-46.7062688967639
 30
0.0
 10
392.209012753362
 20
-46.91065145795716
 30
0.0
 10
392.7509781798927
 20
-47.10674829074136
 30
0.0
 10
393.29763926823
 20
-47.29477068072904
 30
0.0
 10
393.8490201996402
 20
-47.47466181254178
 30
0.0
 10
394.4051143177993
 20
-47.64643700412024
 30
0.0
 10
394.9659232970973
 20
-47.81009226212493
 30
0.0
 10
395.5314464850778
 20
-47.96562842521782
 30
0.0
 10
396.1016841954194
 20
-48.11304645071719
 30
0.0
 10
396.676635235934
 20
-48.25234196114373
 30
0.0
 10
397.2563035307832
 20
-48.3835319716002
 30
0.0
 10
398.738430133399
 20
-48.69554703897885
 30
0.0
 10
401.1522823545302
 20
-49.08384289545006
 30
0.0
 10
404.4567565422219
 20
-49.34592364306891
 30
0.0
 10
407.7303568696339
 20
-49.35398243542273
 30
0.0
 10
410.8960681051851
 20
-49.12627361793437
 30
0.0
 10
414.004120589381
 20
-48.68067881562136
 30
0.0
 10
417.9598969915715
 20
-47.83690446662819
 30
0.0
 10
422.6692221862671
 20
-46.34656121043393
 30
0.0
 10
427.8635272526232
 20
-44.00091903768125
 30
0.0
 10
432.6546849116742
 20
-41.19675585634597
 30
0.0
 10
436.9540262501216
 20
-38.08031135354872
 30
0.0
 10
440.9012082894904
 20
-34.65331260162113
 30
0.0
 10
444.3556167317119
 20
-31.13999907597763
 30
0.0
 10
447.5149486692653
 20
-27.44856992771767
 30
0.0
 10
449.8522376597448
 20
-24.36689791826663
 30
0.0
 10
451.6158865956268
 20
-21.84562681963811
 30
0.0
 10
452.6127128936943
 20
-20.35222288384283
 30
0.0
 10
453.3958296500214
 20
-19.13760486180681
 30
0.0
 10
454.0998933492877
 20
-18.0242248692835
 30
0.0
 10
455.2900756138421
 20
-16.13212649341871
 30
0.0
 10
456.9417990857365
 20
-13.5110061116165
 30
0.0
 10
458.2626102822353
 20
-11.41375465381076
 30
0.0
 10
458.9230158804847
 20
-10.3651289249079
 30
0.0
  0
SPLINE
  5
86
330
1F
100
AcDbEntity
  8
0
  6
Continuous
 62
     7
370
    25
100
AcDbSpline
210
0.0
220
0.0
230
1.0
 70
     8
 71
     3
 72
    37
 73
    33
 74
     0
 42
0.00000001
 43
0.00000001
 40
0.0
 40
0.0
 40
0.0
 40
0.0
 40
0.0127376210788092
 40
0.0254430147037698
 40
0.038120386404736
 40
0.0507739696515937
 40
0.0634080218276487
 40
0.0760268200846474
 40
0.0886346570988154
 40
0.1012358367484453
 40
0.1138346697344832
 40
0.1264354691662409
 40
0.1390425461347543
 40
0.2105197923116486
 40
0.2822119336758584
 40
0.3474712824760179
 40
0.4133515499190634
 40
0.4732007755301558
 40
0.5335389075412688
 40
0.5902402690028097
 40
0.6469412994093039
 40
0.704933590422691
 40
0.7626939723286811
 40
0.7891683170923472
 40
0.8155371687103657
 40
0.8418340539891229
 40
0.8680927753936046
 40
0.8943472827962469
 40
0.9206315423984456
 40
0.9469794053372007
 40
0.9734244785034073
 40
1.0
 40
1.0
 40
1.0
 40
1.0
 10
349.8108131854882
 20
-38.89029812684299
 30
0.0
 10
349.9175144229719
 20
-39.02566695159783
 30
0.0
 10
350.1306469331485
 20
-39.29606210445721
 30
0.0
 10
350.4592198791174
 20
-39.69376288375464
 30
0.0
 10
350.7937323513903
 20
-40.08495867711697
 30
0.0
 10
351.1348503123232
 20
-40.46912999291391
 30
0.0
 10
351.482395768117
 20
-40.84641538597077
 30
0.0
 10
351.8364162423616
 20
-41.21677763834889
 30
0.0
 10
352.1968986607028
 20
-41.58022648871385
 30
0.0
 10
352.5638472932514
 20
-41.93675923756204
 30
0.0
 10
352.9372574498313
 20
-42.28637611620672
 30
0.0
 10
353.3171428984762
 20
-42.62907810226177
 30
0.0
 10
354.3045812799892
 20
-43.48736454121631
 30
0.0
 10
355.9817966773441
 20
-44.77167915904016
 30
0.0
 10
358.3954081114185
 20
-46.24069690019398
 30
0.0
 10
360.8734349459925
 20
-47.42995601795705
 30
0.0
 10
363.3010384100156
 20
-48.32721790267772
 30
0.0
 10
365.7317306921794
 20
-48.99417833467776
 30
0.0
 10
368.0865703579051
 20
-49.43755199313721
 30
0.0
 10
370.4254531663317
 20
-49.69558323156628
 30
0.0
 10
372.7452938278237
 20
-49.77945398332939
 30
0.0
 10
375.0793689932046
 20
-49.68982296627375
 30
0.0
 10
376.993175804791
 20
-49.4675904768947
 30
0.0
 10
378.4680459518872
 20
-49.21177927765749
 30
0.0
 10
379.5162611604325
 20
-48.99138313449888
 30
0.0
 10
380.5530677556564
 20
-48.73430847397463
 30
0.0
 10
381.5784920934703
 20
-48.44058419283473
 30
0.0
 10
382.5924930353852
 20
-48.11015045153771
 30
0.0
 10
383.5951777408121
 20
-47.74322471534278
 30
0.0
 10
384.586127517254
 20
-47.33900574422056
 30
0.0
 10
385.566889276982
 20
-46.90051036273134
 30
0.0
 10
386.20820879649
 20
-46.57870698526573
 30
0.0
 10
386.5296574861032
 20
-46.41740942476301
 30
0.0
  0
SPLINE
  5
88
330
1F
100
AcDbEntity
  8
0
  6
Continuous
 62
     7
370
    25
100
AcDbSpline
210
0.0
220
0.0
230
1.0
 70
     8
 71
     3
 72
    33
 73
    29
 74
     0
 42
0.00000001
 43
0.00000001
 40
0.0
 40
0.0
 40
0.0
 40
0.0
 40
0.0114960886148711
 40
0.0229569674575527
 40
0.0343872204556114
 40
0.0457914684667633
 40
0.0571743640187483
 40
0.0685405858598983
 40
0.0798948333507881
 40
0.0912418207295495
 40
0.1406687146063887
 40
0.1900499402168849
 40
0.2363597885086092
 40
0.2829540810633923
 40
0.3657012316662967
 40
0.435211808150413
 40
0.5055924028982804
 40
0.5667027950254385
 40
0.5959058547872439
 40
0.6252111004726537
 40
0.7268206273251157
 40
0.8318007486615258
 40
0.8591336720355308
 40
0.8867142145910799
 40
0.9145672998649372
 40
0.942717127484519
 40
0.9711871403906767
 40
1.0
 40
1.0
 40
1.0
 40
1.0
 10
301.2569618497993
 20
-42.43262544957528
 30
0.0
 10
301.3891478317847
 20
-42.54871943606438
 30
0.0
 10
301.6531149416813
 20
-42.78055184090513
 30
0.0
 10
302.0571774053586
 20
-43.11774568878394
 30
0.0
 10
302.466339732787
 20
-43.44645279611429
 30
0.0
 10
302.8812291219629
 20
-43.76596663920461
 30
0.0
 10
303.3016787050166
 20
-44.07647563913333
 30
0.0
 10
303.7277301015422
 20
-44.37792879979345
 30
0.0
 10
304.159382157916
 20
-44.67034101437357
 30
0.0
 10
305.0856516924447
 20
-45.27066168403694
 30
0.0
 10
306.550640365543
 20
-46.10978421853066
 30
0.0
 10
308.572331401089
 20
-47.03573429298615
 30
0.0
 10
310.6257178714273
 20
-47.76784308176315
 30
0.0
 10
313.2267170034921
 20
-48.45677488069544
 30
0.0
 10
316.249017435884
 20
-48.8974599825986
 30
0.0
 10
319.661855580845
 20
-48.96521426873814
 30
0.0
 10
322.7313589690526
 20
-48.68570270337942
 30
0.0
 10
325.1495234195484
 20
-48.22092866071295
 30
0.0
 10
326.9219480446262
 20
-47.76160381936666
 30
0.0
 10
329.2663863478792
 20
-47.04755923186265
 30
0.0
 10
332.6194994423508
 20
-45.67550184696756
 30
0.0
 10
335.7258496823349
 20
-43.87451609527557
 30
0.0
 10
337.7424593761918
 20
-42.48856700824889
 30
0.0
 10
338.7643310493792
 20
-41.73988501163748
 30
0.0
 10
339.7733531869413
 20
-40.95352024838463
 30
0.0
 10
340.7690472541473
 20
-40.12890962024359
 30
0.0
 10
341.7535812389347
 20
-39.26834702747874
 30
0.0
 10
342.3929564978224
 20
-38.6685885542657
 30
0.0
 10
342.7145575063442
 20
-38.36691449482463
 30
0.0
  0
SPLINE
  5
8A
330
1F
100
AcDbEntity
  8
0
  6
Continuous
 62
     7
370
    25
100
AcDbSpline
210
0.0
220
0.0
230
1.0
 70
     8
 71
     3
 72
    35
 73
    31
 74
     0
 42
0.00000001
 43
0.00000001
 40
0.0
 40
0.0
 40
0.0
 40
0.0
 40
0.0148258352242456
 40
0.0296539196936716
 40
0.0444896193052242
 40
0.0593382917001451
 40
0.0742052804946157
 40
0.0890959095858911
 40
0.1040154775638397
 40
0.1189692522565121
 40
0.1339624654366628
 40
0.1490003077143117
 40
0.1640879236381492
 40
0.2291553733978934
 40
0.29593616616074
 40
0.3218335852226503
 40
0.3485986562466795
 40
0.3980261688933558
 40
0.452438363983985
 40
0.5058404425620078
 40
0.6305191059743185
 40
0.7533154610174924
 40
0.7835348925543146
 40
0.8138627451197861
 40
0.8443335289369361
 40
0.8749812713987313
 40
0.9058394145047511
 40
0.9369407215556333
 40
0.9683171941261628
 40
1.0
 40
1.0
 40
1.0
 40
1.0
 10
260.7450918131075
 20
-46.82968043886016
 30
0.0
 10
260.9091839202276
 20
-46.90300871048182
 30
0.0
 10
261.2373930290776
 20
-47.04967637844485
 30
0.0
 10
261.7349996777733
 20
-47.25778951114763
 30
0.0
 10
262.2364371075601
 20
-47.45717960194249
 30
0.0
 10
262.7420911008978
 20
-47.64699544098987
 30
0.0
 10
263.2518579202468
 20
-47.82746527011172
 30
0.0
 10
263.7657651694003
 20
-47.99852780483923
 30
0.0
 10
264.2838050610011
 20
-48.1601994881006
 30
0.0
 10
264.8059798430056
 20
-48.31247589353374
 30
0.0
 10
265.3322870837271
 20
-48.45535828725911
 30
0.0
 10
265.8627330608614
 20
-48.58884617604925
 30
0.0
 10
266.9868484736866
 20
-48.8498012357259
 30
0.0
 10
268.7413719643218
 20
-49.16815412257093
 30
0.0
 10
270.6448738336829
 20
-49.36858150458443
 30
0.0
 10
272.0905927172213
 20
-49.45086481566472
 30
0.0
 10
273.3276406020086
 20
-49.49072636973562
 30
0.0
 10
274.911400228022
 20
-49.49047260565309
 30
0.0
 10
276.8162658258047
 20
-49.39798779860871
 30
0.0
 10
279.6210301842419
 20
-49.11123162919205
 30
0.0
 10
283.2110775471586
 20
-48.40317917298276
 30
0.0
 10
286.402960896404
 20
-47.29560468284331
 30
0.0
 10
288.4314327494776
 20
-46.38672626937617
 30
0.0
 10
289.4227470273726
 20
-45.90171995206072
 30
0.0
 10
290.4017483160063
 20
-45.38124281351115
 30
0.0
 10
291.3684588979449
 20
-44.82527078741885
 30
0.0
 10
292.3229960625787
 20
-44.23397541567203
 30
0.0
 10
293.2648508890695
 20
-43.60670985721443
 30
0.0
 10
294.19595645446
 20
-42.94594218920844
 30
0.0
 10
294.801508550943
 20
-42.47929529978774
 30
0.0
 10
295.1057554435915
 20
-42.24483840186763
 30
0.0
  0
SPLINE
  5
8C
330
1F
100
AcDbEntity
  8
0
  6
Continuous
 62
     7
370
    25
100
AcDbSpline
210
0.0
220
0.0
230
1.0
 70
     8
 71
     3
 72
    33
 73
    29
 74
     0
 42
0.00000001
 43
0.00000001
 40
0.0
 40
0.0
 40
0.0
 40
0.0
 40
0.0191597200156933
 40
0.0383064594058386
 40
0.0574483006847735
 40
0.0765933325703877
 40
0.0957496397388857
 40
0.1149252926051099
 40
0.134128337192817
 40
0.1533667851579827
 40
0.1726486040259933
 40
0.191981707700482
 40
0.2113739472977482
 40
0.2308331023561356
 40
0.250366872464706
 40
0.2699828693499526
 40
0.3337170229689118
 40
0.3972468102338272
 40
0.4621897191655732
 40
0.5268556596998292
 40
0.6544217106238457
 40
0.7823616219049072
 40
0.818169558216419
 40
0.8541034144101094
 40
0.890208818416843
 40
0.9265307516736411
 40
0.963113396903506
 40
1.0
 40
1.0
 40
1.0
 40
1.0
 10
230.3129502702423
 20
-46.17767131975418
 30
0.0
 10
230.4632193278687
 20
-46.26800162972495
 30
0.0
 10
230.7636556364999
 20
-46.44860105128111
 30
0.0
 10
231.2211498783636
 20
-46.7076470638054
 30
0.0
 10
231.6833629020522
 20
-46.95783651132065
 30
0.0
 10
232.1508044346629
 20
-47.19833218378947
 30
0.0
 10
232.6233375966686
 20
-47.42935822006792
 30
0.0
 10
233.1009987471399
 20
-47.65085441183703
 30
0.0
 10
233.5837777947179
 20
-47.86283681101955
 30
0.0
 10
234.0716770902367
 20
-48.0653010522
 30
0.0
 10
234.5646956970893
 20
-48.25824823126816
 30
0.0
 10
235.0628333586838
 20
-48.44167818676715
 30
0.0
 10
235.5660904044094
 20
-48.61559044417119
 30
0.0
 10
236.0744641441804
 20
-48.77998718625481
 30
0.0
 10
236.5879634730677
 20
-48.93486035257369
 30
0.0
 10
237.4944989054554
 20
-49.18899601342437
 30
0.0
 10
238.8036939830365
 20
-49.49771478636007
 30
0.0
 10
240.5393685546622
 20
-49.78922214213541
 30
0.0
 10
242.2990946807901
 20
-49.96740874082334
 30
0.0
 10
244.6525266229866
 20
-50.04682879562336
 30
0.0
 10
247.5851079224518
 20
-49.85467330025206
 30
0.0
 10
250.2066140590208
 20
-49.3263805134177
 30
0.0
 10
251.9621397222194
 20
-48.81887584235869
 30
0.0
 10
252.8999901226391
 20
-48.51097791997318
 30
0.0
 10
253.830773787567
 20
-48.16851509485417
 30
0.0
 10
254.7541684980091
 20
-47.79077651691685
 30
0.0
 10
255.6715398620705
 20
-47.38046092018827
 30
0.0
 10
256.2729105620027
 20
-47.07977544881002
 30
0.0
 10
256.5748399110513
 20
-46.92881071332855
 30
0.0
  0
SPLINE
  5
8E
330
1F
100
AcDbEntity
  8
0
  6
Continuous
 62
     7
370
    25
100
AcDbSpline
210
0.0
220
0.0
230
1.0
 70
     8
 71
     3
 72
    36
 73
    32
 74
     0
 42
0.00000001
 43
0.00000001
 40
0.0
 40
0.0
 40
0.0
 40
0.0
 40
0.0162414308257796
 40
0.0325179633651811
 40
0.0488348003896301
 40
0.0651971062233858
 40
0.0816100022704269
 40
0.0980785627370625
 40
0.1146078105655075
 40
0.1312027135915501
 40
0.1478681809372932
 40
0.1646090596477726
 40
0.1814301315780802
 40
0.1983361105355043
 40
0.2153316396791297
 40
0.2324212891773915
 40
0.2496095541222224
 40
0.2669008526967275
 40
0.2842995245917398
 40
0.3429424244363287
 40
0.4029629114608755
 40
0.4610664197166663
 40
0.5187916591355788
 40
0.6398762471752796
 40
0.7594264639396497
 40
0.8214608788390585
 40
0.883693489672464
 40
0.9123946216975435
 40
0.9413343282798601
 40
0.9705303589270681
 40
1.0
 40
1.0
 40
1.0
 40
1.0
 10
191.5925736497952
 20
-45.71726124976913
 30
0.0
 10
191.7634236885706
 20
-45.80348706281013
 30
0.0
 10
192.1054930149391
 20
-45.9761250440125
 30
0.0
 10
192.6249979482405
 20
-46.2236511585016
 30
0.0
 10
193.1498014028782
 20
-46.46313009888782
 30
0.0
 10
193.6803336516286
 20
-46.69371981001356
 30
0.0
 10
194.2164787327699
 20
-46.91564680777633
 30
0.0
 10
194.7582676324105
 20
-47.12885016532235
 30
0.0
 10
195.3056917933124
 20
-47.33334633164802
 30
0.0
 10
195.8587533124253
 20
-47.52913093558416
 30
0.0
 10
196.4174514239313
 20
-47.7162052280877
 30
0.0
 10
196.9817861442201
 20
-47.89456895498493
 30
0.0
 10
197.5517572806358
 20
-48.06422228705562
 30
0.0
 10
198.1273647357585
 20
-48.22516526022893
 30
0.0
 10
198.708608289207
 20
-48.37739806959453
 30
0.0
 10
199.2954881710729
 20
-48.52092044677689
 30
0.0
 10
199.8880029725004
 20
-48.65573386730195
 30
0.0
 10
200.4861574945303
 20
-48.781833271831
 30
0.0
 10
201.5656943084964
 20
-48.99175058787583
 30
0.0
 10
203.1497153243791
 20
-49.24405933270381
 30
0.0
 10
205.2210899250628
 20
-49.46931936213707
 30
0.0
 10
207.2899650751409
 20
-49.59693489302799
 30
0.0
 10
210.0820541487814
 20
-49.63570665261779
 30
0.0
 10
213.5978111254167
 20
-49.42274011272972
 30
0.0
 10
217.1222239113341
 20
-48.83221302900053
 30
0.0
 10
219.9084746250309
 20
-48.12688235729956
 30
0.0
 10
221.6289201263609
 20
-47.58595610623098
 30
0.0
 10
222.9582238631452
 20
-47.10813629359633
 30
0.0
 10
223.9120863756063
 20
-46.73767465071179
 30
0.0
 10
224.8656395943444
 20
-46.34198581504469
 30
0.0
 10
225.495779252595
 20
-46.05774005569281
 30
0.0
 10
225.8123185337449
 20
-45.91495433008887
 30
0.0
  0
SPLINE
  5
90
330
1F
100
AcDbEntity
  8
0
  6
Continuous
 62
     7
370
    25
100
AcDbSpline
210
0.0
220
0.0
230
1.0
 70
     8
 71
     3
 72
    36
 73
    32
 74
     0
 42
0.00000001
 43
0.00000001
 40
0.0
 40
0.0
 40
0.0
 40
0.0
 40
0.0122553003499265
 40
0.0244754718841703
 40
0.0366650018555083
 40
0.0488284114290753
 40
0.0609702509488046
 40
0.0730950950437933
 40
0.0852075375996549
 40
0.097312186621692
 40
0.1094136590180867
 40
0.1215165753323931
 40
0.1336255544552523
 40
0.1457452083455641
 40
0.2176975863327577
 40
0.2899812560088202
 40
0.3566562219068176
 40
0.4236111191195676
 40
0.4911142322937455
 40
0.5585311605576773
 40
0.6255028733095827
 40
0.6927446106501642
 40
0.7517025298852844
 40
0.811380633668316
 40
0.8374740235231577
 40
0.8637969291661389
 40
0.8903831235255549
 40
0.91726538721742
 40
0.9444754308325296
 40
0.9720438338970581
 40
1.0
 40
1.0
 40
1.0
 40
1.0
 10
151.6160846627831
 20
-36.95934774808099
 30
0.0
 10
151.7036014183337
 20
-37.09933473912462
 30
0.0
 10
151.878384069816
 20
-37.37890745995629
 30
0.0
 10
152.1502857497336
 20
-37.79128490059495
 30
0.0
 10
152.4287954117783
 20
-38.19770225455565
 30
0.0
 10
152.7146365901233
 20
-38.59771249641016
 30
0.0
 10
153.0076160317136
 20
-38.99143472865295
 30
0.0
 10
153.3077852565867
 20
-39.37883687062919
 30
0.0
 10
153.6151303994338
 20
-39.75992731553866
 30
0.0
 10
153.9296549431921
 20
-40.13470336456489
 30
0.0
 10
154.2513581280076
 20
-40.50316634651099
 30
0.0
 10
154.5802387621786
 20
-40.86531260637273
 30
0.0
 10
154.9163015421056
 20
-41.22115446818673
 30
0.0
 10
155.8241296381656
 20
-42.14555195363954
 30
0.0
 10
157.4011484630072
 20
-43.54978255941768
 30
0.0
 10
159.7316560471811
 20
-45.18521711349918
 30
0.0
 10
162.1637010871115
 20
-46.52903170687949
 30
0.0
 10
164.6608909788922
 20
-47.59209793922354
 30
0.0
 10
167.2625809363014
 20
-48.39997522938758
 30
0.0
 10
169.9347726370382
 20
-48.9316684987585
 30
0.0
 10
172.6438829866017
 20
-49.18481342895895
 30
0.0
 10
175.2506340410093
 20
-49.15632943539636
 30
0.0
 10
177.7435123089457
 20
-48.89118166122472
 30
0.0
 10
179.6595118991424
 20
-48.51667446039054
 30
0.0
 10
181.1215641666626
 20
-48.13825769665203
 30
0.0
 10
182.1417406631493
 20
-47.83439961784833
 30
0.0
 10
183.1605182580463
 20
-47.49112335031294
 30
0.0
 10
184.1780157690546
 20
-47.10859716069758
 30
0.0
 10
185.1938520682279
 20
-46.68610704387324
 30
0.0
 10
186.2094503058166
 20
-46.22642125729123
 30
0.0
 10
186.8778513921369
 20
-45.89060655150318
 30
0.0
 10
187.2143858681848
 20
-45.72152659580816
 30
0.0
  0
SPLINE
  5
91
330
1F
100
AcDbEntity
  8
0
  6
Continuous
 62
     7
370
    25
100
AcDbSpline
210
0.0
220
0.0
230
1.0
 70
     8
 71
     3
 72
    50
 73
    46
 74
     0
 42
0.00000001
 43
0.00000001
 40
0.0
 40
0.0
 40
0.0
 40
0.0
 40
0.0041198386226721
 40
0.0085631422730812
 40
0.013332451246508
 40
0.0184298184629899
 40
0.0238569245699969
 40
0.0296151615011376
 40
0.0370295361938774
 40
0.0438641315570616
 40
0.0501226576733492
 40
0.0558099521262267
 40
0.0586746327419195
 40
0.0623478534632109
 40
0.0668353401354205
 40
0.0721401825956366
 40
0.0782642336364674
 40
0.0874675991295251
 40
0.0968559430225611
 40
0.1064390742716232
 40
0.1244218754160701
 40
0.1473342902411966
 40
0.1811523081572035
 40
0.2094613625933053
 40
0.221299036674975
 40
0.2334047169071904
 40
0.245784720580693
 40
0.2584449543414795
 40
0.2713909412737322
 40
0.2923536433243833
 40
0.3145697847743114
 40
0.3380472520730153
 40
0.362792725735482
 40
0.4137461279507933
 40
0.4659507707947567
 40
0.5621211228723112
 40
0.6032529003124261
 40
0.6504279291617058
 40
0.7316858708650894
 40
0.8164579306680728
 40
0.8581606448992334
 40
0.8997064417910925
 40
0.9410987735647015
 40
0.9599186182568774
 40
1.0
 40
1.0
 40
1.0
 40
1.0
 10
-3.965910630825353
 20
9.762152821641626
 30
0.0
 10
-3.923458553448195
 20
9.856540722917273
 30
0.0
 10
-3.835221316104032
 20
10.05272729756439
 30
0.0
 10
-3.687574124713655
 20
10.35339290258087
 30
0.0
 10
-3.522778772436674
 20
10.67286997160865
 30
0.0
 10
-3.339898563031907
 20
11.0107520821187
 30
0.0
 10
-3.139188021327705
 20
11.3671536529922
 30
0.0
 10
-2.903881227102167
 20
11.77081144929802
 30
0.0
 10
-2.644075719594158
 20
12.20104545125539
 30
0.0
 10
-2.368857409547565
 20
12.63659997210935
 30
0.0
 10
-2.105544564186046
 20
13.02801415395908
 30
0.0
 10
-1.892480130969515
 20
13.33323017428312
 30
0.0
 10
-1.700617472834537
 20
13.57320426181171
 30
0.0
 10
-1.515486648462322
 20
13.77932383578809
 30
0.0
 10
-1.282982746256711
 20
14.02501259400502
 30
0.0
 10
-1.001685800647578
 20
14.30917182150546
 30
0.0
 10
-0.6321994739235393
 20
14.67262736828077
 30
0.0
 10
-0.1795847262555106
 20
15.09775996659532
 30
0.0
 10
0.3528641579938208
 20
15.56422479834426
 30
0.0
 10
1.070326170965641
 20
16.15348122192102
 30
0.0
 10
2.081696980844205
 20
16.91886676960598
 30
0.0
 10
3.606988486301837
 20
18.01245234438462
 30
0.0
 10
5.358420588499474
 20
19.23545457021577
 30
0.0
 10
6.888029824515613
 20
20.29029309924047
 30
0.0
 10
7.984483682546895
 20
21.01200609899897
 30
0.0
 10
8.759756370392363
 20
21.49332197102448
 30
0.0
 10
9.562956734557066
 20
21.96834624413638
 30
0.0
 10
10.39452580535341
 20
22.43647194466621
 30
0.0
 10
11.42589055176676
 20
22.9886215275736
 30
0.0
 10
12.68273672527329
 20
23.62761994926763
 30
0.0
 10
14.18951655017234
 20
24.35800449717922
 30
0.0
 10
15.79540662819032
 20
25.10113301985289
 30
0.0
 10
18.0727280168739
 20
26.11138941609512
 30
0.0
 10
21.03718837681417
 20
27.35149656678417
 30
0.0
 10
25.70649751563619
 20
29.16001470718403
 30
0.0
 10
30.20861469678318
 20
30.71618639248575
 30
0.0
 10
34.65425891202431
 20
32.02534848435753
 30
0.0
 10
38.76295172605665
 20
33.14904359077256
 30
0.0
 10
43.95424095219555
 20
34.46733112523778
 30
0.0
 10
49.03699376921053
 20
35.64987936522932
 30
0.0
 10
53.16040911166892
 20
36.55074604041055
 30
0.0
 10
56.22552186329577
 20
37.18947420326167
 30
0.0
 10
58.73154568548106
 20
37.6934801222669
 30
0.0
 10
61.20752004259333
 20
38.15899311284685
 30
0.0
 10
62.6619341650943
 20
38.43070364539717
 30
0.0
 10
63.65164068199653
 20
38.61559849798125
 30
0.0
  0
SPLINE
  5
94
330
1F
100
AcDbEntity
  8
0
  6
Continuous
 62
     7
370
    25
100
AcDbSpline
210
0.0
220
0.0
230
1.0
 70
     8
 71
     3
 72
    98
 73
    94
 74
     0
 42
0.00000001
 43
0.00000001
 40
0.0
 40
0.0
 40
0.0
 40
0.0
 40
0.0044808479076722
 40
0.0084240453714913
 40
0.0118303022926566
 40
0.0178375197437177
 40
0.0231632678181361
 40
0.0299832935476674
 40
0.0413803145404275
 40
0.0535198102451287
 40
0.062365194554277
 40
0.0711853598326744
 40
0.0810071319677423
 40
0.0908207635012042
 40
0.1022553019331901
 40
0.1150948265216497
 40
0.1275008752727188
 40
0.1392458376277637
 40
0.1503050544712455
 40
0.1614185089175341
 40
0.1692920122937749
 40
0.1772108058242569
 40
0.1881582206665219
 40
0.1958867199338632
 40
0.201974595887593
 40
0.2114892605365403
 40
0.2194588513924657
 40
0.2282220439635511
 40
0.2367152115850792
 40
0.2496804495389679
 40
0.2642221467299339
 40
0.2812083761750694
 40
0.2970723926615234
 40
0.3117578738934807
 40
0.3491186626174284
 40
0.3586860621314447
 40
0.3655094436344928
 40
0.3715875842478343
 40
0.3785674241249408
 40
0.387545541609111
 40
0.3979688943014214
 40
0.4067025625990268
 40
0.4111450525523055
 40
0.4126071898598361
 40
0.4142772581270851
 40
0.4162917798968422
 40
0.4215870474764714
 40
0.4265613417818047
 40
0.4451794589557782
 40
0.4640743640738938
 40
0.4912012556691728
 40
0.5176540230629365
 40
0.5337245777450672
 40
0.5484909880593766
 40
0.5655296902518366
 40
0.5839427690845708
 40
0.6032335956982722
 40
0.6228707239988011
 40
0.6429824073394435
 40
0.6622451927543209
 40
0.6823207609541594
 40
0.7002689340631103
 40
0.7088672691246989
 40
0.7175898266158459
 40
0.7246091028513675
 40
0.7303135099998483
 40
0.7407390738111037
 40
0.7511121741846977
 40
0.761861553871944
 40
0.7731649911495417
 40
0.7849917522571686
 40
0.7971471858229958
 40
0.8042789552189878
 40
0.8140265248731908
 40
0.8251001091336303
 40
0.8371749585055097
 40
0.8635867917223117
 40
0.8785659330925638
 40
0.8959035420797602
 40
0.9032125961703918
 40
0.9108813493487755
 40
0.9152392404651967
 40
0.9200816269294421
 40
0.9279003871908656
 40
0.9358657636028572
 40
0.9467223272526313
 40
0.9581144171182511
 40
0.9625577058949322
 40
0.9670009946716133
 40
0.9752507460037099
 40
0.9835004973358065
 40
0.9917502486679033
 40
1.0
 40
1.0
 40
1.0
 40
1.0
 10
118.4748260741797
 20
44.59112729508607
 30
0.0
 10
118.7282685286107
 20
44.85675793355587
 30
0.0
 10
119.2047432448209
 20
45.3561465753119
 30
0.0
 10
119.8642843416267
 20
46.06653177369058
 30
0.0
 10
120.5971087482413
 20
46.87938852131521
 30
0.0
 10
121.37952935882
 20
47.79970146654761
 30
0.0
 10
122.3005492919284
 20
48.96814402870947
 30
0.0
 10
123.4096758183276
 20
50.54779703496435
 30
0.0
 10
124.6583066335487
 20
52.70574547810294
 30
0.0
 10
125.6820215330196
 20
55.16313560974565
 30
0.0
 10
126.3421335423949
 20
57.51875929253183
 30
0.0
 10
126.7145609780667
 20
59.74423509661664
 30
0.0
 10
126.8401939431202
 20
62.07803872260545
 30
0.0
 10
126.6687337421179
 20
64.623983753902
 30
0.0
 10
126.1217911279562
 20
67.3721806726522
 30
0.0
 10
125.0935043201324
 20
70.21056858728186
 30
0.0
 10
123.6152673870752
 20
72.8700152501359
 30
0.0
 10
121.8568387025413
 20
75.16930538937153
 30
0.0
 10
119.8708045866413
 20
77.12568723897745
 30
0.0
 10
117.8876319772504
 20
78.59792569167661
 30
0.0
 10
115.9766758689218
 20
79.70332421052241
 30
0.0
 10
113.9815044580593
 20
80.61570017094346
 30
0.0
 10
111.9074653837336
 20
81.30445360020927
 30
0.0
 10
109.9229675362084
 20
81.73644518657966
 30
0.0
 10
108.032024723107
 20
82.02378729022304
 30
0.0
 10
106.1040254875223
 20
82.16908814899965
 30
0.0
 10
103.9535674381431
 20
82.21861622162928
 30
0.0
 10
101.8864787038042
 20
82.17718287062154
 30
0.0
 10
99.41341258155596
 20
82.04831510280692
 30
0.0
 10
96.47236946282293
 20
81.8179314703786
 30
0.0
 10
92.84540778586712
 20
81.44819935114234
 30
0.0
 10
88.98909486695722
 20
80.99218283044151
 30
0.0
 10
85.12633403695506
 20
80.49304640153427
 30
0.0
 10
79.61194383168812
 20
79.74997761060857
 30
0.0
 10
74.60859068946651
 20
79.0776665306894
 30
0.0
 10
70.24291688234311
 20
78.49697463622645
 30
0.0
 10
68.41888773608868
 20
78.24747523637643
 30
0.0
 10
66.80765986043774
 20
78.00740734619923
 30
0.0
 10
65.02434567220261
 20
77.72501843463982
 30
0.0
 10
62.88955870413881
 20
77.3859387372408
 30
0.0
 10
60.61307297072116
 20
77.02285445934832
 30
0.0
 10
58.70405637566562
 20
76.71543724717435
 30
0.0
 10
57.51972717188464
 20
76.52581900556387
 30
0.0
 10
56.90823734745923
 20
76.4196254881168
 30
0.0
 10
56.49349656014662
 20
76.3433312944274
 30
0.0
 10
55.76974733899809
 20
76.21091435017205
 30
0.0
 10
54.77989784335499
 20
76.02860280633699
 30
0.0
 10
52.45372681679233
 20
75.59132742620939
 30
0.0
 10
49.03773607199582
 20
74.92015149386442
 30
0.0
 10
43.85350399289534
 20
73.83602109720935
 30
0.0
 10
38.05880147491561
 20
72.53699384039318
 30
0.0
 10
32.51358623249509
 20
71.18721416474625
 30
0.0
 10
27.9699523445151
 20
70.00808412942202
 30
0.0
 10
24.18599577780989
 20
68.9736177548068
 30
0.0
 10
20.23764403948272
 20
67.81427448072877
 30
0.0
 10
15.97097507808212
 20
66.42879330623227
 30
0.0
 10
11.54409408756488
 20
64.85351065055995
 30
0.0
 10
7.030186739106881
 20
63.11277705596949
 30
0.0
 10
2.564511807036596
 20
61.25752549620506
 30
0.0
 10
-1.878787708374491
 20
59.25977283777402
 30
0.0
 10
-6.094762975982659
 20
57.19405156878351
 30
0.0
 10
-9.449340559380403
 20
55.36284965958104
 30
0.0
 10
-11.92257279751041
 20
53.8674839516644
 30
0.0
 10
-13.5992875134
 20
52.78720178992688
 30
0.0
 10
-15.0535282357282
 20
51.80069882252263
 30
0.0
 10
-16.61287650995175
 20
50.7208761725061
 30
0.0
 10
-18.39803972815005
 20
49.48443554897121
 30
0.0
 10
-20.50271165890078
 20
47.98350844733663
 30
0.0
 10
-22.62492893105517
 20
46.38430196291992
 30
0.0
 10
-24.7745824238309
 20
44.62656100748555
 30
0.0
 10
-26.92510850397753
 20
42.69237528197106
 30
0.0
 10
-28.73145375786929
 20
40.89206220091592
 30
0.0
 10
-30.35948702539637
 20
39.15698716862622
 30
0.0
 10
-31.8433165661175
 20
37.41038171127455
 30
0.0
 10
-33.4545505923908
 20
35.24737550533875
 30
0.0
 10
-35.6984319480993
 20
31.86184034495044
 30
0.0
 10
-37.86255705328054
 20
28.04164477369546
 30
0.0
 10
-39.83936990491216
 20
23.65082317955685
 30
0.0
 10
-40.88936146301736
 20
20.56916898392447
 30
0.0
 10
-41.50387100029596
 20
17.99255962696529
 30
0.0
 10
-41.79350433417026
 20
16.43434634564818
 30
0.0
 10
-42.00216884730107
 20
15.06797697550164
 30
0.0
 10
-42.19301490727189
 20
13.68660233340049
 30
0.0
 10
-42.3948935166516
 20
12.00852476841899
 30
0.0
 10
-42.60825811247049
 20
9.836020071992554
 30
0.0
 10
-42.78998744997814
 20
7.366765608893126
 30
0.0
 10
-42.89014222627291
 20
5.181844674851583
 30
0.0
 10
-42.94679827513171
 20
3.52128673613706
 30
0.0
 10
-42.99502161940755
 20
2.118048762282417
 30
0.0
 10
-43.05566149973189
 20
0.4031741377238298
 30
0.0
 10
-43.12662153946039
 20
-1.62341353847199
 30
0.0
 10
-43.19776863464531
 20
-3.649994397566643
 30
0.0
 10
-43.24516885552576
 20
-5.001049439813335
 30
0.0
 10
-43.26886896596604
 20
-5.67657696093668
 30
0.0
  0
SPLINE
  5
95
330
1F
100
AcDbEntity
  8
0
  6
Continuous
 62
     7
370
    25
100
AcDbSpline
210
0.0
220
0.0
230
1.0
 70
     8
 71
     3
 72
    25
 73
    21
 74
     0
 42
0.00000001
 43
0.00000001
 40
0.0
 40
0.0
 40
0.0
 40
0.0
 40
0.0887269994181516
 40
0.1674263885828954
 40
0.2375821852077499
 40
0.3006837231869331
 40
0.3582279920478219
 40
0.4117213803513304
 40
0.4626795983496293
 40
0.5126247492316147
 40
0.5630797419584862
 40
0.6154086464752062
 40
0.6702968728580223
 40
0.6988537665164756
 40
0.7282325033579321
 40
0.7584926127557576
 40
0.7896934637536757
 40
0.8551551107628921
 40
0.925095626127284
 40
1.0
 40
1.0
 40
1.0
 40
1.0
 10
113.1940397577673
 20
38.36994227906874
 30
0.0
 10
113.3295010478022
 20
38.57057123500627
 30
0.0
 10
113.5851142741261
 20
38.9491547750567
 30
0.0
 10
113.9510401567221
 20
39.48420222697758
 30
0.0
 10
114.2815132428502
 20
39.95877478916879
 30
0.0
 10
114.5844299553345
 20
40.38216206565718
 30
0.0
 10
114.867567876335
 20
40.76372818758721
 30
0.0
 10
115.1387428645153
 20
41.11279622642493
 30
0.0
 10
115.4057490784281
 20
41.43868089551553
 30
0.0
 10
115.6763390498364
 20
41.75070574174556
 30
0.0
 10
115.9579387810565
 20
42.05791743829227
 30
0.0
 10
116.2563127813288
 20
42.36784811873308
 30
0.0
 10
116.5175182398999
 20
42.63053103313106
 30
0.0
 10
116.7359825323817
 20
42.84739012011603
 30
0.0
 10
116.907224975478
 20
43.0164406131651
 30
0.0
 10
117.0838012593188
 20
43.19035535381526
 30
0.0
 10
117.3304625682446
 20
43.43340671723751
 30
0.0
 10
117.6533667589791
 20
43.75332616951383
 30
0.0
 10
118.0582098300349
 20
44.15996361742844
 30
0.0
 10
118.3328170477498
 20
44.4441595880977
 30
0.0
 10
118.4748260741795
 20
44.59112729508584
 30
0.0
  0
SPLINE
  5
96
330
1F
100
AcDbEntity
  8
0
  6
Continuous
 62
     7
370
    25
100
AcDbSpline
210
0.0
220
0.0
230
1.0
 70
     8
 71
     3
 72
    66
 73
    62
 74
     0
 42
0.00000001
 43
0.00000001
 40
0.0
 40
0.0
 40
0.0
 40
0.0
 40
0.0060423971476206
 40
0.0121562275429069
 40
0.0183420655755069
 40
0.0246004658087359
 40
0.0309319637392005
 40
0.0559237905853187
 40
0.0819058453869476
 40
0.0965458352363208
 40
0.1113205893405728
 40
0.1694580021120314
 40
0.1905819985146717
 40
0.212155554822163
 40
0.2528948744188096
 40
0.2922082005196646
 40
0.3315691114120723
 40
0.3725050135051015
 40
0.3944003267114252
 40
0.4148858692350674
 40
0.4537782901684894
 40
0.4858459744082813
 40
0.49771588723723
 40
0.507939692929026
 40
0.5116835738465716
 40
0.5151951893685471
 40
0.5198024301836912
 40
0.5285792259745662
 40
0.5351129014790108
 40
0.5418128545303416
 40
0.5517633514326669
 40
0.5573947804992585
 40
0.562993305084575
 40
0.56649404310016
 40
0.5704971309010197
 40
0.5817667584726816
 40
0.5961213353512718
 40
0.6124509532095518
 40
0.6303840143897101
 40
0.6500741053316255
 40
0.6684637339363346
 40
0.6860978443849126
 40
0.7200307235859988
 40
0.7555741724775104
 40
0.7948653569060239
 40
0.8351246408853941
 40
0.8538473202100225
 40
0.8714856103785981
 40
0.8862181198918283
 40
0.8997801829997049
 40
0.9121814886333576
 40
0.9255466347159989
 40
0.9412991939358771
 40
0.9610551200754553
 40
0.9723071807747972
 40
0.9793633534934332
 40
0.9838965169151139
 40
0.9887042959506457
 40
0.99265551011843
 40
0.9962997219180321
 40
1.0
 40
1.0
 40
1.0
 40
1.0
 10
144.0385119740281
 20
36.00125750312954
 30
0.0
 10
143.9721474545354
 20
35.77141658999271
 30
0.0
 10
143.8386338538866
 20
35.30901758335655
 30
0.0
 10
143.6284650949915
 20
34.61388471848593
 30
0.0
 10
143.4096044666549
 20
33.91248590697746
 30
0.0
 10
143.1814242724377
 20
33.20499784537108
 30
0.0
 10
142.7117148342377
 20
31.79314787407776
 30
0.0
 10
141.9500449248967
 20
29.65555237580263
 30
0.0
 10
141.0049262925582
 20
27.23543349941911
 30
0.0
 10
140.1629570252909
 20
25.21013601835978
 30
0.0
 10
138.7829168953724
 20
22.0303279237762
 30
0.0
 10
137.1710462585578
 20
18.67099262479786
 30
0.0
 10
135.2951250943772
 20
15.14679440630943
 30
0.0
 10
133.686724679392
 20
12.26121155537235
 30
0.0
 10
131.6258409133538
 20
8.803990896026589
 30
0.0
 10
129.011362042109
 20
4.862446422896957
 30
0.0
 10
126.185416834852
 20
1.059606571219285
 30
0.0
 10
123.597716150574
 20
-2.053161059462818
 30
0.0
 10
121.3959087900032
 20
-4.509858760406965
 30
0.0
 10
119.1808392696953
 20
-6.844319770325486
 30
0.0
 10
116.5615007500873
 20
-9.348317131347025
 30
0.0
 10
113.9715520229783
 20
-11.37651728222804
 30
0.0
 10
112.1439973334257
 20
-12.50118200917855
 30
0.0
 10
111.2298182826599
 20
-12.96479687165981
 30
0.0
 10
110.5867512531543
 20
-13.22149765152069
 30
0.0
 10
110.1395528368372
 20
-13.36637479287432
 30
0.0
 10
109.4874194608553
 20
-13.51864825668619
 30
0.0
 10
108.6938441856945
 20
-13.57953529735356
 30
0.0
 10
107.8235809820219
 20
-13.43298081105776
 30
0.0
 10
106.9988306048932
 20
-13.00611263163121
 30
0.0
 10
106.3229554452962
 20
-12.42665208665635
 30
0.0
 10
105.7821851808606
 20
-11.78381590273125
 30
0.0
 10
105.4627198655779
 20
-11.29386346699444
 30
0.0
 10
105.2236330495717
 20
-10.83315925264864
 30
0.0
 10
104.9173145700441
 20
-10.15564706217183
 30
0.0
 10
104.5156876074152
 20
-9.051627205148364
 30
0.0
 10
104.073736208587
 20
-7.449063486609877
 30
0.0
 10
103.6841613247866
 20
-5.562951213518342
 30
0.0
 10
103.3572066899784
 20
-3.451359849574842
 30
0.0
 10
103.106565521511
 20
-1.247431374865118
 30
0.0
 10
102.930992361186
 20
0.9518408205631059
 30
0.0
 10
102.8171353201869
 20
3.719818585160356
 30
0.0
 10
102.8899544088965
 20
7.172263847785128
 30
0.0
 10
103.3413127537688
 20
11.45919009725254
 30
0.0
 10
104.1390836034252
 20
15.94851608375077
 30
0.0
 10
105.0277977449176
 20
19.73844155696332
 30
0.0
 10
105.8375389809253
 20
22.66220658435681
 30
0.0
 10
106.4331586933046
 20
24.59576493377641
 30
0.0
 10
107.0236198064365
 20
26.31610738654643
 30
0.0
 10
107.6010958865539
 20
27.82079400955355
 30
0.0
 10
108.2233583781878
 20
29.24860835729982
 30
0.0
 10
108.9365418389705
 20
30.73000782488978
 30
0.0
 10
109.8311961789897
 20
32.44597356111874
 30
0.0
 10
110.7155283680995
 20
34.0724836865967
 30
0.0
 10
111.4466728365791
 20
35.39026732733358
 30
0.0
 10
111.8870935897951
 20
36.18010129223989
 30
0.0
 10
112.2043757679436
 20
36.74647577093145
 30
0.0
 10
112.465770420885
 20
37.20324103166948
 30
0.0
 10
112.7156602871923
 20
37.62599168476709
 30
0.0
 10
112.9519694662192
 20
38.00575366833487
 30
0.0
 10
113.1129400554405
 20
38.2479298349459
 30
0.0
 10
113.1940397577673
 20
38.36994227906874
 30
0.0
  0
SPLINE
  5
97
330
1F
100
AcDbEntity
  8
0
  6
Continuous
 62
     7
370
    25
100
AcDbSpline
210
0.0
220
0.0
230
1.0
 70
     8
 71
     3
 72
    26
 73
    22
 74
     0
 42
0.00000001
 43
0.00000001
 40
0.0
 40
0.0
 40
0.0
 40
0.0
 40
0.029732970006555
 40
0.0593698087042104
 40
0.1183102639657225
 40
0.1767549715718397
 40
0.2346820712124341
 40
0.2921308957778489
 40
0.3492188231401738
 40
0.4061576462003418
 40
0.4632676039565213
 40
0.5209864641157845
 40
0.5798708189766733
 40
0.6405875744757906
 40
0.7038956379086946
 40
0.7706204170619302
 40
0.8416256730192228
 40
0.8921120945566711
 40
0.9444864746132716
 40
0.9719550666810015
 40
1.0
 40
1.0
 40
1.0
 40
1.0
 10
140.4658230177101
 20
46.30352098596523
 30
0.0
 10
140.5491170314608
 20
46.22370822223999
 30
0.0
 10
140.7154357564819
 20
46.06434074184778
 30
0.0
 10
141.0442358452021
 20
45.74402921398845
 30
0.0
 10
141.4474495340055
 20
45.3404710470413
 30
0.0
 10
141.9147141744064
 20
44.84602381248363
 30
0.0
 10
142.3594835826409
 20
44.33881444055728
 30
0.0
 10
142.7766353493802
 20
43.81524010559659
 30
0.0
 10
143.1610294119096
 20
43.27170047917142
 30
0.0
 10
143.507458223234
 20
42.7045808326753
 30
0.0
 10
143.8106420680223
 20
42.11028869133879
 30
0.0
 10
144.065231515653
 20
41.48529241174894
 30
0.0
 10
144.2658402357989
 20
40.82616106209625
 30
0.0
 10
144.4071045874554
 20
40.12958264169304
 30
0.0
 10
144.4837421503238
 20
39.39233509036555
 30
0.0
 10
144.4906080245067
 20
38.61125191349272
 30
0.0
 10
144.4307739073401
 20
37.88247426209827
 30
0.0
 10
144.3287495987843
 20
37.21534998463581
 30
0.0
 10
144.2254259723669
 20
36.72012268873532
 30
0.0
 10
144.1254604498383
 20
36.31359315799916
 30
0.0
 10
144.0676947072194
 20
36.10608749580344
 30
0.0
 10
144.0385119740281
 20
36.00125750312954
 30
0.0
  0
SPLINE
  5
9C
330
1F
100
AcDbEntity
  8
0
  6
Continuous
 62
     7
370
    25
100
AcDbSpline
210
0.0
220
0.0
230
1.0
 70
     8
 71
     3
 72
    53
 73
    49
 74
     0
 42
0.00000001
 43
0.00000001
 40
0.0
 40
0.0
 40
0.0
 40
0.0
 40
0.0075366195976001
 40
0.0150685838402263
 40
0.0225965708650433
 40
0.0301212598845156
 40
0.0376433310044973
 40
0.045163465041115
 40
0.0526823433366904
 40
0.0602006475749473
 40
0.0677190595957568
 40
0.0752382612096685
 40
0.082758934012483
 40
0.0902817592001153
 40
0.097807417384002
 40
0.1324783312650777
 40
0.1662437578243212
 40
0.1992023420614959
 40
0.2245352496395852
 40
0.2502283944689997
 40
0.2774494992986621
 40
0.3036025366233412
 40
0.3727142845121282
 40
0.4350628184502791
 40
0.4601373929746491
 40
0.485107988245206
 40
0.5101596894154733
 40
0.547336295425482
 40
0.584302721258723
 40
0.6218769697911781
 40
0.6592257700751775
 40
0.695961911652415
 40
0.7329027757104205
 40
0.7683638300232292
 40
0.803751332976437
 40
0.8396093249813505
 40
0.8764610148891337
 40
0.8867351401814372
 40
0.8971764721806832
 40
0.9077938925106999
 40
0.9185958484520681
 40
0.9295903619476042
 40
0.9407850409960188
 40
0.9521870929227448
 40
0.9638033390647537
 40
0.9756402304587372
 40
0.9877038641759645
 40
1.0
 40
1.0
 40
1.0
 40
1.0
 10
69.12805346422604
 20
33.91880585387235
 30
0.0
 10
69.02099089973207
 20
33.55660897716121
 30
0.0
 10
68.80693190307774
 20
32.83243895203114
 30
0.0
 10
68.49900450425505
 20
31.74269033139822
 30
0.0
 10
68.20085580620777
 20
30.65085865933931
 30
0.0
 10
67.91342046705967
 20
29.55666490102816
 30
0.0
 10
67.63644823761896
 20
28.46018380249894
 30
0.0
 10
67.37000617645239
 20
27.36139537276949
 30
0.0
 10
67.1140762098355
 20
26.260305030199
 30
0.0
 10
66.86866365454125
 20
25.15691124270874
 30
0.0
 10
66.63376535542915
 20
24.05121488332649
 30
0.0
 10
66.40938865597063
 20
22.94321415446905
 30
0.0
 10
66.1955073627141
 20
21.83291553927033
 30
0.0
 10
65.99221896713364
 20
20.72029505924606
 30
0.0
 10
65.56707300841336
 20
18.26522140569504
 30
0.0
 10
65.02760452789849
 20
14.49503514389738
 30
0.0
 10
64.57438522806818
 20
9.431620674987732
 30
0.0
 10
64.41941609463456
 20
4.818339854189908
 30
0.0
 10
64.49217062461699
 20
0.6089168125574581
 30
0.0
 10
64.72541384395464
 20
-3.306375857710216
 30
0.0
 10
65.11675878584622
 20
-7.250643206449622
 30
0.0
 10
65.97243949626011
 20
-13.32949314294671
 30
0.0
 10
67.76092015163276
 20
-21.05515418836606
 30
0.0
 10
70.84691412007548
 20
-28.32572919192373
 30
0.0
 10
73.80265682025767
 20
-33.12771426589247
 30
0.0
 10
76.04528772430157
 20
-36.15596439631998
 30
0.0
 10
78.94256234106712
 20
-39.43358246254437
 30
0.0
 10
82.61815939177473
 20
-42.80184834265925
 30
0.0
 10
87.21541727129404
 20
-46.02385475956236
 30
0.0
 10
92.20279411815669
 20
-48.62401549055559
 30
0.0
 10
97.49078256865597
 20
-50.50717971421953
 30
0.0
 10
102.9516292560762
 20
-51.65697958311896
 30
0.0
 10
108.4224420049784
 20
-52.05509132602941
 30
0.0
 10
113.8300649312287
 20
-51.7684492885537
 30
0.0
 10
119.1070164014142
 20
-50.81992290645626
 30
0.0
 10
124.2917343170354
 20
-49.20599311258822
 30
0.0
 10
128.0976456042064
 20
-47.50478696948689
 30
0.0
 10
130.6431113300906
 20
-46.14679107574739
 30
0.0
 10
132.0061213346272
 20
-45.36669118118222
 30
0.0
 10
133.3687359307495
 20
-44.53409644892074
 30
0.0
 10
134.7309893694429
 20
-43.64893253224174
 30
0.0
 10
136.0928734061598
 20
-42.71122166334617
 30
0.0
 10
137.4544038885206
 20
-41.72097182524708
 30
0.0
 10
138.8155432019007
 20
-40.67814441802231
 30
0.0
 10
140.176448450146
 20
-39.58290431150866
 30
0.0
 10
141.5365321070923
 20
-38.43462570323271
 30
0.0
 10
142.8980644487686
 20
-37.23571861648011
 30
0.0
 10
143.7922476680085
 20
-36.40458431338842
 30
0.0
 10
144.2436065487533
 20
-35.98505077627841
 30
0.0
  0
SPLINE
  5
A0
330
1F
100
AcDbEntity
  8
0
  6
Continuous
 62
     7
370
    25
100
AcDbSpline
210
0.0
220
0.0
230
1.0
 70
     8
 71
     3
 72
    18
 73
    14
 74
     0
 42
0.00000001
 43
0.00000001
 40
0.0
 40
0.0
 40
0.0
 40
0.0
 40
0.2051894316232463
 40
0.4103788632464926
 40
0.5172733746917454
 40
0.6241678861369976
 40
0.6814520649430712
 40
0.7375154864355397
 40
0.7923709248488814
 40
0.8460320171199063
 40
0.8985133312235072
 40
0.9498304398958008
 40
1.0
 40
1.0
 40
1.0
 40
1.0
 10
-4.892543530092746
 20
-7.023143275280503
 30
0.0
 10
-4.852155329465758
 20
-5.873428792258793
 30
0.0
 10
-4.771378928211806
 20
-3.573999826215375
 30
0.0
 10
-4.670173634894692
 20
-0.6756010565414916
 30
0.0
 10
-4.586693098727918
 20
1.671979923519255
 30
0.0
 10
-4.536329656682215
 20
3.190951487067871
 30
0.0
 10
-4.486809342629988
 20
4.424807014552157
 30
0.0
 10
-4.432785997915745
 20
5.366359074338401
 30
0.0
 10
-4.36630316134512
 20
6.286733807750926
 30
0.0
 10
-4.286713205826937
 20
7.185922542643135
 30
0.0
 10
-4.193784966377096
 20
8.063868127005936
 30
0.0
 10
-4.089016442218179
 20
8.920804687029031
 30
0.0
 10
-4.006635396629349
 20
9.483825540793012
 30
0.0
 10
-3.965910630825686
 20
9.762152821640488
 30
0.0
  0
SPLINE
  5
A2
330
1F
100
AcDbEntity
  8
0
  6
Continuous
 62
     7
370
    25
100
AcDbSpline
210
0.0
220
0.0
230
1.0
 70
     8
 71
     3
 72
    26
 73
    22
 74
     0
 42
0.00000001
 43
0.00000001
 40
0.0
 40
0.0
 40
0.0
 40
0.0
 40
0.031722341210134
 40
0.0636327586762692
 40
0.0957431659861676
 40
0.128065255585785
 40
0.1606104917701719
 40
0.1933901047063067
 40
0.2264150854621201
 40
0.2596961820085768
 40
0.2932438961554553
 40
0.3270684813762766
 40
0.3611799414736407
 40
0.395588030033182
 40
0.5246239292789984
 40
0.6495389461190086
 40
0.7170072598210934
 40
0.7856931927771154
 40
0.8556937475522999
 40
0.9271005693705656
 40
1.0
 40
1.0
 40
1.0
 40
1.0
 10
178.2852599580823
 20
66.05791187505388
 30
0.0
 10
178.1820147481252
 20
66.19334104952804
 30
0.0
 10
177.9749122052783
 20
66.46500233454974
 30
0.0
 10
177.6532711331745
 20
66.8659465530534
 30
0.0
 10
177.3225069668835
 20
67.26356240066028
 30
0.0
 10
176.9818783960853
 20
67.65729110601328
 30
0.0
 10
176.6315862603016
 20
68.04728388291073
 30
0.0
 10
176.2715764556924
 20
68.43349982576702
 30
0.0
 10
175.9018640271315
 20
68.81595027453092
 30
0.0
 10
175.5224446868334
 20
69.19463158303765
 30
0.0
 10
175.1333216090034
 20
69.56954740813
 30
0.0
 10
174.7344874672476
 20
69.94068724347767
 30
0.0
 10
174.3259697440232
 20
70.30809052358444
 30
0.0
 10
173.5254732865614
 20
71.00374505068399
 30
0.0
 10
172.319878103631
 20
71.97622428114106
 30
0.0
 10
170.9127656513473
 20
72.97698149103174
 30
0.0
 10
169.728738207618
 20
73.7273482644065
 30
0.0
 10
168.7714439249197
 20
74.28318121584809
 30
0.0
 10
167.7755014935657
 20
74.81280169362876
 30
0.0
 10
166.7420645811117
 20
75.31904898109362
 30
0.0
 10
166.0324122622989
 20
75.6298550428908
 30
0.0
 10
165.6739160148474
 20
75.78686546036666
 30
0.0
  0
SPLINE
  5
A4
330
1F
100
AcDbEntity
  8
0
  6
Continuous
 62
     7
370
    25
100
AcDbSpline
210
0.0
220
0.0
230
1.0
 70
     8
 71
     3
 72
    21
 73
    17
 74
     0
 42
0.00000001
 43
0.00000001
 40
0.0
 40
0.0
 40
0.0
 40
0.0
 40
0.1025964674860759
 40
0.1422057904963639
 40
0.2165025817358693
 40
0.2800909359229197
 40
0.4200530601361789
 40
0.5383339917774493
 40
0.6617061810648927
 40
0.7722012784471367
 40
0.8110754669324252
 40
0.8493346685291433
 40
0.8871638649303919
 40
0.9247543864887188
 40
0.9623012124372176
 40
1.0
 40
1.0
 40
1.0
 40
1.0
 10
165.6349826671732
 20
75.80350140131353
 30
0.0
 10
165.1868048823812
 20
75.99474339093791
 30
0.0
 10
164.5655995160471
 20
76.25981799805658
 30
0.0
 10
163.6202282151271
 20
76.66429746156764
 30
0.0
 10
162.841748885449
 20
76.98782635251416
 30
0.0
 10
161.6172593685537
 20
77.47978863503656
 30
0.0
 10
160.1801918446033
 20
78.00301197506728
 30
0.0
 10
158.4377379781902
 20
78.50877883944582
 30
0.0
 10
156.7869631799853
 20
78.80334028460668
 30
0.0
 10
155.4858053268178
 20
78.84566272732877
 30
0.0
 10
154.5979615344601
 20
78.76227452692645
 30
0.0
 10
154.0586989007106
 20
78.6739698523138
 30
0.0
 10
153.5328425611277
 20
78.54942187493333
 30
0.0
 10
153.0208510143686
 20
78.38781639029106
 30
0.0
 10
152.5211595034362
 20
78.19221289212882
 30
0.0
 10
152.2014758840911
 20
78.03212341175531
 30
0.0
 10
152.0413112673033
 20
77.95191701792037
 30
0.0
  0
LINE
  5
A5
330
1F
100
AcDbEntity
  8
0
  6
Continuous
 62
     7
370
    25
100
AcDbLine
 10
212.1086710466
 20
46.0709124022
 30
0.0
 11
189.7767022149
 21
64.2567081808
 31
0.0
  0
LINE
  5
A6
330
1F
100
AcDbEntity
  8
0
  6
Continuous
 62
     7
370
    25
100
AcDbLine
 10
203.3111043621
 20
27.6660546183
 30
0.0
 11
212.7996998887
 21
39.3179516338
 31
0.0
  0
LINE
  5
A7
330
1F
100
AcDbEntity
  8
0
  6
Continuous
 62
     7
370
    25
100
AcDbLine
 10
219.4316796984
 20
38.6773197159
 30
0.0
 11
221.2069993028
 21
29.3962469512
 31
0.0
  0
LINE
  5
A8
330
1F
100
AcDbEntity
  8
0
  6
Continuous
 62
     7
370
    25
100
AcDbLine
 10
234.4734757156
 20
46.441598759
 30
0.0
 11
223.2443910736
 21
44.2936558855
 31
0.0
  0
LINE
  5
A9
330
1F
100
AcDbEntity
  8
0
  6
Continuous
 62
     7
370
    25
100
AcDbLine
 10
282.6571809982
 20
58.2176326122
 30
0.0
 11
255.0873853156
 21
72.5960306931
 31
0.0
  0
LINE
  5
AA
330
1F
100
AcDbEntity
  8
0
  6
Continuous
 62
     7
370
    25
100
AcDbLine
 10
289.4768428903
 20
32.2544225193
 30
0.0
 11
285.1520969803
 21
54.863467888
 31
0.0
  0
LINE
  5
AB
330
1F
100
AcDbEntity
  8
0
  6
Continuous
 62
     7
370
    25
100
AcDbLine
 10
327.7914358001
 20
63.5656793386
 30
0.0
 11
299.9529382266
 21
29.3802926942
 31
0.0
  0
LINE
  5
AC
330
1F
100
AcDbEntity
  8
0
  6
Continuous
 62
     7
370
    25
100
AcDbLine
 10
356.9188821672
 20
46.0362893356
 30
0.0
 11
334.5443965685
 21
64.2567081808
 31
0.0
  0
LINE
  5
AD
330
1F
100
AcDbEntity
  8
0
  6
Continuous
 62
     7
370
    25
100
AcDbLine
 10
457.4196221576
 20
-3.7454758127
 30
0.0
 11
441.1735284924
 21
6.4870429696
 31
0.0
  0
LINE
  5
AE
330
1F
100
AcDbEntity
  8
0
  6
Continuous
 62
     7
370
    25
100
AcDbLine
 10
-38.6401384663
 20
-10.641942345
 30
0.0
 11
-9.8579079692
 21
-11.6518451695
 31
0.0
  0
LINE
  5
AF
330
1F
100
AcDbEntity
  8
0
  6
Continuous
 62
     7
370
    25
100
AcDbLine
 10
149.8822121206
 20
75.6328645819
 30
0.0
 11
139.3861546806
 21
51.7018536187
 31
0.0
  0
LINE
  5
B0
330
1F
100
AcDbEntity
  8
0
  6
Continuous
 62
     7
370
    25
100
AcDbLine
 10
63.651640682
 20
38.615598498
 30
0.0
 11
64.8383738543
 21
38.8085923621
 31
0.0
  0
LINE
  5
B1
330
1F
100
AcDbEntity
  8
0
  6
Continuous
 62
     7
370
    25
100
AcDbLine
 10
165.6739160148
 20
75.7868654604
 30
0.0
 11
165.6349826672
 21
75.8035014013
 31
0.0
  0
ARC
  5
B2
330
1F
100
AcDbEntity
  8
0
  6
Continuous
 62
     7
370
    25
100
AcDbCircle
 10
186.7457362518
 20
60.5347133755
 30
0.0
 40
4.799999999999935
100
AcDbArc
 50
50.8427260963
 51
118.812848173
  0
ARC
  5
B3
330
1F
100
AcDbEntity
  8
0
  6
Continuous
 62
     7
370
    25
100
AcDbCircle
 10
209.0777050835
 20
42.3489175969
 30
0.0
 40
4.799999999999984
100
AcDbArc
 50
320.8427260963
 51
50.8427260963
  0
ARC
  5
B4
330
1F
100
AcDbEntity
  8
0
  6
Continuous
 62
     7
370
    25
100
AcDbCircle
 10
224.1462034708
 20
39.5791321131
 30
0.0
 40
4.800000000000005
100
AcDbArc
 50
100.8289481947
 51
190.8289481947
  0
ARC
  5
B5
330
1F
100
AcDbEntity
  8
0
  6
Continuous
 62
     7
370
    25
100
AcDbCircle
 10
233.5716633184
 20
51.1561225314
 30
0.0
 40
4.800000000000018
100
AcDbArc
 50
280.8289481947
 51
335.7505782437
  0
ARC
  5
B6
330
1F
100
AcDbEntity
  8
0
  6
Continuous
 62
     7
370
    25
100
AcDbCircle
 10
252.8677775253
 20
68.3400535718
 30
0.0
 40
4.800000000000102
100
AcDbArc
 50
62.4567342619
 51
152.4567342621
  0
ARC
  5
B7
330
1F
100
AcDbEntity
  8
0
  6
Continuous
 62
     7
370
    25
100
AcDbCircle
 10
280.437573208
 20
53.9616554909
 30
0.0
 40
4.799999999999943
100
AcDbArc
 50
10.8289481947
 51
62.4567342619
  0
ARC
  5
B8
330
1F
100
AcDbEntity
  8
0
  6
Continuous
 62
     7
370
    25
100
AcDbCircle
 10
294.1913666626
 20
33.1562349165
 30
0.0
 40
4.799999999999927
100
AcDbArc
 50
190.8289481947
 51
251.820897585
  0
ARC
  5
B9
330
1F
100
AcDbEntity
  8
0
  6
Continuous
 62
     7
370
    25
100
AcDbCircle
 10
296.2309434214
 20
32.4112586573
 30
0.0
 40
4.79999999999975
100
AcDbArc
 50
248.0550911696
 51
320.8427260963
  0
ARC
  5
BA
330
1F
100
AcDbEntity
  8
0
  6
Continuous
 62
     7
370
    25
100
AcDbCircle
 10
331.5134306054
 20
60.5347133755
 30
0.0
 40
4.800000000000074
100
AcDbArc
 50
50.8427260963
 51
140.8427260963
  0
ARC
  5
BB
330
1F
100
AcDbEntity
  8
0
  6
Continuous
 62
     7
370
    25
100
AcDbCircle
 10
353.8879162041
 20
42.3142945303
 30
0.0
 40
4.799999999999999
100
AcDbArc
 50
326.9693580706
 51
50.8427260963
  0
ARC
  5
BC
330
1F
100
AcDbEntity
  8
0
  6
Continuous
 62
     7
370
    25
100
AcDbCircle
 10
361.9363562714
 20
37.0814547197
 30
0.0
 40
4.800000000000145
100
AcDbArc
 50
146.9693580706
 51
226.4884108853
  0
ARC
  5
BD
330
1F
100
AcDbEntity
  8
0
  6
Continuous
 62
     7
370
    25
100
AcDbCircle
 10
365.0559494936
 20
33.6674424693
 30
0.0
 40
4.800000000000161
100
AcDbArc
 50
218.3794597856
 51
281.7250872853
  0
ARC
  5
BE
330
1F
100
AcDbEntity
  8
0
  6
Continuous
 62
     7
370
    25
100
AcDbCircle
 10
388.1024575383
 20
26.3982493051
 30
0.0
 40
4.800000000000278
100
AcDbArc
 50
222.8766545482
 51
306.3993401194
  0
ARC
  5
BF
330
1F
100
AcDbEntity
  8
0
  6
Continuous
 62
     7
370
    25
100
AcDbCircle
 10
443.4358677776
 20
10.7204601424
 30
0.0
 40
4.800000000000436
100
AcDbArc
 50
194.3810426966
 51
241.8799407824
  0
ARC
  5
C0
330
1F
100
AcDbEntity
  8
0
  6
Continuous
 62
     7
370
    25
100
AcDbCircle
 10
454.8614924621
 20
-7.806999229
 30
0.0
 40
4.800000000000025
100
AcDbArc
 50
327.7954355268
 51
57.7954355173
  0
ARC
  5
C1
330
1F
100
AcDbEntity
  8
0
  6
Continuous
 62
     7
370
    25
100
AcDbCircle
 10
388.7253967106
 20
-50.6857497647
 30
0.0
 40
4.800000000000147
100
AcDbArc
 50
66.859663255
 51
117.2224038006
  0
ARC
  5
C2
330
1F
100
AcDbEntity
  8
0
  6
Continuous
 62
     7
370
    25
100
AcDbCircle
 10
346.0256791139
 20
-41.8420366078
 30
0.0
 40
4.800000000000344
100
AcDbArc
 50
37.9479615548
 51
133.6156247023
  0
ARC
  5
C3
330
1F
100
AcDbEntity
  8
0
  6
Continuous
 62
     7
370
    25
100
AcDbCircle
 10
298.0689440885
 20
-46.0210154442
 30
0.0
 40
4.80000000000026
100
AcDbArc
 50
48.3812903518
 51
128.1214884881
  0
ARC
  5
C4
330
1F
100
AcDbEntity
  8
0
  6
Continuous
 62
     7
370
    25
100
AcDbCircle
 10
258.7627020865
 20
-51.2011940179
 30
0.0
 40
4.800000000000035
100
AcDbArc
 50
65.6067046941
 51
117.1167168454
  0
ARC
  5
C5
330
1F
100
AcDbEntity
  8
0
  6
Continuous
 62
     7
370
    25
100
AcDbCircle
 10
227.8156810298
 20
-50.2768964101
 30
0.0
 40
4.799999999999923
100
AcDbArc
 50
58.6500097202
 51
114.6684782144
  0
ARC
  5
C6
330
1F
100
AcDbEntity
  8
0
  6
Continuous
 62
     7
370
    25
100
AcDbCircle
 10
189.4076414103
 20
-49.9911436895
 30
0.0
 40
4.799999999999945
100
AcDbArc
 50
62.9225688408
 51
117.1890692435
  0
ARC
  5
C7
330
1F
100
AcDbEntity
  8
0
  6
Continuous
 62
     7
370
    25
100
AcDbCircle
 10
-38.4718209937
 20
-5.8448943748
 30
0.0
 40
4.80000000000001
100
AcDbArc
 50
177.9904468888
 51
267.990446187
  0
ARC
  5
C8
330
1F
100
AcDbEntity
  8
0
  6
Continuous
 62
     7
370
    25
100
AcDbCircle
 10
143.7819380828
 20
49.7738784423
 30
0.0
 40
4.800000000000085
100
AcDbArc
 50
156.3179122755
 51
226.3019896268
  0
ARC
  5
C9
330
1F
100
AcDbEntity
  8
0
  6
Continuous
 62
     7
370
    25
100
AcDbCircle
 10
154.2779955228
 20
73.7048894054
 30
0.0
 40
4.79999999999992
100
AcDbArc
 50
117.7733980506
 51
156.3179122755
  0
ARC
  5
CA
330
1F
100
AcDbEntity
  8
0
  6
Continuous
 62
     7
370
    25
100
AcDbCircle
 10
65.4485518081
 20
35.0173810959
 30
0.0
 40
3.839999999999977
100
AcDbArc
 50
343.3761471515
 51
99.1430835915
  0
ARC
  5
CB
330
1F
100
AcDbEntity
  8
0
  6
Continuous
 62
     7
370
    25
100
AcDbCircle
 10
147.5321506662
 20
-39.4815458195
 30
0.0
 40
4.800000000000029
100
AcDbArc
 50
31.6990760974
 51
133.2445227495
  0
ARC
  5
CC
330
1F
100
AcDbEntity
  8
0
  6
Continuous
 62
     7
370
    25
100
AcDbCircle
 10
-9.6895904966
 20
-6.8547971993
 30
0.0
 40
4.799999999999989
100
AcDbArc
 50
267.990446187
 51
357.9901045493
  0
ARC
  5
CD
330
1F
100
AcDbEntity
  8
0
  6
Continuous
 62
     7
370
    25
100
AcDbCircle
 10
182.1190146433
 20
68.9462202059
 30
0.0
 40
4.799999999999915
100
AcDbArc
 50
216.9939652304
 51
298.812848173
  0
MTEXT
  5
CF
330
1F
100
AcDbEntity
  8
0
  6
Continuous
 62
     7
100
AcDbMText
 10
-43.2718209937
 20
-52.9067178381
 30
0.0
 40
4.83362
 41
0.0
 71
     1
 72
     1
  1
Produit SOLIDWORKS Maker – Usage personnel uniquement.
  7
SLDTEXTSTYLE0
 73
     1
 44
1.0
  0
ENDSEC
  0
SECTION
  2
OBJECTS
  0
DICTIONARY
  5
C
330
0
100
AcDbDictionary
281
     1
  3
ACAD_GROUP
350
D
  3
ACAD_LAYOUT
350
1A
  3
ACAD_MLINESTYLE
350
17
  3
ACAD_PLOTSETTINGS
350
19
  3
ACAD_PLOTSTYLENAME
350
E
  3
ACAD_SCALELIST
350
47
  3
DWGPROPS
350
D0
  0
DICTIONARY
  5
D
102
{ACAD_REACTORS
330
C
102
}
330
C
100
AcDbDictionary
281
     1
  0
DICTIONARY
  5
1A
102
{ACAD_REACTORS
330
C
102
}
330
C
100
AcDbDictionary
281
     1
  3
Layout1
350
1E
  3
Layout2
350
26
  3
Model
350
22
  0
DICTIONARY
  5
17
102
{ACAD_REACTORS
330
C
102
}
330
C
100
AcDbDictionary
281
     1
  3
Standard
350
18
  0
DICTIONARY
  5
19
102
{ACAD_REACTORS
330
C
102
}
330
C
100
AcDbDictionary
281
     1
  0
ACDBDICTIONARYWDFLT
  5
E
102
{ACAD_REACTORS
330
C
102
}
330
C
100
AcDbDictionary
281
     1
  3
Normal
350
F
100
AcDbDictionaryWithDefault
340
F
  0
DICTIONARY
  5
47
102
{ACAD_REACTORS
330
C
102
}
330
C
100
AcDbDictionary
281
     1
  3
A0
350
48
  3
A1
350
49
  3
A2
350
4A
  3
A3
350
4B
  3
A4
350
4C
  3
A5
350
4D
  3
A6
350
4E
  3
A7
350
4F
  3
A8
350
50
  3
A9
350
51
  3
B0
350
52
  3
B1
350
53
  3
B2
350
54
  3
B3
350
55
  3
B4
350
56
  3
B5
350
57
  3
B6
350
58
  0
XRECORD
  5
D0
102
{ACAD_REACTORS
330
C
102
}
330
C
100
AcDbXrecord
280
     1
  1
DWGPROPS COOKIE
  2

  3

  4

  6

  7

  8
dieudonné
  9

300
=
301
=
302
=
303
=
304
=
305
=
306
=
307
=
308
=
309
=
 40
0.0
 41
2459706.797078391
 42
2459706.797170301
  1

 90
        0
  0
LAYOUT
  5
1E
102
{ACAD_REACTORS
330
1A
102
}
330
1A
100
AcDbPlotSettings
  1

  2
none_device
  4

  6

 40
0.0
 41
0.0
 42
0.0
 43
0.0
 44
0.0
 45
0.0
 46
0.0
 47
0.0
 48
0.0
 49
0.0
140
0.0
141
0.0
142
1.0
143
1.0
 70
   688
 72
     1
 73
     0
 74
     5
  7

 75
    16
147
1.0
148
0.0
149
0.0
100
AcDbLayout
  1
Layout1
 70
     1
 71
     1
 10
0.0
 20
0.0
 11
420.0
 21
297.0
 12
0.0
 22
0.0
 32
0.0
 14
1.0000000000E+20
 24
1.0000000000E+20
 34
1.0000000000E+20
 15
-1.0000000000E+20
 25
-1.0000000000E+20
 35
-1.0000000000E+20
146
0.0
 13
0.0
 23
0.0
 33
0.0
 16
1.0
 26
0.0
 36
0.0
 17
0.0
 27
1.0
 37
0.0
 76
     0
330
1B
  0
LAYOUT
  5
26
102
{ACAD_REACTORS
330
1A
102
}
330
1A
100
AcDbPlotSettings
  1

  2
none_device
  4

  6

 40
0.0
 41
0.0
 42
0.0
 43
0.0
 44
0.0
 45
0.0
 46
0.0
 47
0.0
 48
0.0
 49
0.0
140
0.0
141
0.0
142
1.0
143
1.0
 70
   688
 72
     1
 73
     0
 74
     5
  7

 75
    16
147
1.0
148
0.0
149
0.0
100
AcDbLayout
  1
Layout2
 70
     1
 71
     2
 10
0.0
 20
0.0
 11
0.0
 21
0.0
 12
0.0
 22
0.0
 32
0.0
 14
0.0
 24
0.0
 34
0.0
 15
0.0
 25
0.0
 35
0.0
146
0.0
 13
0.0
 23
0.0
 33
0.0
 16
1.0
 26
0.0
 36
0.0
 17
0.0
 27
1.0
 37
0.0
 76
     0
330
23
  0
LAYOUT
  5
22
102
{ACAD_REACTORS
330
1A
102
}
330
1A
100
AcDbPlotSettings
  1

  2
none_device
  4
ANSI_A_(11.00_x_8.50_Inches)
  6

 40
6.35
 41
19.05
 42
6.35000508
 43
19.05000254
 44
279.4
 45
215.9
 46
18.8458689954
 47
80.5633709142
 48
0.0
 49
0.0
140
0.0
141
0.0
142
0.0216529701
143
1.0
 70
  1696
 72
     0
 73
     0
 74
     0
  7

 75
     0
147
0.0179189148
148
-1300.4909072572
149
0.0
100
AcDbLayout
  1
Model
 70
     1
 71
     0
 10
0.0
 20
0.0
 11
420.0
 21
297.0
 12
0.0
 22
0.0
 32
0.0
 14
-43.2718209937
 24
-51.8871514464
 34
0.0
 15
459.6614924621
 25
82.2029641942
 35
0.0
146
0.0
 13
0.0
 23
0.0
 33
0.0
 16
1.0
 26
0.0
 36
0.0
 17
0.0
 27
1.0
 37
0.0
 76
     0
330
1F
331
29
  0
MLINESTYLE
  5
18
102
{ACAD_REACTORS
330
17
102
}
330
17
100
AcDbMlineStyle
  2
Standard
 70
     0
  3

 62
   256
 51
90.0
 52
90.0
 71
     2
 49
0.5
 62
   256
  6
BYLAYER
 49
-0.5
 62
   256
  6
BYLAYER
  0
ACDBPLACEHOLDER
  5
F
102
{ACAD_REACTORS
330
E
102
}
330
E
  0
SCALE
  5
48
102
{ACAD_REACTORS
330
47
102
}
330
47
100
AcDbScale
 70
     0
300
1:1
140
1.0
141
1.0
290
     1
  0
SCALE
  5
49
102
{ACAD_REACTORS
330
47
102
}
330
47
100
AcDbScale
 70
     0
300
1:2
140
1.0
141
2.0
290
     0
  0
SCALE
  5
4A
102
{ACAD_REACTORS
330
47
102
}
330
47
100
AcDbScale
 70
     0
300
1:4
140
1.0
141
4.0
290
     0
  0
SCALE
  5
4B
102
{ACAD_REACTORS
330
47
102
}
330
47
100
AcDbScale
 70
     0
300
1:5
140
1.0
141
5.0
290
     0
  0
SCALE
  5
4C
102
{ACAD_REACTORS
330
47
102
}
330
47
100
AcDbScale
 70
     0
300
1:8
140
1.0
141
8.0
290
     0
  0
SCALE
  5
4D
102
{ACAD_REACTORS
330
47
102
}
330
47
100
AcDbScale
 70
     0
300
1:10
140
1.0
141
10.0
290
     0
  0
SCALE
  5
4E
102
{ACAD_REACTORS
330
47
102
}
330
47
100
AcDbScale
 70
     0
300
1:16
140
1.0
141
16.0
290
     0
  0
SCALE
  5
4F
102
{ACAD_REACTORS
330
47
102
}
330
47
100
AcDbScale
 70
     0
300
1:20
140
1.0
141
20.0
290
     0
  0
SCALE
  5
50
102
{ACAD_REACTORS
330
47
102
}
330
47
100
AcDbScale
 70
     0
300
1:30
140
1.0
141
30.0
290
     0
  0
SCALE
  5
51
102
{ACAD_REACTORS
330
47
102
}
330
47
100
AcDbScale
 70
     0
300
1:40
140
1.0
141
40.0
290
     0
  0
SCALE
  5
52
102
{ACAD_REACTORS
330
47
102
}
330
47
100
AcDbScale
 70
     0
300
1:50
140
1.0
141
50.0
290
     0
  0
SCALE
  5
53
102
{ACAD_REACTORS
330
47
102
}
330
47
100
AcDbScale
 70
     0
300
1:100
140
1.0
141
100.0
290
     0
  0
SCALE
  5
54
102
{ACAD_REACTORS
330
47
102
}
330
47
100
AcDbScale
 70
     0
300
2:1
140
2.0
141
1.0
290
     0
  0
SCALE
  5
55
102
{ACAD_REACTORS
330
47
102
}
330
47
100
AcDbScale
 70
     0
300
4:1
140
4.0
141
1.0
290
     0
  0
SCALE
  5
56
102
{ACAD_REACTORS
330
47
102
}
330
47
100
AcDbScale
 70
     0
300
8:1
140
8.0
141
1.0
290
     0
  0
SCALE
  5
57
102
{ACAD_REACTORS
330
47
102
}
330
47
100
AcDbScale
 70
     0
300
10:1
140
10.0
141
1.0
290
     0
  0
SCALE
  5
58
102
{ACAD_REACTORS
330
47
102
}
330
47
100
AcDbScale
 70
     0
300
100:1
140
100.0
141
1.0
290
     0
  0
ENDSEC
  0
EOF
