ISO-10303-21;
HEADER;
FILE_DESCRIPTION (( 'STEP AP203' ),
    '1' );
FILE_NAME ('connector_back.STEP',
    '2022-03-29T17:26:46',
    ( '' ),
    ( '' ),
    'SwSTEP 2.0',
    'SolidWorks 2020',
    '' );
FILE_SCHEMA (( 'CONFIG_CONTROL_DESIGN' ));
ENDSEC;

DATA;
#1 =( GEOMETRIC_REPRESENTATION_CONTEXT ( 3 ) GLOBAL_UNCERTAINTY_ASSIGNED_CONTEXT ( ( #296 ) ) GLOBAL_UNIT_ASSIGNED_CONTEXT ( ( #90, #181, #334 ) ) REPRESENTATION_CONTEXT ( 'NONE', 'WORKASPACE' ) );
#2 = PRODUCT_DEFINITION ( 'UNKNOWN', '', #172, #170 ) ;
#3 = DIRECTION ( 'NONE',  ( 1.000000000000000000, 0.000000000000000000, 0.000000000000000000 ) ) ;
#4 = AXIS2_PLACEMENT_3D ( 'NONE', #182, #336, #124 ) ;
#5 = EDGE_LOOP ( 'NONE', ( #79, #112, #287, #108 ) ) ;
#6 = CARTESIAN_POINT ( 'NONE',  ( 0.000000000000000000, 0.000000000000000000, 18.00000000000000000 ) ) ;
#7 = ORIENTED_EDGE ( 'NONE', *, *, #125, .T. ) ;
#8 = AXIS2_PLACEMENT_3D ( 'NONE', #36, #258, #3 ) ;
#9 = DIRECTION ( 'NONE',  ( 0.000000000000000000, 0.000000000000000000, 1.000000000000000000 ) ) ;
#10 = AXIS2_PLACEMENT_3D ( 'NONE', #175, #232, #146 ) ;
#11 = CARTESIAN_POINT ( 'NONE',  ( 17.49999999999999645, 0.000000000000000000, 0.000000000000000000 ) ) ;
#12 = ADVANCED_FACE ( 'NONE', ( #241 ), #207, .T. ) ;
#13 = CYLINDRICAL_SURFACE ( 'NONE', #66, 16.25000000000000000 ) ;
#14 = DIRECTION ( 'NONE',  ( -1.000000000000000000, -0.000000000000000000, -0.000000000000000000 ) ) ;
#15 = EDGE_CURVE ( 'NONE', #31, #44, #265, .T. ) ;
#16 = CARTESIAN_POINT ( 'NONE',  ( 17.49999999999999645, 0.000000000000000000, 9.500000000000000000 ) ) ;
#17 = FACE_BOUND ( 'NONE', #271, .T. ) ;
#18 = DIRECTION ( 'NONE',  ( -1.000000000000000000, -0.000000000000000000, -0.000000000000000000 ) ) ;
#19 = DIRECTION ( 'NONE',  ( 0.000000000000000000, 0.000000000000000000, 1.000000000000000000 ) ) ;
#20 = AXIS2_PLACEMENT_3D ( 'NONE', #56, #154, #186 ) ;
#21 = CC_DESIGN_SECURITY_CLASSIFICATION ( #45, ( #172 ) ) ;
#22 = CARTESIAN_POINT ( 'NONE',  ( 0.000000000000000000, 2.204364238465235428E-15, -18.00000000000000000 ) ) ;
#23 = FACE_OUTER_BOUND ( 'NONE', #390, .T. ) ;
#24 = AXIS2_PLACEMENT_3D ( 'NONE', #250, #218, #148 ) ;
#25 = DIRECTION ( 'NONE',  ( -1.000000000000000000, -0.000000000000000000, -0.000000000000000000 ) ) ;
#26 = PERSON_AND_ORGANIZATION ( #159, #225 ) ;
#27 = DIRECTION ( 'NONE',  ( -1.000000000000000000, -0.000000000000000000, -0.000000000000000000 ) ) ;
#28 = PERSON_AND_ORGANIZATION_ROLE ( 'creator' ) ;
#29 = APPLICATION_CONTEXT ( 'configuration controlled 3d designs of mechanical parts and assemblies' ) ;
#30 = COORDINATED_UNIVERSAL_TIME_OFFSET ( 8, 0, .BEHIND. ) ;
#31 = VERTEX_POINT ( 'NONE', #210 ) ;
#32 = ADVANCED_FACE ( 'NONE', ( #235 ), #13, .F. ) ;
#33 = AXIS2_PLACEMENT_3D ( 'NONE', #402, #178, #333 ) ;
#34 = PERSON_AND_ORGANIZATION ( #159, #225 ) ;
#35 = EDGE_CURVE ( 'NONE', #70, #405, #359, .T. ) ;
#36 = CARTESIAN_POINT ( 'NONE',  ( 0.000000000000000000, 0.000000000000000000, 0.000000000000000000 ) ) ;
#37 = ORIENTED_EDGE ( 'NONE', *, *, #282, .F. ) ;
#38 = CC_DESIGN_APPROVAL ( #355, ( #2 ) ) ;
#39 = EDGE_LOOP ( 'NONE', ( #197, #78 ) ) ;
#40 = VECTOR ( 'NONE', #276, 1000.000000000000000 ) ;
#41 = ORIENTED_EDGE ( 'NONE', *, *, #171, .F. ) ;
#42 = EDGE_LOOP ( 'NONE', ( #322, #139, #255, #102 ) ) ;
#43 = CARTESIAN_POINT ( 'NONE',  ( 38.00000000000000000, 0.000000000000000000, 0.000000000000000000 ) ) ;
#44 = VERTEX_POINT ( 'NONE', #176 ) ;
#45 = SECURITY_CLASSIFICATION ( '', '', #286 ) ;
#46 = CARTESIAN_POINT ( 'NONE',  ( 38.00000000000000000, 0.000000000000000000, 5.911500000000000199 ) ) ;
#47 = CIRCLE ( 'NONE', #280, 16.25000000000000000 ) ;
#48 = ORIENTED_EDGE ( 'NONE', *, *, #140, .T. ) ;
#49 = CC_DESIGN_PERSON_AND_ORGANIZATION_ASSIGNMENT ( #318, #379, ( #172 ) ) ;
#50 = FACE_OUTER_BOUND ( 'NONE', #169, .T. ) ;
#51 = DIRECTION ( 'NONE',  ( 0.000000000000000000, 0.000000000000000000, 1.000000000000000000 ) ) ;
#52 = LINE ( 'NONE', #403, #87 ) ;
#53 = CIRCLE ( 'NONE', #342, 18.00000000000000000 ) ;
#54 = CARTESIAN_POINT ( 'NONE',  ( 17.49999999999999645, 1.163414459189985485E-15, -9.500000000000000000 ) ) ;
#55 = FACE_BOUND ( 'NONE', #384, .T. ) ;
#56 = CARTESIAN_POINT ( 'NONE',  ( 0.000000000000000000, 0.000000000000000000, 0.000000000000000000 ) ) ;
#57 = EDGE_CURVE ( 'NONE', #380, #130, #53, .T. ) ;
#58 = CYLINDRICAL_SURFACE ( 'NONE', #20, 5.911500000000000199 ) ;
#59 = APPROVAL_DATE_TIME ( #96, #355 ) ;
#60 = AXIS2_PLACEMENT_3D ( 'NONE', #303, #14, #358 ) ;
#61 = CARTESIAN_POINT ( 'NONE',  ( 38.00000000000000000, 0.000000000000000000, 9.500000000000000000 ) ) ;
#62 = APPROVAL_ROLE ( '' ) ;
#63 = EDGE_LOOP ( 'NONE', ( #263, #267, #261, #106 ) ) ;
#64 = CIRCLE ( 'NONE', #389, 5.911500000000000199 ) ;
#65 = PERSON_AND_ORGANIZATION ( #159, #225 ) ;
#66 = AXIS2_PLACEMENT_3D ( 'NONE', #142, #391, #115 ) ;
#67 = ORIENTED_EDGE ( 'NONE', *, *, #343, .T. ) ;
#68 = COORDINATED_UNIVERSAL_TIME_OFFSET ( 8, 0, .BEHIND. ) ;
#69 = ORIENTED_EDGE ( 'NONE', *, *, #282, .T. ) ;
#70 = VERTEX_POINT ( 'NONE', #46 ) ;
#71 = FACE_OUTER_BOUND ( 'NONE', #104, .T. ) ;
#72 = ADVANCED_FACE ( 'NONE', ( #71, #145 ), #266, .F. ) ;
#73 = DIRECTION ( 'NONE',  ( -1.000000000000000000, -0.000000000000000000, -0.000000000000000000 ) ) ;
#74 = ORIENTED_EDGE ( 'NONE', *, *, #153, .T. ) ;
#75 = CC_DESIGN_PERSON_AND_ORGANIZATION_ASSIGNMENT ( #93, #132, ( #105 ) ) ;
#76 = CIRCLE ( 'NONE', #301, 9.500000000000000000 ) ;
#77 = LINE ( 'NONE', #114, #335 ) ;
#78 = ORIENTED_EDGE ( 'NONE', *, *, #196, .F. ) ;
#79 = ORIENTED_EDGE ( 'NONE', *, *, #15, .T. ) ;
#80 = CARTESIAN_POINT ( 'NONE',  ( 17.49999999999999645, 18.00000000000000000, 0.000000000000000000 ) ) ;
#81 = VECTOR ( 'NONE', #27, 1000.000000000000000 ) ;
#82 = ADVANCED_BREP_SHAPE_REPRESENTATION ( 'connector_back', ( #291, #8 ), #1 ) ;
#83 = AXIS2_PLACEMENT_3D ( 'NONE', #315, #220, #344 ) ;
#84 = CARTESIAN_POINT ( 'NONE',  ( 17.49999999999999645, 0.000000000000000000, 0.000000000000000000 ) ) ;
#85 = CARTESIAN_POINT ( 'NONE',  ( 0.000000000000000000, 1.990051048614449313E-15, -16.25000000000000000 ) ) ;
#86 = DIRECTION ( 'NONE',  ( 0.000000000000000000, 0.000000000000000000, 1.000000000000000000 ) ) ;
#87 = VECTOR ( 'NONE', #117, 1000.000000000000000 ) ;
#88 = CARTESIAN_POINT ( 'NONE',  ( 15.00000000000000000, 0.000000000000000000, 0.000000000000000000 ) ) ;
#89 = DIRECTION ( 'NONE',  ( 0.000000000000000000, 0.000000000000000000, 1.000000000000000000 ) ) ;
#90 =( LENGTH_UNIT ( ) NAMED_UNIT ( * ) SI_UNIT ( .MILLI., .METRE. ) );
#91 = EDGE_CURVE ( 'NONE', #346, #328, #77, .T. ) ;
#92 = DIRECTION ( 'NONE',  ( -1.000000000000000000, -0.000000000000000000, -0.000000000000000000 ) ) ;
#93 = PERSON_AND_ORGANIZATION ( #159, #225 ) ;
#94 = APPROVAL ( #157, 'UNSPECIFIED' ) ;
#95 = DIRECTION ( 'NONE',  ( -1.000000000000000000, -0.000000000000000000, -0.000000000000000000 ) ) ;
#96 = DATE_AND_TIME ( #377, #134 ) ;
#97 = ORIENTED_EDGE ( 'NONE', *, *, #110, .F. ) ;
#98 = DATE_AND_TIME ( #189, #381 ) ;
#99 = EDGE_LOOP ( 'NONE', ( #406, #224, #378, #97 ) ) ;
#100 = PERSON_AND_ORGANIZATION ( #159, #225 ) ;
#101 = EDGE_LOOP ( 'NONE', ( #74, #238 ) ) ;
#102 = ORIENTED_EDGE ( 'NONE', *, *, #35, .F. ) ;
#103 = VERTEX_POINT ( 'NONE', #201 ) ;
#104 = EDGE_LOOP ( 'NONE', ( #295, #166 ) ) ;
#105 = PRODUCT ( 'connector_back', 'connector_back', '', ( #252 ) ) ;
#106 = ORIENTED_EDGE ( 'NONE', *, *, #140, .F. ) ;
#107 = CIRCLE ( 'NONE', #83, 9.500000000000000000 ) ;
#108 = ORIENTED_EDGE ( 'NONE', *, *, #227, .F. ) ;
#109 = CIRCLE ( 'NONE', #33, 18.00000000000000000 ) ;
#110 = EDGE_CURVE ( 'NONE', #133, #329, #237, .T. ) ;
#111 = DIRECTION ( 'NONE',  ( -1.000000000000000000, 0.000000000000000000, -0.000000000000000000 ) ) ;
#112 = ORIENTED_EDGE ( 'NONE', *, *, #299, .T. ) ;
#113 = APPROVAL_PERSON_ORGANIZATION ( #65, #355, #292 ) ;
#114 = CARTESIAN_POINT ( 'NONE',  ( 0.000000000000000000, 1.990051048614449313E-15, -16.25000000000000000 ) ) ;
#115 = DIRECTION ( 'NONE',  ( 0.000000000000000000, 0.000000000000000000, 1.000000000000000000 ) ) ;
#116 = DIRECTION ( 'NONE',  ( -1.000000000000000000, -0.000000000000000000, -0.000000000000000000 ) ) ;
#117 = DIRECTION ( 'NONE',  ( -1.000000000000000000, -0.000000000000000000, -0.000000000000000000 ) ) ;
#118 = LOCAL_TIME ( 10, 26, 46.00000000000000000, #294 ) ;
#119 = FACE_OUTER_BOUND ( 'NONE', #101, .T. ) ;
#120 = FACE_BOUND ( 'NONE', #202, .T. ) ;
#121 = AXIS2_PLACEMENT_3D ( 'NONE', #246, #18, #19 ) ;
#122 = CARTESIAN_POINT ( 'NONE',  ( 0.000000000000000000, 0.000000000000000000, 0.000000000000000000 ) ) ;
#123 = PRODUCT_RELATED_PRODUCT_CATEGORY ( 'detail', '', ( #105 ) ) ;
#124 = DIRECTION ( 'NONE',  ( 0.000000000000000000, 0.000000000000000000, 1.000000000000000000 ) ) ;
#125 = EDGE_CURVE ( 'NONE', #163, #70, #138, .T. ) ;
#126 = APPLICATION_PROTOCOL_DEFINITION ( 'international standard', 'config_control_design', 1994, #29 ) ;
#127 = DIRECTION ( 'NONE',  ( 0.000000000000000000, 0.000000000000000000, 1.000000000000000000 ) ) ;
#128 = CALENDAR_DATE ( 2022, 29, 3 ) ;
#129 = ADVANCED_FACE ( 'NONE', ( #50 ), #144, .F. ) ;
#130 = VERTEX_POINT ( 'NONE', #6 ) ;
#131 = ORIENTED_EDGE ( 'NONE', *, *, #209, .T. ) ;
#132 = PERSON_AND_ORGANIZATION_ROLE ( 'design_owner' ) ;
#133 = VERTEX_POINT ( 'NONE', #270 ) ;
#134 = LOCAL_TIME ( 10, 26, 46.00000000000000000, #350 ) ;
#135 = DATE_TIME_ROLE ( 'classification_date' ) ;
#136 = EDGE_CURVE ( 'NONE', #328, #329, #392, .T. ) ;
#137 = APPROVAL_STATUS ( 'not_yet_approved' ) ;
#138 = CIRCLE ( 'NONE', #352, 5.911500000000000199 ) ;
#139 = ORIENTED_EDGE ( 'NONE', *, *, #162, .T. ) ;
#140 = EDGE_CURVE ( 'NONE', #226, #348, #76, .T. ) ;
#141 = CARTESIAN_POINT ( 'NONE',  ( 0.000000000000000000, 0.000000000000000000, 0.000000000000000000 ) ) ;
#142 = CARTESIAN_POINT ( 'NONE',  ( 0.000000000000000000, 0.000000000000000000, 0.000000000000000000 ) ) ;
#143 = CIRCLE ( 'NONE', #121, 16.25000000000000000 ) ;
#144 = CYLINDRICAL_SURFACE ( 'NONE', #60, 16.25000000000000000 ) ;
#145 = FACE_BOUND ( 'NONE', #198, .T. ) ;
#146 = DIRECTION ( 'NONE',  ( 0.000000000000000000, 0.000000000000000000, 1.000000000000000000 ) ) ;
#147 = DIRECTION ( 'NONE',  ( -1.000000000000000000, -0.000000000000000000, -0.000000000000000000 ) ) ;
#148 = DIRECTION ( 'NONE',  ( 0.000000000000000000, 0.000000000000000000, -1.000000000000000000 ) ) ;
#149 = CARTESIAN_POINT ( 'NONE',  ( 0.000000000000000000, 0.000000000000000000, 18.00000000000000000 ) ) ;
#150 = EDGE_CURVE ( 'NONE', #103, #298, #245, .T. ) ;
#151 = CC_DESIGN_APPROVAL ( #94, ( #172 ) ) ;
#152 = CARTESIAN_POINT ( 'NONE',  ( 0.000000000000000000, 16.25000000000000000, 0.000000000000000000 ) ) ;
#153 = EDGE_CURVE ( 'NONE', #130, #380, #109, .T. ) ;
#154 = DIRECTION ( 'NONE',  ( -1.000000000000000000, -0.000000000000000000, -0.000000000000000000 ) ) ;
#155 = CARTESIAN_POINT ( 'NONE',  ( 15.00000000000000000, 1.990051048614449313E-15, -16.25000000000000000 ) ) ;
#156 = DIRECTION ( 'NONE',  ( 1.000000000000000000, 0.000000000000000000, 0.000000000000000000 ) ) ;
#157 = APPROVAL_STATUS ( 'not_yet_approved' ) ;
#158 = ORIENTED_EDGE ( 'NONE', *, *, #343, .F. ) ;
#159 = PERSON ( 'UNSPECIFIED', 'UNSPECIFIED', 'UNSPECIFIED', ('UNSPECIFIED'), ('UNSPECIFIED'), ('UNSPECIFIED') ) ;
#160 = VECTOR ( 'NONE', #360, 1000.000000000000000 ) ;
#161 = ORIENTED_EDGE ( 'NONE', *, *, #269, .F. ) ;
#162 = EDGE_CURVE ( 'NONE', #163, #304, #52, .T. ) ;
#163 = VERTEX_POINT ( 'NONE', #284 ) ;
#164 = ORIENTED_EDGE ( 'NONE', *, *, #136, .F. ) ;
#165 = CC_DESIGN_PERSON_AND_ORGANIZATION_ASSIGNMENT ( #100, #28, ( #2 ) ) ;
#166 = ORIENTED_EDGE ( 'NONE', *, *, #150, .F. ) ;
#167 = AXIS2_PLACEMENT_3D ( 'NONE', #394, #373, #89 ) ;
#168 = DIRECTION ( 'NONE',  ( -1.000000000000000000, -0.000000000000000000, -0.000000000000000000 ) ) ;
#169 = EDGE_LOOP ( 'NONE', ( #290, #158, #388, #323 ) ) ;
#170 = DESIGN_CONTEXT ( 'detailed design', #369, 'design' ) ;
#171 = EDGE_CURVE ( 'NONE', #329, #328, #143, .T. ) ;
#172 = PRODUCT_DEFINITION_FORMATION_WITH_SPECIFIED_SOURCE ( 'ANY', '', #105, .NOT_KNOWN. ) ;
#173 = DIRECTION ( 'NONE',  ( -0.000000000000000000, 0.000000000000000000, 1.000000000000000000 ) ) ;
#174 = AXIS2_PLACEMENT_3D ( 'NONE', #367, #331, #215 ) ;
#175 = CARTESIAN_POINT ( 'NONE',  ( 0.000000000000000000, 0.000000000000000000, 0.000000000000000000 ) ) ;
#176 = CARTESIAN_POINT ( 'NONE',  ( 17.49999999999999645, 2.204364238465235428E-15, -18.00000000000000000 ) ) ;
#177 = DIRECTION ( 'NONE',  ( 0.000000000000000000, 0.000000000000000000, 1.000000000000000000 ) ) ;
#178 = DIRECTION ( 'NONE',  ( -1.000000000000000000, -0.000000000000000000, -0.000000000000000000 ) ) ;
#179 = PLANE ( 'NONE',  #365 ) ;
#180 = DIRECTION ( 'NONE',  ( -1.000000000000000000, -0.000000000000000000, -0.000000000000000000 ) ) ;
#181 =( NAMED_UNIT ( * ) PLANE_ANGLE_UNIT ( ) SI_UNIT ( $, .RADIAN. ) );
#182 = CARTESIAN_POINT ( 'NONE',  ( 0.000000000000000000, 0.000000000000000000, 0.000000000000000000 ) ) ;
#183 = LINE ( 'NONE', #374, #277 ) ;
#184 = AXIS2_PLACEMENT_3D ( 'NONE', #88, #116, #305 ) ;
#185 = CARTESIAN_POINT ( 'NONE',  ( 15.00000000000000178, 0.000000000000000000, 0.000000000000000000 ) ) ;
#186 = DIRECTION ( 'NONE',  ( 0.000000000000000000, 0.000000000000000000, 1.000000000000000000 ) ) ;
#187 = AXIS2_PLACEMENT_3D ( 'NONE', #152, #156, #278 ) ;
#188 = LINE ( 'NONE', #317, #81 ) ;
#189 = CALENDAR_DATE ( 2022, 29, 3 ) ;
#190 = ORIENTED_EDGE ( 'NONE', *, *, #227, .T. ) ;
#191 = PERSON_AND_ORGANIZATION ( #159, #225 ) ;
#192 = AXIS2_PLACEMENT_3D ( 'NONE', #84, #281, #86 ) ;
#193 = ADVANCED_FACE ( 'NONE', ( #396 ), #243, .T. ) ;
#194 = ORIENTED_EDGE ( 'NONE', *, *, #302, .T. ) ;
#195 = APPROVAL_STATUS ( 'not_yet_approved' ) ;
#196 = EDGE_CURVE ( 'NONE', #44, #31, #361, .T. ) ;
#197 = ORIENTED_EDGE ( 'NONE', *, *, #15, .F. ) ;
#198 = EDGE_LOOP ( 'NONE', ( #194, #7 ) ) ;
#199 = CARTESIAN_POINT ( 'NONE',  ( 17.49999999999999645, 0.000000000000000000, 0.000000000000000000 ) ) ;
#200 = EDGE_LOOP ( 'NONE', ( #408, #385, #353, #363 ) ) ;
#201 = CARTESIAN_POINT ( 'NONE',  ( 38.00000000000000000, 1.163414459189985485E-15, -9.500000000000000000 ) ) ;
#202 = EDGE_LOOP ( 'NONE', ( #161, #254 ) ) ;
#203 = APPROVAL_PERSON_ORGANIZATION ( #34, #94, #347 ) ;
#204 = DIRECTION ( 'NONE',  ( 0.000000000000000000, 0.000000000000000000, 1.000000000000000000 ) ) ;
#205 = EDGE_CURVE ( 'NONE', #298, #348, #399, .T. ) ;
#206 = CIRCLE ( 'NONE', #273, 5.911500000000000199 ) ;
#207 = CYLINDRICAL_SURFACE ( 'NONE', #10, 9.500000000000000000 ) ;
#208 = DIRECTION ( 'NONE',  ( -1.000000000000000000, 0.000000000000000000, -0.000000000000000000 ) ) ;
#209 = EDGE_CURVE ( 'NONE', #346, #133, #47, .T. ) ;
#210 = CARTESIAN_POINT ( 'NONE',  ( 17.49999999999999645, 0.000000000000000000, 18.00000000000000000 ) ) ;
#211 = CARTESIAN_POINT ( 'NONE',  ( 38.00000000000000000, 0.000000000000000000, 0.000000000000000000 ) ) ;
#212 = ADVANCED_FACE ( 'NONE', ( #308 ), #306, .T. ) ;
#213 = CARTESIAN_POINT ( 'NONE',  ( 15.00000000000000178, 0.000000000000000000, 0.000000000000000000 ) ) ;
#214 = AXIS2_PLACEMENT_3D ( 'NONE', #211, #95, #364 ) ;
#215 = DIRECTION ( 'NONE',  ( 0.000000000000000000, 0.000000000000000000, 1.000000000000000000 ) ) ;
#216 = DIRECTION ( 'NONE',  ( -1.000000000000000000, -0.000000000000000000, -0.000000000000000000 ) ) ;
#217 = AXIS2_PLACEMENT_3D ( 'NONE', #122, #147, #332 ) ;
#218 = DIRECTION ( 'NONE',  ( 1.000000000000000000, 0.000000000000000000, 0.000000000000000000 ) ) ;
#219 = DATE_TIME_ROLE ( 'creation_date' ) ;
#220 = DIRECTION ( 'NONE',  ( -1.000000000000000000, -0.000000000000000000, -0.000000000000000000 ) ) ;
#221 = DATE_AND_TIME ( #128, #327 ) ;
#222 = ORIENTED_EDGE ( 'NONE', *, *, #407, .T. ) ;
#223 = SHAPE_DEFINITION_REPRESENTATION ( #354, #82 ) ;
#224 = ORIENTED_EDGE ( 'NONE', *, *, #91, .T. ) ;
#225 = ORGANIZATION ( 'UNSPECIFIED', 'UNSPECIFIED', '' ) ;
#226 = VERTEX_POINT ( 'NONE', #54 ) ;
#227 = EDGE_CURVE ( 'NONE', #31, #130, #309, .T. ) ;
#228 = ORIENTED_EDGE ( 'NONE', *, *, #196, .T. ) ;
#229 = APPROVAL ( #195, 'UNSPECIFIED' ) ;
#230 = APPROVAL_DATE_TIME ( #321, #94 ) ;
#231 = ADVANCED_FACE ( 'NONE', ( #17, #119 ), #244, .F. ) ;
#232 = DIRECTION ( 'NONE',  ( -1.000000000000000000, -0.000000000000000000, -0.000000000000000000 ) ) ;
#233 = CLOSED_SHELL ( 'NONE', ( #32, #272, #12, #193, #231, #253, #356, #212, #72, #371, #236, #129 ) ) ;
#234 = CARTESIAN_POINT ( 'NONE',  ( 0.000000000000000000, 0.000000000000000000, 5.911500000000000199 ) ) ;
#235 = FACE_OUTER_BOUND ( 'NONE', #99, .T. ) ;
#236 = ADVANCED_FACE ( 'NONE', ( #120, #23 ), #248, .F. ) ;
#237 = LINE ( 'NONE', #300, #160 ) ;
#238 = ORIENTED_EDGE ( 'NONE', *, *, #57, .T. ) ;
#239 = CC_DESIGN_DATE_AND_TIME_ASSIGNMENT ( #221, #135, ( #45 ) ) ;
#240 = VECTOR ( 'NONE', #73, 1000.000000000000000 ) ;
#241 = FACE_OUTER_BOUND ( 'NONE', #382, .T. ) ;
#242 = DIRECTION ( 'NONE',  ( -0.000000000000000000, 0.000000000000000000, 1.000000000000000000 ) ) ;
#243 = CYLINDRICAL_SURFACE ( 'NONE', #174, 18.00000000000000000 ) ;
#244 = PLANE ( 'NONE',  #187 ) ;
#245 = CIRCLE ( 'NONE', #214, 9.500000000000000000 ) ;
#246 = CARTESIAN_POINT ( 'NONE',  ( 0.000000000000000000, 0.000000000000000000, 0.000000000000000000 ) ) ;
#247 = CARTESIAN_POINT ( 'NONE',  ( 0.000000000000000000, 0.000000000000000000, 16.25000000000000000 ) ) ;
#248 = PLANE ( 'NONE',  #24 ) ;
#249 = CARTESIAN_POINT ( 'NONE',  ( 38.00000000000000000, 0.000000000000000000, 0.000000000000000000 ) ) ;
#250 = CARTESIAN_POINT ( 'NONE',  ( 15.00000000000000000, 16.25000000000000000, 0.000000000000000000 ) ) ;
#251 = DATE_AND_TIME ( #260, #118 ) ;
#252 = MECHANICAL_CONTEXT ( 'NONE', #29, 'mechanical' ) ;
#253 = ADVANCED_FACE ( 'NONE', ( #370 ), #274, .T. ) ;
#254 = ORIENTED_EDGE ( 'NONE', *, *, #395, .F. ) ;
#255 = ORIENTED_EDGE ( 'NONE', *, *, #395, .T. ) ;
#256 = CC_DESIGN_APPROVAL ( #229, ( #45 ) ) ;
#257 = ORIENTED_EDGE ( 'NONE', *, *, #57, .F. ) ;
#258 = DIRECTION ( 'NONE',  ( 0.000000000000000000, 0.000000000000000000, 1.000000000000000000 ) ) ;
#259 = AXIS2_PLACEMENT_3D ( 'NONE', #11, #362, #9 ) ;
#260 = CALENDAR_DATE ( 2022, 29, 3 ) ;
#261 = ORIENTED_EDGE ( 'NONE', *, *, #205, .T. ) ;
#262 = DIRECTION ( 'NONE',  ( -1.000000000000000000, -0.000000000000000000, -0.000000000000000000 ) ) ;
#263 = ORIENTED_EDGE ( 'NONE', *, *, #326, .F. ) ;
#264 = DIRECTION ( 'NONE',  ( 0.000000000000000000, 0.000000000000000000, 1.000000000000000000 ) ) ;
#265 = CIRCLE ( 'NONE', #259, 18.00000000000000000 ) ;
#266 = PLANE ( 'NONE',  #368 ) ;
#267 = ORIENTED_EDGE ( 'NONE', *, *, #150, .T. ) ;
#268 = CARTESIAN_POINT ( 'NONE',  ( 38.00000000000000000, 9.500000000000000000, 0.000000000000000000 ) ) ;
#269 = EDGE_CURVE ( 'NONE', #405, #304, #206, .T. ) ;
#270 = CARTESIAN_POINT ( 'NONE',  ( 15.00000000000000000, 0.000000000000000000, 16.25000000000000000 ) ) ;
#271 = EDGE_LOOP ( 'NONE', ( #41, #164 ) ) ;
#272 = ADVANCED_FACE ( 'NONE', ( #340 ), #58, .F. ) ;
#273 = AXIS2_PLACEMENT_3D ( 'NONE', #185, #216, #337 ) ;
#274 = CYLINDRICAL_SURFACE ( 'NONE', #167, 18.00000000000000000 ) ;
#275 = CARTESIAN_POINT ( 'NONE',  ( 15.00000000000000178, 7.239499553159578909E-16, -5.911500000000000199 ) ) ;
#276 = DIRECTION ( 'NONE',  ( -1.000000000000000000, -0.000000000000000000, -0.000000000000000000 ) ) ;
#277 = VECTOR ( 'NONE', #400, 1000.000000000000000 ) ;
#278 = DIRECTION ( 'NONE',  ( 0.000000000000000000, 0.000000000000000000, -1.000000000000000000 ) ) ;
#279 = DIRECTION ( 'NONE',  ( -1.000000000000000000, -0.000000000000000000, -0.000000000000000000 ) ) ;
#280 = AXIS2_PLACEMENT_3D ( 'NONE', #313, #180, #51 ) ;
#281 = DIRECTION ( 'NONE',  ( -1.000000000000000000, -0.000000000000000000, -0.000000000000000000 ) ) ;
#282 = EDGE_CURVE ( 'NONE', #348, #226, #107, .T. ) ;
#283 = CARTESIAN_POINT ( 'NONE',  ( 15.00000000000000178, 0.000000000000000000, 5.911500000000000199 ) ) ;
#284 = CARTESIAN_POINT ( 'NONE',  ( 38.00000000000000000, 7.239499553159578909E-16, -5.911500000000000199 ) ) ;
#285 = CC_DESIGN_PERSON_AND_ORGANIZATION_ASSIGNMENT ( #26, #409, ( #172 ) ) ;
#286 = SECURITY_CLASSIFICATION_LEVEL ( 'unclassified' ) ;
#287 = ORIENTED_EDGE ( 'NONE', *, *, #153, .F. ) ;
#288 = APPROVAL_DATE_TIME ( #98, #229 ) ;
#289 = AXIS2_PLACEMENT_3D ( 'NONE', #141, #262, #386 ) ;
#290 = ORIENTED_EDGE ( 'NONE', *, *, #91, .F. ) ;
#291 = MANIFOLD_SOLID_BREP ( 'Revolve1', #233 ) ;
#292 = APPROVAL_ROLE ( '' ) ;
#293 = CIRCLE ( 'NONE', #184, 16.25000000000000000 ) ;
#294 = COORDINATED_UNIVERSAL_TIME_OFFSET ( 8, 0, .BEHIND. ) ;
#295 = ORIENTED_EDGE ( 'NONE', *, *, #407, .F. ) ;
#296 = UNCERTAINTY_MEASURE_WITH_UNIT (LENGTH_MEASURE( 1.000000000000000082E-05 ), #90, 'distance_accuracy_value', 'NONE');
#297 = DIRECTION ( 'NONE',  ( -1.000000000000000000, -0.000000000000000000, -0.000000000000000000 ) ) ;
#298 = VERTEX_POINT ( 'NONE', #61 ) ;
#299 = EDGE_CURVE ( 'NONE', #44, #380, #188, .T. ) ;
#300 = CARTESIAN_POINT ( 'NONE',  ( 0.000000000000000000, 0.000000000000000000, 16.25000000000000000 ) ) ;
#301 = AXIS2_PLACEMENT_3D ( 'NONE', #199, #92, #127 ) ;
#302 = EDGE_CURVE ( 'NONE', #70, #163, #319, .T. ) ;
#303 = CARTESIAN_POINT ( 'NONE',  ( 0.000000000000000000, 0.000000000000000000, 0.000000000000000000 ) ) ;
#304 = VERTEX_POINT ( 'NONE', #275 ) ;
#305 = DIRECTION ( 'NONE',  ( 0.000000000000000000, 0.000000000000000000, 1.000000000000000000 ) ) ;
#306 = CYLINDRICAL_SURFACE ( 'NONE', #4, 9.500000000000000000 ) ;
#307 = DIRECTION ( 'NONE',  ( 0.000000000000000000, 0.000000000000000000, 1.000000000000000000 ) ) ;
#308 = FACE_OUTER_BOUND ( 'NONE', #63, .T. ) ;
#309 = LINE ( 'NONE', #149, #40 ) ;
#310 = AXIS2_PLACEMENT_3D ( 'NONE', #249, #279, #177 ) ;
#311 = FACE_OUTER_BOUND ( 'NONE', #200, .T. ) ;
#312 = APPROVAL_PERSON_ORGANIZATION ( #345, #229, #62 ) ;
#313 = CARTESIAN_POINT ( 'NONE',  ( 15.00000000000000000, 0.000000000000000000, 0.000000000000000000 ) ) ;
#314 = CARTESIAN_POINT ( 'NONE',  ( 38.00000000000000000, 0.000000000000000000, 0.000000000000000000 ) ) ;
#315 = CARTESIAN_POINT ( 'NONE',  ( 17.49999999999999645, 0.000000000000000000, 0.000000000000000000 ) ) ;
#316 = CALENDAR_DATE ( 2022, 29, 3 ) ;
#317 = CARTESIAN_POINT ( 'NONE',  ( 0.000000000000000000, 2.204364238465235428E-15, -18.00000000000000000 ) ) ;
#318 = PERSON_AND_ORGANIZATION ( #159, #225 ) ;
#319 = CIRCLE ( 'NONE', #310, 5.911500000000000199 ) ;
#320 = EDGE_LOOP ( 'NONE', ( #325, #228, #190, #257 ) ) ;
#321 = DATE_AND_TIME ( #316, #338 ) ;
#322 = ORIENTED_EDGE ( 'NONE', *, *, #125, .F. ) ;
#323 = ORIENTED_EDGE ( 'NONE', *, *, #171, .T. ) ;
#324 = ORIENTED_EDGE ( 'NONE', *, *, #205, .F. ) ;
#325 = ORIENTED_EDGE ( 'NONE', *, *, #299, .F. ) ;
#326 = EDGE_CURVE ( 'NONE', #103, #226, #183, .T. ) ;
#327 = LOCAL_TIME ( 10, 26, 46.00000000000000000, #68 ) ;
#328 = VERTEX_POINT ( 'NONE', #85 ) ;
#329 = VERTEX_POINT ( 'NONE', #247 ) ;
#330 = CYLINDRICAL_SURFACE ( 'NONE', #217, 5.911500000000000199 ) ;
#331 = DIRECTION ( 'NONE',  ( -1.000000000000000000, -0.000000000000000000, -0.000000000000000000 ) ) ;
#332 = DIRECTION ( 'NONE',  ( 0.000000000000000000, 0.000000000000000000, 1.000000000000000000 ) ) ;
#333 = DIRECTION ( 'NONE',  ( 0.000000000000000000, 0.000000000000000000, 1.000000000000000000 ) ) ;
#334 =( NAMED_UNIT ( * ) SI_UNIT ( $, .STERADIAN. ) SOLID_ANGLE_UNIT ( ) );
#335 = VECTOR ( 'NONE', #168, 1000.000000000000000 ) ;
#336 = DIRECTION ( 'NONE',  ( -1.000000000000000000, -0.000000000000000000, -0.000000000000000000 ) ) ;
#337 = DIRECTION ( 'NONE',  ( 0.000000000000000000, 0.000000000000000000, 1.000000000000000000 ) ) ;
#338 = LOCAL_TIME ( 10, 26, 46.00000000000000000, #341 ) ;
#339 = CC_DESIGN_DATE_AND_TIME_ASSIGNMENT ( #251, #219, ( #2 ) ) ;
#340 = FACE_OUTER_BOUND ( 'NONE', #42, .T. ) ;
#341 = COORDINATED_UNIVERSAL_TIME_OFFSET ( 8, 0, .BEHIND. ) ;
#342 = AXIS2_PLACEMENT_3D ( 'NONE', #387, #357, #204 ) ;
#343 = EDGE_CURVE ( 'NONE', #133, #346, #293, .T. ) ;
#344 = DIRECTION ( 'NONE',  ( 0.000000000000000000, 0.000000000000000000, 1.000000000000000000 ) ) ;
#345 = PERSON_AND_ORGANIZATION ( #159, #225 ) ;
#346 = VERTEX_POINT ( 'NONE', #155 ) ;
#347 = APPROVAL_ROLE ( '' ) ;
#348 = VERTEX_POINT ( 'NONE', #16 ) ;
#349 = CIRCLE ( 'NONE', #397, 9.500000000000000000 ) ;
#350 = COORDINATED_UNIVERSAL_TIME_OFFSET ( 8, 0, .BEHIND. ) ;
#351 = ORIENTED_EDGE ( 'NONE', *, *, #326, .T. ) ;
#352 = AXIS2_PLACEMENT_3D ( 'NONE', #43, #297, #264 ) ;
#353 = ORIENTED_EDGE ( 'NONE', *, *, #35, .T. ) ;
#354 = PRODUCT_DEFINITION_SHAPE ( 'NONE', 'NONE',  #2 ) ;
#355 = APPROVAL ( #137, 'UNSPECIFIED' ) ;
#356 = ADVANCED_FACE ( 'NONE', ( #398, #55 ), #179, .F. ) ;
#357 = DIRECTION ( 'NONE',  ( -1.000000000000000000, -0.000000000000000000, -0.000000000000000000 ) ) ;
#358 = DIRECTION ( 'NONE',  ( 0.000000000000000000, 0.000000000000000000, 1.000000000000000000 ) ) ;
#359 = LINE ( 'NONE', #234, #240 ) ;
#360 = DIRECTION ( 'NONE',  ( -1.000000000000000000, -0.000000000000000000, -0.000000000000000000 ) ) ;
#361 = CIRCLE ( 'NONE', #192, 18.00000000000000000 ) ;
#362 = DIRECTION ( 'NONE',  ( -1.000000000000000000, -0.000000000000000000, -0.000000000000000000 ) ) ;
#363 = ORIENTED_EDGE ( 'NONE', *, *, #269, .T. ) ;
#364 = DIRECTION ( 'NONE',  ( 0.000000000000000000, 0.000000000000000000, 1.000000000000000000 ) ) ;
#365 = AXIS2_PLACEMENT_3D ( 'NONE', #80, #208, #242 ) ;
#366 = DIRECTION ( 'NONE',  ( 0.000000000000000000, 0.000000000000000000, 1.000000000000000000 ) ) ;
#367 = CARTESIAN_POINT ( 'NONE',  ( 0.000000000000000000, 0.000000000000000000, 0.000000000000000000 ) ) ;
#368 = AXIS2_PLACEMENT_3D ( 'NONE', #268, #111, #173 ) ;
#369 = APPLICATION_CONTEXT ( 'configuration controlled 3d designs of mechanical parts and assemblies' ) ;
#370 = FACE_OUTER_BOUND ( 'NONE', #320, .T. ) ;
#371 = ADVANCED_FACE ( 'NONE', ( #311 ), #330, .F. ) ;
#372 = DIRECTION ( 'NONE',  ( -1.000000000000000000, -0.000000000000000000, -0.000000000000000000 ) ) ;
#373 = DIRECTION ( 'NONE',  ( -1.000000000000000000, -0.000000000000000000, -0.000000000000000000 ) ) ;
#374 = CARTESIAN_POINT ( 'NONE',  ( 0.000000000000000000, 1.163414459189985485E-15, -9.500000000000000000 ) ) ;
#375 = CARTESIAN_POINT ( 'NONE',  ( 0.000000000000000000, 0.000000000000000000, 9.500000000000000000 ) ) ;
#376 = APPLICATION_PROTOCOL_DEFINITION ( 'international standard', 'config_control_design', 1994, #369 ) ;
#377 = CALENDAR_DATE ( 2022, 29, 3 ) ;
#378 = ORIENTED_EDGE ( 'NONE', *, *, #136, .T. ) ;
#379 = PERSON_AND_ORGANIZATION_ROLE ( 'creator' ) ;
#380 = VERTEX_POINT ( 'NONE', #22 ) ;
#381 = LOCAL_TIME ( 10, 26, 46.00000000000000000, #30 ) ;
#382 = EDGE_LOOP ( 'NONE', ( #222, #351, #37, #324 ) ) ;
#383 = CC_DESIGN_PERSON_AND_ORGANIZATION_ASSIGNMENT ( #191, #404, ( #45 ) ) ;
#384 = EDGE_LOOP ( 'NONE', ( #69, #48 ) ) ;
#385 = ORIENTED_EDGE ( 'NONE', *, *, #302, .F. ) ;
#386 = DIRECTION ( 'NONE',  ( 0.000000000000000000, 0.000000000000000000, 1.000000000000000000 ) ) ;
#387 = CARTESIAN_POINT ( 'NONE',  ( 0.000000000000000000, 0.000000000000000000, 0.000000000000000000 ) ) ;
#388 = ORIENTED_EDGE ( 'NONE', *, *, #110, .T. ) ;
#389 = AXIS2_PLACEMENT_3D ( 'NONE', #213, #393, #366 ) ;
#390 = EDGE_LOOP ( 'NONE', ( #67, #131 ) ) ;
#391 = DIRECTION ( 'NONE',  ( -1.000000000000000000, -0.000000000000000000, -0.000000000000000000 ) ) ;
#392 = CIRCLE ( 'NONE', #289, 16.25000000000000000 ) ;
#393 = DIRECTION ( 'NONE',  ( -1.000000000000000000, -0.000000000000000000, -0.000000000000000000 ) ) ;
#394 = CARTESIAN_POINT ( 'NONE',  ( 0.000000000000000000, 0.000000000000000000, 0.000000000000000000 ) ) ;
#395 = EDGE_CURVE ( 'NONE', #304, #405, #64, .T. ) ;
#396 = FACE_OUTER_BOUND ( 'NONE', #5, .T. ) ;
#397 = AXIS2_PLACEMENT_3D ( 'NONE', #314, #372, #307 ) ;
#398 = FACE_OUTER_BOUND ( 'NONE', #39, .T. ) ;
#399 = LINE ( 'NONE', #375, #401 ) ;
#400 = DIRECTION ( 'NONE',  ( -1.000000000000000000, -0.000000000000000000, -0.000000000000000000 ) ) ;
#401 = VECTOR ( 'NONE', #25, 1000.000000000000000 ) ;
#402 = CARTESIAN_POINT ( 'NONE',  ( 0.000000000000000000, 0.000000000000000000, 0.000000000000000000 ) ) ;
#403 = CARTESIAN_POINT ( 'NONE',  ( 0.000000000000000000, 7.239499553159578909E-16, -5.911500000000000199 ) ) ;
#404 = PERSON_AND_ORGANIZATION_ROLE ( 'classification_officer' ) ;
#405 = VERTEX_POINT ( 'NONE', #283 ) ;
#406 = ORIENTED_EDGE ( 'NONE', *, *, #209, .F. ) ;
#407 = EDGE_CURVE ( 'NONE', #298, #103, #349, .T. ) ;
#408 = ORIENTED_EDGE ( 'NONE', *, *, #162, .F. ) ;
#409 = PERSON_AND_ORGANIZATION_ROLE ( 'design_supplier' ) ;
ENDSEC;
END-ISO-10303-21;
