ISO-10303-21;
HEADER;
FILE_DESCRIPTION (( 'STEP AP203' ),
    '1' );
FILE_NAME ('connector_front.STEP',
    '2022-03-29T17:23:33',
    ( '' ),
    ( '' ),
    'SwSTEP 2.0',
    'SolidWorks 2020',
    '' );
FILE_SCHEMA (( 'CONFIG_CONTROL_DESIGN' ));
ENDSEC;

DATA;
#1 = EDGE_LOOP ( 'NONE', ( #185, #271, #115, #46 ) ) ;
#2 = AXIS2_PLACEMENT_3D ( 'NONE', #132, #282, #235 ) ;
#3 =( GEOMETRIC_REPRESENTATION_CONTEXT ( 3 ) GLOBAL_UNCERTAINTY_ASSIGNED_CONTEXT ( ( #149 ) ) GLOBAL_UNIT_ASSIGNED_CONTEXT ( ( #11, #32, #220 ) ) REPRESENTATION_CONTEXT ( 'NONE', 'WORKASPACE' ) );
#4 = CYLINDRICAL_SURFACE ( 'NONE', #173, 7.500000000000000000 ) ;
#5 = ORIENTED_EDGE ( 'NONE', *, *, #275, .F. ) ;
#6 = EDGE_CURVE ( 'NONE', #60, #283, #206, .T. ) ;
#7 = CALENDAR_DATE ( 2022, 29, 3 ) ;
#8 = EDGE_LOOP ( 'NONE', ( #102, #302, #230, #14 ) ) ;
#9 = CIRCLE ( 'NONE', #280, 10.50000000000000000 ) ;
#10 = MECHANICAL_CONTEXT ( 'NONE', #112, 'mechanical' ) ;
#11 =( LENGTH_UNIT ( ) NAMED_UNIT ( * ) SI_UNIT ( .MILLI., .METRE. ) );
#12 = EDGE_CURVE ( 'NONE', #306, #261, #142, .T. ) ;
#13 = CARTESIAN_POINT ( 'NONE',  ( 0.000000000000000000, 0.000000000000000000, 0.000000000000000000 ) ) ;
#14 = ORIENTED_EDGE ( 'NONE', *, *, #285, .F. ) ;
#15 = AXIS2_PLACEMENT_3D ( 'NONE', #248, #179, #202 ) ;
#16 = DIRECTION ( 'NONE',  ( -1.000000000000000000, -0.000000000000000000, -0.000000000000000000 ) ) ;
#17 = CYLINDRICAL_SURFACE ( 'NONE', #324, 10.50000000000000000 ) ;
#18 = PRODUCT_DEFINITION_FORMATION_WITH_SPECIFIED_SOURCE ( 'ANY', '', #39, .NOT_KNOWN. ) ;
#19 = EDGE_CURVE ( 'NONE', #283, #193, #221, .T. ) ;
#20 = CALENDAR_DATE ( 2022, 29, 3 ) ;
#21 = VECTOR ( 'NONE', #329, 1000.000000000000000 ) ;
#22 = DIRECTION ( 'NONE',  ( -1.000000000000000000, -0.000000000000000000, -0.000000000000000000 ) ) ;
#23 = EDGE_LOOP ( 'NONE', ( #291, #313, #105, #281 ) ) ;
#24 = FACE_OUTER_BOUND ( 'NONE', #184, .T. ) ;
#25 = DIRECTION ( 'NONE',  ( -1.000000000000000000, -0.000000000000000000, -0.000000000000000000 ) ) ;
#26 = AXIS2_PLACEMENT_3D ( 'NONE', #273, #16, #119 ) ;
#27 = APPLICATION_CONTEXT ( 'configuration controlled 3d designs of mechanical parts and assemblies' ) ;
#28 = CARTESIAN_POINT ( 'NONE',  ( 19.99999999999999645, 0.000000000000000000, 7.499999999999999112 ) ) ;
#29 = VERTEX_POINT ( 'NONE', #311 ) ;
#30 = APPROVAL_STATUS ( 'not_yet_approved' ) ;
#31 = FACE_BOUND ( 'NONE', #259, .T. ) ;
#32 =( NAMED_UNIT ( * ) PLANE_ANGLE_UNIT ( ) SI_UNIT ( $, .RADIAN. ) );
#33 = ADVANCED_BREP_SHAPE_REPRESENTATION ( 'connector_front', ( #244, #58 ), #3 ) ;
#34 = LINE ( 'NONE', #215, #76 ) ;
#35 = AXIS2_PLACEMENT_3D ( 'NONE', #38, #252, #67 ) ;
#36 = DATE_AND_TIME ( #65, #277 ) ;
#37 = ORIENTED_EDGE ( 'NONE', *, *, #178, .T. ) ;
#38 = CARTESIAN_POINT ( 'NONE',  ( 0.000000000000000000, 0.000000000000000000, 0.000000000000000000 ) ) ;
#39 = PRODUCT ( 'connector_front', 'connector_front', '', ( #10 ) ) ;
#40 = APPROVAL_ROLE ( '' ) ;
#41 = LOCAL_TIME ( 10, 23, 33.00000000000000000, #71 ) ;
#42 = FACE_OUTER_BOUND ( 'NONE', #8, .T. ) ;
#43 = EDGE_CURVE ( 'NONE', #193, #81, #218, .T. ) ;
#44 = AXIS2_PLACEMENT_3D ( 'NONE', #228, #103, #180 ) ;
#45 = DIRECTION ( 'NONE',  ( -1.000000000000000000, -0.000000000000000000, -0.000000000000000000 ) ) ;
#46 = ORIENTED_EDGE ( 'NONE', *, *, #178, .F. ) ;
#47 = CC_DESIGN_PERSON_AND_ORGANIZATION_ASSIGNMENT ( #163, #61, ( #151 ) ) ;
#48 = CARTESIAN_POINT ( 'NONE',  ( 0.000000000000000000, 0.000000000000000000, 0.000000000000000000 ) ) ;
#49 = ORIENTED_EDGE ( 'NONE', *, *, #19, .F. ) ;
#50 = DIRECTION ( 'NONE',  ( -1.000000000000000000, 0.000000000000000000, -0.000000000000000000 ) ) ;
#51 = EDGE_LOOP ( 'NONE', ( #133, #83 ) ) ;
#52 = ADVANCED_FACE ( 'NONE', ( #57 ), #63, .F. ) ;
#53 = EDGE_LOOP ( 'NONE', ( #183, #75 ) ) ;
#54 = AXIS2_PLACEMENT_3D ( 'NONE', #164, #171, #87 ) ;
#55 = DIRECTION ( 'NONE',  ( -1.000000000000000000, -0.000000000000000000, -0.000000000000000000 ) ) ;
#56 = EDGE_LOOP ( 'NONE', ( #256, #37 ) ) ;
#57 = FACE_OUTER_BOUND ( 'NONE', #23, .T. ) ;
#58 = AXIS2_PLACEMENT_3D ( 'NONE', #13, #272, #114 ) ;
#59 = APPLICATION_PROTOCOL_DEFINITION ( 'international standard', 'config_control_design', 1994, #27 ) ;
#60 = VERTEX_POINT ( 'NONE', #266 ) ;
#61 = PERSON_AND_ORGANIZATION_ROLE ( 'creator' ) ;
#62 = APPROVAL ( #192, 'UNSPECIFIED' ) ;
#63 = CYLINDRICAL_SURFACE ( 'NONE', #54, 6.749999999999999112 ) ;
#64 = CIRCLE ( 'NONE', #2, 10.50000000000000000 ) ;
#65 = CALENDAR_DATE ( 2022, 29, 3 ) ;
#66 = COORDINATED_UNIVERSAL_TIME_OFFSET ( 8, 0, .BEHIND. ) ;
#67 = DIRECTION ( 'NONE',  ( 0.000000000000000000, 0.000000000000000000, 1.000000000000000000 ) ) ;
#68 = APPROVAL_ROLE ( '' ) ;
#69 = DATE_AND_TIME ( #20, #304 ) ;
#70 = FACE_OUTER_BOUND ( 'NONE', #135, .T. ) ;
#71 = COORDINATED_UNIVERSAL_TIME_OFFSET ( 8, 0, .BEHIND. ) ;
#72 = ADVANCED_FACE ( 'NONE', ( #31, #166 ), #139, .F. ) ;
#73 = DIRECTION ( 'NONE',  ( 0.000000000000000000, 0.000000000000000000, 1.000000000000000000 ) ) ;
#74 = PRODUCT_RELATED_PRODUCT_CATEGORY ( 'detail', '', ( #39 ) ) ;
#75 = ORIENTED_EDGE ( 'NONE', *, *, #326, .T. ) ;
#76 = VECTOR ( 'NONE', #89, 1000.000000000000000 ) ;
#77 = CARTESIAN_POINT ( 'NONE',  ( 19.99999999999999289, 10.50000000000000000, 0.000000000000000000 ) ) ;
#78 = FACE_BOUND ( 'NONE', #56, .T. ) ;
#79 = ADVANCED_FACE ( 'NONE', ( #70 ), #175, .F. ) ;
#80 = CARTESIAN_POINT ( 'NONE',  ( 19.99999999999998934, 0.000000000000000000, 10.50000000000000000 ) ) ;
#81 = VERTEX_POINT ( 'NONE', #227 ) ;
#82 = DIRECTION ( 'NONE',  ( -0.000000000000000000, 0.000000000000000000, 1.000000000000000000 ) ) ;
#83 = ORIENTED_EDGE ( 'NONE', *, *, #12, .F. ) ;
#84 = PERSON_AND_ORGANIZATION ( #246, #232 ) ;
#85 = EDGE_CURVE ( 'NONE', #283, #60, #299, .T. ) ;
#86 = CARTESIAN_POINT ( 'NONE',  ( 30.00000000000000000, 0.000000000000000000, 0.000000000000000000 ) ) ;
#87 = DIRECTION ( 'NONE',  ( 0.000000000000000000, 0.000000000000000000, 1.000000000000000000 ) ) ;
#88 = CC_DESIGN_PERSON_AND_ORGANIZATION_ASSIGNMENT ( #99, #96, ( #18 ) ) ;
#89 = DIRECTION ( 'NONE',  ( -1.000000000000000000, -0.000000000000000000, -0.000000000000000000 ) ) ;
#90 = VECTOR ( 'NONE', #208, 1000.000000000000000 ) ;
#91 = APPROVAL_PERSON_ORGANIZATION ( #276, #309, #40 ) ;
#92 = PERSON_AND_ORGANIZATION ( #246, #232 ) ;
#93 = ORIENTED_EDGE ( 'NONE', *, *, #264, .F. ) ;
#94 = APPLICATION_PROTOCOL_DEFINITION ( 'international standard', 'config_control_design', 1994, #112 ) ;
#95 = DIRECTION ( 'NONE',  ( 0.000000000000000000, 0.000000000000000000, 1.000000000000000000 ) ) ;
#96 = PERSON_AND_ORGANIZATION_ROLE ( 'creator' ) ;
#97 = AXIS2_PLACEMENT_3D ( 'NONE', #241, #217, #315 ) ;
#98 = DIRECTION ( 'NONE',  ( 0.000000000000000000, 0.000000000000000000, 1.000000000000000000 ) ) ;
#99 = PERSON_AND_ORGANIZATION ( #246, #232 ) ;
#100 = DIRECTION ( 'NONE',  ( 0.000000000000000000, 0.000000000000000000, 1.000000000000000000 ) ) ;
#101 = CARTESIAN_POINT ( 'NONE',  ( 0.000000000000000000, 1.285879139104720831E-15, -10.50000000000000000 ) ) ;
#102 = ORIENTED_EDGE ( 'NONE', *, *, #264, .T. ) ;
#103 = DIRECTION ( 'NONE',  ( -1.000000000000000000, -0.000000000000000000, -0.000000000000000000 ) ) ;
#104 = ORIENTED_EDGE ( 'NONE', *, *, #6, .T. ) ;
#105 = ORIENTED_EDGE ( 'NONE', *, *, #19, .T. ) ;
#106 = LINE ( 'NONE', #258, #90 ) ;
#107 = EDGE_CURVE ( 'NONE', #308, #263, #159, .T. ) ;
#108 = DATE_TIME_ROLE ( 'creation_date' ) ;
#109 = CIRCLE ( 'NONE', #293, 7.500000000000000000 ) ;
#110 = EDGE_LOOP ( 'NONE', ( #169, #247, #154, #219 ) ) ;
#111 = CC_DESIGN_DATE_AND_TIME_ASSIGNMENT ( #265, #108, ( #151 ) ) ;
#112 = APPLICATION_CONTEXT ( 'configuration controlled 3d designs of mechanical parts and assemblies' ) ;
#113 = CARTESIAN_POINT ( 'NONE',  ( 0.000000000000000000, 0.000000000000000000, 0.000000000000000000 ) ) ;
#114 = DIRECTION ( 'NONE',  ( 1.000000000000000000, 0.000000000000000000, 0.000000000000000000 ) ) ;
#115 = ORIENTED_EDGE ( 'NONE', *, *, #216, .T. ) ;
#116 = ADVANCED_FACE ( 'NONE', ( #42 ), #17, .T. ) ;
#117 = CLOSED_SHELL ( 'NONE', ( #172, #116, #79, #294, #52, #72, #125, #140, #144 ) ) ;
#118 = CARTESIAN_POINT ( 'NONE',  ( 30.00000000000000000, 0.000000000000000000, 6.750000000000000888 ) ) ;
#119 = DIRECTION ( 'NONE',  ( 0.000000000000000000, 0.000000000000000000, 1.000000000000000000 ) ) ;
#120 = CARTESIAN_POINT ( 'NONE',  ( 0.000000000000000000, 0.000000000000000000, 6.749999999999999112 ) ) ;
#121 = CIRCLE ( 'NONE', #122, 10.50000000000000000 ) ;
#122 = AXIS2_PLACEMENT_3D ( 'NONE', #170, #287, #134 ) ;
#123 = CARTESIAN_POINT ( 'NONE',  ( 0.000000000000000000, 0.000000000000000000, 0.000000000000000000 ) ) ;
#124 = PERSON_AND_ORGANIZATION ( #246, #232 ) ;
#125 = ADVANCED_FACE ( 'NONE', ( #199 ), #296, .T. ) ;
#126 = AXIS2_PLACEMENT_3D ( 'NONE', #123, #176, #307 ) ;
#127 = CARTESIAN_POINT ( 'NONE',  ( 30.00000000000000000, 0.000000000000000000, 0.000000000000000000 ) ) ;
#128 = CARTESIAN_POINT ( 'NONE',  ( 19.99999999999998934, 0.000000000000000000, 0.000000000000000000 ) ) ;
#129 = ORIENTED_EDGE ( 'NONE', *, *, #130, .F. ) ;
#130 = EDGE_CURVE ( 'NONE', #284, #243, #106, .T. ) ;
#131 = LINE ( 'NONE', #231, #21 ) ;
#132 = CARTESIAN_POINT ( 'NONE',  ( 0.000000000000000000, 0.000000000000000000, 0.000000000000000000 ) ) ;
#133 = ORIENTED_EDGE ( 'NONE', *, *, #210, .F. ) ;
#134 = DIRECTION ( 'NONE',  ( 0.000000000000000000, 0.000000000000000000, 1.000000000000000000 ) ) ;
#135 = EDGE_LOOP ( 'NONE', ( #236, #234, #209, #49 ) ) ;
#136 = CC_DESIGN_PERSON_AND_ORGANIZATION_ASSIGNMENT ( #124, #295, ( #18 ) ) ;
#137 = CARTESIAN_POINT ( 'NONE',  ( 19.99999999999998934, 1.285879139104720831E-15, -10.50000000000000000 ) ) ;
#138 = CIRCLE ( 'NONE', #320, 10.50000000000000000 ) ;
#139 = PLANE ( 'NONE',  #97 ) ;
#140 = ADVANCED_FACE ( 'NONE', ( #24, #78 ), #325, .F. ) ;
#141 = PERSON_AND_ORGANIZATION ( #246, #232 ) ;
#142 = CIRCLE ( 'NONE', #303, 7.500000000000000000 ) ;
#143 = COORDINATED_UNIVERSAL_TIME_OFFSET ( 8, 0, .BEHIND. ) ;
#144 = ADVANCED_FACE ( 'NONE', ( #211 ), #4, .T. ) ;
#145 = CC_DESIGN_PERSON_AND_ORGANIZATION_ASSIGNMENT ( #177, #278, ( #316 ) ) ;
#146 = AXIS2_PLACEMENT_3D ( 'NONE', #153, #25, #161 ) ;
#147 = CALENDAR_DATE ( 2022, 29, 3 ) ;
#148 = DIRECTION ( 'NONE',  ( -1.000000000000000000, -0.000000000000000000, -0.000000000000000000 ) ) ;
#149 = UNCERTAINTY_MEASURE_WITH_UNIT (LENGTH_MEASURE( 1.000000000000000082E-05 ), #11, 'distance_accuracy_value', 'NONE');
#150 = SECURITY_CLASSIFICATION_LEVEL ( 'unclassified' ) ;
#151 = PRODUCT_DEFINITION ( 'UNKNOWN', '', #18, #249 ) ;
#152 = VECTOR ( 'NONE', #22, 1000.000000000000000 ) ;
#153 = CARTESIAN_POINT ( 'NONE',  ( 0.000000000000000000, 0.000000000000000000, 0.000000000000000000 ) ) ;
#154 = ORIENTED_EDGE ( 'NONE', *, *, #107, .F. ) ;
#155 = FACE_OUTER_BOUND ( 'NONE', #110, .T. ) ;
#156 = ORIENTED_EDGE ( 'NONE', *, *, #326, .F. ) ;
#157 = LINE ( 'NONE', #279, #253 ) ;
#158 = ORIENTED_EDGE ( 'NONE', *, *, #225, .T. ) ;
#159 = CIRCLE ( 'NONE', #15, 7.499999999999999112 ) ;
#160 = EDGE_LOOP ( 'NONE', ( #129, #158, #212, #156 ) ) ;
#161 = DIRECTION ( 'NONE',  ( 0.000000000000000000, 0.000000000000000000, 1.000000000000000000 ) ) ;
#162 = CC_DESIGN_PERSON_AND_ORGANIZATION_ASSIGNMENT ( #141, #270, ( #39 ) ) ;
#163 = PERSON_AND_ORGANIZATION ( #246, #232 ) ;
#164 = CARTESIAN_POINT ( 'NONE',  ( 0.000000000000000000, 0.000000000000000000, 0.000000000000000000 ) ) ;
#165 = FACE_BOUND ( 'NONE', #257, .T. ) ;
#166 = FACE_OUTER_BOUND ( 'NONE', #53, .T. ) ;
#167 = EDGE_CURVE ( 'NONE', #60, #81, #131, .T. ) ;
#168 = DATE_AND_TIME ( #290, #207 ) ;
#169 = ORIENTED_EDGE ( 'NONE', *, *, #210, .T. ) ;
#170 = CARTESIAN_POINT ( 'NONE',  ( 0.000000000000000000, 0.000000000000000000, 0.000000000000000000 ) ) ;
#171 = DIRECTION ( 'NONE',  ( -1.000000000000000000, -0.000000000000000000, -0.000000000000000000 ) ) ;
#172 = ADVANCED_FACE ( 'NONE', ( #155 ), #305, .T. ) ;
#173 = AXIS2_PLACEMENT_3D ( 'NONE', #48, #55, #73 ) ;
#174 = DATE_TIME_ROLE ( 'classification_date' ) ;
#175 = CYLINDRICAL_SURFACE ( 'NONE', #35, 6.749999999999999112 ) ;
#176 = DIRECTION ( 'NONE',  ( -1.000000000000000000, -0.000000000000000000, -0.000000000000000000 ) ) ;
#177 = PERSON_AND_ORGANIZATION ( #246, #232 ) ;
#178 = EDGE_CURVE ( 'NONE', #263, #308, #213, .T. ) ;
#179 = DIRECTION ( 'NONE',  ( -1.000000000000000000, -0.000000000000000000, -0.000000000000000000 ) ) ;
#180 = DIRECTION ( 'NONE',  ( 0.000000000000000000, 0.000000000000000000, 1.000000000000000000 ) ) ;
#181 = CIRCLE ( 'NONE', #223, 6.749999999999996447 ) ;
#182 = CARTESIAN_POINT ( 'NONE',  ( 0.000000000000000000, 0.000000000000000000, 7.500000000000000000 ) ) ;
#183 = ORIENTED_EDGE ( 'NONE', *, *, #189, .T. ) ;
#184 = EDGE_LOOP ( 'NONE', ( #93, #328 ) ) ;
#185 = ORIENTED_EDGE ( 'NONE', *, *, #203, .F. ) ;
#186 = CARTESIAN_POINT ( 'NONE',  ( 30.00000000000000000, 7.500000000000000000, 0.000000000000000000 ) ) ;
#187 = DIRECTION ( 'NONE',  ( -1.000000000000000000, -0.000000000000000000, -0.000000000000000000 ) ) ;
#188 = DIRECTION ( 'NONE',  ( -1.000000000000000000, 0.000000000000000000, -0.000000000000000000 ) ) ;
#189 = EDGE_CURVE ( 'NONE', #29, #243, #64, .T. ) ;
#190 = ORIENTED_EDGE ( 'NONE', *, *, #85, .T. ) ;
#191 = LOCAL_TIME ( 10, 23, 33.00000000000000000, #237 ) ;
#192 = APPROVAL_STATUS ( 'not_yet_approved' ) ;
#193 = VERTEX_POINT ( 'NONE', #262 ) ;
#194 = COORDINATED_UNIVERSAL_TIME_OFFSET ( 8, 0, .BEHIND. ) ;
#195 = APPROVAL_DATE_TIME ( #69, #309 ) ;
#196 = APPROVAL ( #30, 'UNSPECIFIED' ) ;
#197 = CC_DESIGN_SECURITY_CLASSIFICATION ( #316, ( #18 ) ) ;
#198 = SHAPE_DEFINITION_REPRESENTATION ( #300, #33 ) ;
#199 = FACE_OUTER_BOUND ( 'NONE', #160, .T. ) ;
#200 = CARTESIAN_POINT ( 'NONE',  ( 30.00000000000000000, 0.000000000000000000, 0.000000000000000000 ) ) ;
#201 = AXIS2_PLACEMENT_3D ( 'NONE', #113, #239, #95 ) ;
#202 = DIRECTION ( 'NONE',  ( 0.000000000000000000, 0.000000000000000000, 1.000000000000000000 ) ) ;
#203 = EDGE_CURVE ( 'NONE', #306, #263, #157, .T. ) ;
#204 = CARTESIAN_POINT ( 'NONE',  ( 30.00000000000000000, 0.000000000000000000, 7.500000000000000000 ) ) ;
#205 = VERTEX_POINT ( 'NONE', #80 ) ;
#206 = CIRCLE ( 'NONE', #26, 6.750000000000000888 ) ;
#207 = LOCAL_TIME ( 10, 23, 33.00000000000000000, #194 ) ;
#208 = DIRECTION ( 'NONE',  ( -1.000000000000000000, -0.000000000000000000, -0.000000000000000000 ) ) ;
#209 = ORIENTED_EDGE ( 'NONE', *, *, #275, .T. ) ;
#210 = EDGE_CURVE ( 'NONE', #261, #306, #109, .T. ) ;
#211 = FACE_OUTER_BOUND ( 'NONE', #1, .T. ) ;
#212 = ORIENTED_EDGE ( 'NONE', *, *, #285, .T. ) ;
#213 = CIRCLE ( 'NONE', #44, 7.499999999999999112 ) ;
#214 = CARTESIAN_POINT ( 'NONE',  ( 19.99999999999998934, 0.000000000000000000, 0.000000000000000000 ) ) ;
#215 = CARTESIAN_POINT ( 'NONE',  ( 0.000000000000000000, 0.000000000000000000, 10.50000000000000000 ) ) ;
#216 = EDGE_CURVE ( 'NONE', #261, #308, #255, .T. ) ;
#217 = DIRECTION ( 'NONE',  ( 1.000000000000000000, 0.000000000000000000, 0.000000000000000000 ) ) ;
#218 = CIRCLE ( 'NONE', #201, 6.749999999999996447 ) ;
#219 = ORIENTED_EDGE ( 'NONE', *, *, #216, .F. ) ;
#220 =( NAMED_UNIT ( * ) SI_UNIT ( $, .STERADIAN. ) SOLID_ANGLE_UNIT ( ) );
#221 = LINE ( 'NONE', #120, #260 ) ;
#222 = CARTESIAN_POINT ( 'NONE',  ( 0.000000000000000000, 0.000000000000000000, 0.000000000000000000 ) ) ;
#223 = AXIS2_PLACEMENT_3D ( 'NONE', #238, #317, #314 ) ;
#224 = APPROVAL_PERSON_ORGANIZATION ( #92, #62, #318 ) ;
#225 = EDGE_CURVE ( 'NONE', #284, #205, #9, .T. ) ;
#226 = APPROVAL_STATUS ( 'not_yet_approved' ) ;
#227 = CARTESIAN_POINT ( 'NONE',  ( 0.000000000000000000, 8.266365894244632361E-16, -6.749999999999996447 ) ) ;
#228 = CARTESIAN_POINT ( 'NONE',  ( 19.99999999999999645, 0.000000000000000000, 0.000000000000000000 ) ) ;
#229 = DIRECTION ( 'NONE',  ( -1.000000000000000000, -0.000000000000000000, -0.000000000000000000 ) ) ;
#230 = ORIENTED_EDGE ( 'NONE', *, *, #189, .F. ) ;
#231 = CARTESIAN_POINT ( 'NONE',  ( 0.000000000000000000, 8.266365894244633347E-16, -6.749999999999999112 ) ) ;
#232 = ORGANIZATION ( 'UNSPECIFIED', 'UNSPECIFIED', '' ) ;
#233 = DIRECTION ( 'NONE',  ( -1.000000000000000000, -0.000000000000000000, -0.000000000000000000 ) ) ;
#234 = ORIENTED_EDGE ( 'NONE', *, *, #167, .T. ) ;
#235 = DIRECTION ( 'NONE',  ( 0.000000000000000000, 0.000000000000000000, 1.000000000000000000 ) ) ;
#236 = ORIENTED_EDGE ( 'NONE', *, *, #6, .F. ) ;
#237 = COORDINATED_UNIVERSAL_TIME_OFFSET ( 8, 0, .BEHIND. ) ;
#238 = CARTESIAN_POINT ( 'NONE',  ( 0.000000000000000000, 0.000000000000000000, 0.000000000000000000 ) ) ;
#239 = DIRECTION ( 'NONE',  ( -1.000000000000000000, -0.000000000000000000, -0.000000000000000000 ) ) ;
#240 = FACE_OUTER_BOUND ( 'NONE', #51, .T. ) ;
#241 = CARTESIAN_POINT ( 'NONE',  ( 0.000000000000000000, 6.749999999999996447, 0.000000000000000000 ) ) ;
#242 = CARTESIAN_POINT ( 'NONE',  ( 30.00000000000000000, 9.184850993605147944E-16, -7.500000000000000000 ) ) ;
#243 = VERTEX_POINT ( 'NONE', #101 ) ;
#244 = MANIFOLD_SOLID_BREP ( 'Revolve1', #117 ) ;
#245 = DIRECTION ( 'NONE',  ( -0.000000000000000000, 0.000000000000000000, 1.000000000000000000 ) ) ;
#246 = PERSON ( 'UNSPECIFIED', 'UNSPECIFIED', 'UNSPECIFIED', ('UNSPECIFIED'), ('UNSPECIFIED'), ('UNSPECIFIED') ) ;
#247 = ORIENTED_EDGE ( 'NONE', *, *, #203, .T. ) ;
#248 = CARTESIAN_POINT ( 'NONE',  ( 19.99999999999999645, 0.000000000000000000, 0.000000000000000000 ) ) ;
#249 = DESIGN_CONTEXT ( 'detailed design', #27, 'design' ) ;
#250 = AXIS2_PLACEMENT_3D ( 'NONE', #200, #148, #322 ) ;
#251 = CC_DESIGN_APPROVAL ( #62, ( #151 ) ) ;
#252 = DIRECTION ( 'NONE',  ( -1.000000000000000000, -0.000000000000000000, -0.000000000000000000 ) ) ;
#253 = VECTOR ( 'NONE', #233, 1000.000000000000000 ) ;
#254 = CC_DESIGN_APPROVAL ( #309, ( #316 ) ) ;
#255 = LINE ( 'NONE', #182, #152 ) ;
#256 = ORIENTED_EDGE ( 'NONE', *, *, #107, .T. ) ;
#257 = EDGE_LOOP ( 'NONE', ( #190, #104 ) ) ;
#258 = CARTESIAN_POINT ( 'NONE',  ( 0.000000000000000000, 1.285879139104720831E-15, -10.50000000000000000 ) ) ;
#259 = EDGE_LOOP ( 'NONE', ( #286, #5 ) ) ;
#260 = VECTOR ( 'NONE', #319, 1000.000000000000000 ) ;
#261 = VERTEX_POINT ( 'NONE', #204 ) ;
#262 = CARTESIAN_POINT ( 'NONE',  ( 0.000000000000000000, 0.000000000000000000, 6.749999999999996447 ) ) ;
#263 = VERTEX_POINT ( 'NONE', #301 ) ;
#264 = EDGE_CURVE ( 'NONE', #205, #284, #138, .T. ) ;
#265 = DATE_AND_TIME ( #7, #191 ) ;
#266 = CARTESIAN_POINT ( 'NONE',  ( 30.00000000000000000, 8.266365894244635319E-16, -6.750000000000000888 ) ) ;
#267 = AXIS2_PLACEMENT_3D ( 'NONE', #186, #188, #245 ) ;
#268 = CC_DESIGN_APPROVAL ( #196, ( #18 ) ) ;
#269 = DIRECTION ( 'NONE',  ( 0.000000000000000000, 0.000000000000000000, 1.000000000000000000 ) ) ;
#270 = PERSON_AND_ORGANIZATION_ROLE ( 'design_owner' ) ;
#271 = ORIENTED_EDGE ( 'NONE', *, *, #12, .T. ) ;
#272 = DIRECTION ( 'NONE',  ( 0.000000000000000000, 0.000000000000000000, 1.000000000000000000 ) ) ;
#273 = CARTESIAN_POINT ( 'NONE',  ( 30.00000000000000000, 0.000000000000000000, 0.000000000000000000 ) ) ;
#274 = AXIS2_PLACEMENT_3D ( 'NONE', #77, #50, #82 ) ;
#275 = EDGE_CURVE ( 'NONE', #81, #193, #181, .T. ) ;
#276 = PERSON_AND_ORGANIZATION ( #246, #232 ) ;
#277 = LOCAL_TIME ( 10, 23, 33.00000000000000000, #66 ) ;
#278 = PERSON_AND_ORGANIZATION_ROLE ( 'classification_officer' ) ;
#279 = CARTESIAN_POINT ( 'NONE',  ( 0.000000000000000000, 9.184850993605147944E-16, -7.500000000000000000 ) ) ;
#280 = AXIS2_PLACEMENT_3D ( 'NONE', #128, #229, #327 ) ;
#281 = ORIENTED_EDGE ( 'NONE', *, *, #43, .T. ) ;
#282 = DIRECTION ( 'NONE',  ( -1.000000000000000000, -0.000000000000000000, -0.000000000000000000 ) ) ;
#283 = VERTEX_POINT ( 'NONE', #118 ) ;
#284 = VERTEX_POINT ( 'NONE', #137 ) ;
#285 = EDGE_CURVE ( 'NONE', #205, #29, #34, .T. ) ;
#286 = ORIENTED_EDGE ( 'NONE', *, *, #43, .F. ) ;
#287 = DIRECTION ( 'NONE',  ( -1.000000000000000000, -0.000000000000000000, -0.000000000000000000 ) ) ;
#288 = APPROVAL_PERSON_ORGANIZATION ( #84, #196, #68 ) ;
#289 = PLANE ( 'NONE',  #267 ) ;
#290 = CALENDAR_DATE ( 2022, 29, 3 ) ;
#291 = ORIENTED_EDGE ( 'NONE', *, *, #167, .F. ) ;
#292 = APPROVAL_DATE_TIME ( #168, #62 ) ;
#293 = AXIS2_PLACEMENT_3D ( 'NONE', #127, #45, #100 ) ;
#294 = ADVANCED_FACE ( 'NONE', ( #240, #165 ), #289, .F. ) ;
#295 = PERSON_AND_ORGANIZATION_ROLE ( 'design_supplier' ) ;
#296 = CYLINDRICAL_SURFACE ( 'NONE', #126, 10.50000000000000000 ) ;
#297 = CC_DESIGN_DATE_AND_TIME_ASSIGNMENT ( #298, #174, ( #316 ) ) ;
#298 = DATE_AND_TIME ( #147, #41 ) ;
#299 = CIRCLE ( 'NONE', #250, 6.750000000000000888 ) ;
#300 = PRODUCT_DEFINITION_SHAPE ( 'NONE', 'NONE',  #151 ) ;
#301 = CARTESIAN_POINT ( 'NONE',  ( 19.99999999999999645, 9.184850993605145972E-16, -7.499999999999999112 ) ) ;
#302 = ORIENTED_EDGE ( 'NONE', *, *, #130, .T. ) ;
#303 = AXIS2_PLACEMENT_3D ( 'NONE', #86, #187, #269 ) ;
#304 = LOCAL_TIME ( 10, 23, 33.00000000000000000, #143 ) ;
#305 = CYLINDRICAL_SURFACE ( 'NONE', #146, 7.500000000000000000 ) ;
#306 = VERTEX_POINT ( 'NONE', #242 ) ;
#307 = DIRECTION ( 'NONE',  ( 0.000000000000000000, 0.000000000000000000, 1.000000000000000000 ) ) ;
#308 = VERTEX_POINT ( 'NONE', #28 ) ;
#309 = APPROVAL ( #226, 'UNSPECIFIED' ) ;
#310 = DIRECTION ( 'NONE',  ( -1.000000000000000000, -0.000000000000000000, -0.000000000000000000 ) ) ;
#311 = CARTESIAN_POINT ( 'NONE',  ( 0.000000000000000000, 0.000000000000000000, 10.50000000000000000 ) ) ;
#312 = DIRECTION ( 'NONE',  ( 0.000000000000000000, 0.000000000000000000, 1.000000000000000000 ) ) ;
#313 = ORIENTED_EDGE ( 'NONE', *, *, #85, .F. ) ;
#314 = DIRECTION ( 'NONE',  ( 0.000000000000000000, 0.000000000000000000, 1.000000000000000000 ) ) ;
#315 = DIRECTION ( 'NONE',  ( 0.000000000000000000, 0.000000000000000000, -1.000000000000000000 ) ) ;
#316 = SECURITY_CLASSIFICATION ( '', '', #150 ) ;
#317 = DIRECTION ( 'NONE',  ( -1.000000000000000000, -0.000000000000000000, -0.000000000000000000 ) ) ;
#318 = APPROVAL_ROLE ( '' ) ;
#319 = DIRECTION ( 'NONE',  ( -1.000000000000000000, -0.000000000000000000, -0.000000000000000000 ) ) ;
#320 = AXIS2_PLACEMENT_3D ( 'NONE', #214, #310, #312 ) ;
#321 = DIRECTION ( 'NONE',  ( -1.000000000000000000, -0.000000000000000000, -0.000000000000000000 ) ) ;
#322 = DIRECTION ( 'NONE',  ( 0.000000000000000000, 0.000000000000000000, 1.000000000000000000 ) ) ;
#323 = APPROVAL_DATE_TIME ( #36, #196 ) ;
#324 = AXIS2_PLACEMENT_3D ( 'NONE', #222, #321, #98 ) ;
#325 = PLANE ( 'NONE',  #274 ) ;
#326 = EDGE_CURVE ( 'NONE', #243, #29, #121, .T. ) ;
#327 = DIRECTION ( 'NONE',  ( 0.000000000000000000, 0.000000000000000000, 1.000000000000000000 ) ) ;
#328 = ORIENTED_EDGE ( 'NONE', *, *, #225, .F. ) ;
#329 = DIRECTION ( 'NONE',  ( -1.000000000000000000, -0.000000000000000000, -0.000000000000000000 ) ) ;
ENDSEC;
END-ISO-10303-21;
