ISO-10303-21;
HEADER;

FILE_DESCRIPTION(
/* description */ ('VariCAD 2020-1.05 AP-214'),
/* implementation_level */ '2;1');

FILE_NAME(
/* name */ 'tulipe Axe ar.stp',
/* time_stamp */ '2022-03-13T16:48:45+01:00',
/* author */ (''),
/* organization */ (''),
/* preprocessor_version */ 'VariCAD 2020-1.05',
/* originating_system */ 'VariCAD 2020-1.05; kernel version (20180118)',
/* authorisation */ '');

FILE_SCHEMA(('AUTOMOTIVE_DESIGN'));
ENDSEC;

DATA;
#10=MECHANICAL_DESIGN_GEOMETRIC_PRESENTATION_REPRESENTATION('',(#161),#518);
#11=CONTEXT_DEPENDENT_SHAPE_REPRESENTATION(#13,#275);
#12=NEXT_ASSEMBLY_USAGE_OCCURRENCE('','','',#276,#277,'');
#13=(
REPRESENTATION_RELATIONSHIP('','',#290,#291)
REPRESENTATION_RELATIONSHIP_WITH_TRANSFORMATION(#14)
SHAPE_REPRESENTATION_RELATIONSHIP()
);
#14=ITEM_DEFINED_TRANSFORMATION('','',#338,#293);
#15=SHAPE_REPRESENTATION_RELATIONSHIP('','',#291,#16);
#16=ADVANCED_BREP_SHAPE_REPRESENTATION('',(#17,#337),#517);
#17=MANIFOLD_SOLID_BREP('',#18);
#18=CLOSED_SHELL('',(#33,#34,#35,#36,#37,#38,#39,#40,#41,#42,#43,#44,#45,#46,
#47,#48,#49));
#19=FACE_BOUND('',#77,.F.);
#20=FACE_BOUND('',#80,.F.);
#21=FACE_BOUND('',#83,.F.);
#22=PLANE('',#330);
#23=PLANE('',#332);
#24=PLANE('',#334);
#25=CYLINDRICAL_SURFACE('',#322,19.2499999999998);
#26=CYLINDRICAL_SURFACE('',#323,14.5);
#27=CYLINDRICAL_SURFACE('',#324,9.99999999999997);
#28=CYLINDRICAL_SURFACE('',#325,16.25);
#29=CYLINDRICAL_SURFACE('',#329,19.2499999999998);
#30=CYLINDRICAL_SURFACE('',#331,14.5);
#31=CYLINDRICAL_SURFACE('',#333,9.99999999999997);
#32=CYLINDRICAL_SURFACE('',#335,16.25);
#33=ADVANCED_FACE('',(#50),#155,.T.);
#34=ADVANCED_FACE('',(#51),#156,.F.);
#35=ADVANCED_FACE('',(#52),#25,.T.);
#36=ADVANCED_FACE('',(#53),#26,.F.);
#37=ADVANCED_FACE('',(#54),#27,.F.);
#38=ADVANCED_FACE('',(#55),#28,.F.);
#39=ADVANCED_FACE('',(#56),#157,.T.);
#40=ADVANCED_FACE('',(#57),#158,.T.);
#41=ADVANCED_FACE('',(#58),#159,.F.);
#42=ADVANCED_FACE('',(#59),#29,.T.);
#43=ADVANCED_FACE('',(#19,#60),#22,.T.);
#44=ADVANCED_FACE('',(#61),#30,.F.);
#45=ADVANCED_FACE('',(#20,#62),#23,.T.);
#46=ADVANCED_FACE('',(#63),#31,.F.);
#47=ADVANCED_FACE('',(#21,#64),#24,.T.);
#48=ADVANCED_FACE('',(#65),#32,.F.);
#49=ADVANCED_FACE('',(#66),#160,.T.);
#50=FACE_OUTER_BOUND('',#67,.F.);
#51=FACE_OUTER_BOUND('',#68,.F.);
#52=FACE_OUTER_BOUND('',#69,.F.);
#53=FACE_OUTER_BOUND('',#70,.F.);
#54=FACE_OUTER_BOUND('',#71,.F.);
#55=FACE_OUTER_BOUND('',#72,.F.);
#56=FACE_OUTER_BOUND('',#73,.F.);
#57=FACE_OUTER_BOUND('',#74,.F.);
#58=FACE_OUTER_BOUND('',#75,.F.);
#59=FACE_OUTER_BOUND('',#76,.F.);
#60=FACE_OUTER_BOUND('',#78,.F.);
#61=FACE_OUTER_BOUND('',#79,.F.);
#62=FACE_OUTER_BOUND('',#81,.F.);
#63=FACE_OUTER_BOUND('',#82,.F.);
#64=FACE_OUTER_BOUND('',#84,.F.);
#65=FACE_OUTER_BOUND('',#85,.F.);
#66=FACE_OUTER_BOUND('',#86,.F.);
#67=EDGE_LOOP('',(#87,#88,#89,#90));
#68=EDGE_LOOP('',(#91,#92,#93,#94));
#69=EDGE_LOOP('',(#95,#96,#97,#98));
#70=EDGE_LOOP('',(#99,#100,#101,#102));
#71=EDGE_LOOP('',(#103,#104,#105,#106));
#72=EDGE_LOOP('',(#107,#108,#109,#110));
#73=EDGE_LOOP('',(#111,#112,#113,#114));
#74=EDGE_LOOP('',(#115,#116,#117,#118));
#75=EDGE_LOOP('',(#119,#120,#121,#122));
#76=EDGE_LOOP('',(#123,#124,#125,#126));
#77=EDGE_LOOP('',(#127,#128));
#78=EDGE_LOOP('',(#129,#130));
#79=EDGE_LOOP('',(#131,#132,#133,#134));
#80=EDGE_LOOP('',(#135,#136));
#81=EDGE_LOOP('',(#137,#138));
#82=EDGE_LOOP('',(#139,#140,#141,#142));
#83=EDGE_LOOP('',(#143,#144));
#84=EDGE_LOOP('',(#145,#146));
#85=EDGE_LOOP('',(#147,#148,#149,#150));
#86=EDGE_LOOP('',(#151,#152,#153,#154));
#87=ORIENTED_EDGE('',*,*,#185,.T.);
#88=ORIENTED_EDGE('',*,*,#196,.F.);
#89=ORIENTED_EDGE('',*,*,#194,.F.);
#90=ORIENTED_EDGE('',*,*,#195,.F.);
#91=ORIENTED_EDGE('',*,*,#185,.F.);
#92=ORIENTED_EDGE('',*,*,#197,.T.);
#93=ORIENTED_EDGE('',*,*,#186,.T.);
#94=ORIENTED_EDGE('',*,*,#198,.T.);
#95=ORIENTED_EDGE('',*,*,#186,.F.);
#96=ORIENTED_EDGE('',*,*,#199,.F.);
#97=ORIENTED_EDGE('',*,*,#187,.T.);
#98=ORIENTED_EDGE('',*,*,#200,.T.);
#99=ORIENTED_EDGE('',*,*,#188,.F.);
#100=ORIENTED_EDGE('',*,*,#201,.F.);
#101=ORIENTED_EDGE('',*,*,#189,.T.);
#102=ORIENTED_EDGE('',*,*,#202,.T.);
#103=ORIENTED_EDGE('',*,*,#190,.F.);
#104=ORIENTED_EDGE('',*,*,#203,.F.);
#105=ORIENTED_EDGE('',*,*,#191,.F.);
#106=ORIENTED_EDGE('',*,*,#204,.T.);
#107=ORIENTED_EDGE('',*,*,#192,.T.);
#108=ORIENTED_EDGE('',*,*,#205,.F.);
#109=ORIENTED_EDGE('',*,*,#193,.T.);
#110=ORIENTED_EDGE('',*,*,#206,.T.);
#111=ORIENTED_EDGE('',*,*,#193,.F.);
#112=ORIENTED_EDGE('',*,*,#207,.F.);
#113=ORIENTED_EDGE('',*,*,#194,.T.);
#114=ORIENTED_EDGE('',*,*,#208,.F.);
#115=ORIENTED_EDGE('',*,*,#195,.T.);
#116=ORIENTED_EDGE('',*,*,#218,.F.);
#117=ORIENTED_EDGE('',*,*,#196,.T.);
#118=ORIENTED_EDGE('',*,*,#209,.T.);
#119=ORIENTED_EDGE('',*,*,#197,.F.);
#120=ORIENTED_EDGE('',*,*,#209,.F.);
#121=ORIENTED_EDGE('',*,*,#198,.F.);
#122=ORIENTED_EDGE('',*,*,#210,.T.);
#123=ORIENTED_EDGE('',*,*,#199,.T.);
#124=ORIENTED_EDGE('',*,*,#210,.F.);
#125=ORIENTED_EDGE('',*,*,#200,.F.);
#126=ORIENTED_EDGE('',*,*,#211,.T.);
#127=ORIENTED_EDGE('',*,*,#212,.T.);
#128=ORIENTED_EDGE('',*,*,#188,.T.);
#129=ORIENTED_EDGE('',*,*,#211,.F.);
#130=ORIENTED_EDGE('',*,*,#187,.F.);
#131=ORIENTED_EDGE('',*,*,#201,.T.);
#132=ORIENTED_EDGE('',*,*,#212,.F.);
#133=ORIENTED_EDGE('',*,*,#202,.F.);
#134=ORIENTED_EDGE('',*,*,#213,.T.);
#135=ORIENTED_EDGE('',*,*,#214,.T.);
#136=ORIENTED_EDGE('',*,*,#190,.T.);
#137=ORIENTED_EDGE('',*,*,#213,.F.);
#138=ORIENTED_EDGE('',*,*,#189,.F.);
#139=ORIENTED_EDGE('',*,*,#203,.T.);
#140=ORIENTED_EDGE('',*,*,#214,.F.);
#141=ORIENTED_EDGE('',*,*,#204,.F.);
#142=ORIENTED_EDGE('',*,*,#215,.F.);
#143=ORIENTED_EDGE('',*,*,#215,.T.);
#144=ORIENTED_EDGE('',*,*,#191,.T.);
#145=ORIENTED_EDGE('',*,*,#216,.F.);
#146=ORIENTED_EDGE('',*,*,#192,.F.);
#147=ORIENTED_EDGE('',*,*,#205,.T.);
#148=ORIENTED_EDGE('',*,*,#216,.T.);
#149=ORIENTED_EDGE('',*,*,#206,.F.);
#150=ORIENTED_EDGE('',*,*,#217,.T.);
#151=ORIENTED_EDGE('',*,*,#207,.T.);
#152=ORIENTED_EDGE('',*,*,#217,.F.);
#153=ORIENTED_EDGE('',*,*,#208,.T.);
#154=ORIENTED_EDGE('',*,*,#218,.T.);
#155=TOROIDAL_SURFACE('',#320,21.236187178815,1.5000000000002);
#156=TOROIDAL_SURFACE('',#321,79.2062302035702,60.);
#157=TOROIDAL_SURFACE('',#326,78.7370338442166,63.);
#158=TOROIDAL_SURFACE('',#327,21.236187178815,1.5000000000002);
#159=TOROIDAL_SURFACE('',#328,79.2062302035702,60.);
#160=TOROIDAL_SURFACE('',#336,78.7370338442166,63.);
#161=STYLED_ITEM('',(#162),#17);
#162=PRESENTATION_STYLE_ASSIGNMENT((#163));
#163=SURFACE_STYLE_USAGE(.BOTH.,#164);
#164=SURFACE_SIDE_STYLE('',(#165));
#165=SURFACE_STYLE_FILL_AREA(#166);
#166=FILL_AREA_STYLE('',(#167));
#167=FILL_AREA_STYLE_COLOUR('',#168);
#168=COLOUR_RGB('Colour',0.784313725490196,0.784313725490196,0.862745098039216);
#169=LINE('',#477,#177);
#170=LINE('',#478,#178);
#171=LINE('',#479,#179);
#172=LINE('',#480,#180);
#173=LINE('',#481,#181);
#174=LINE('',#482,#182);
#175=LINE('',#483,#183);
#176=LINE('',#484,#184);
#177=VECTOR('',#371,5.50000000000608);
#178=VECTOR('',#372,5.50000000000608);
#179=VECTOR('',#373,1.49999999999994);
#180=VECTOR('',#374,1.49999999999994);
#181=VECTOR('',#375,4.00000000000028);
#182=VECTOR('',#376,4.00000000000028);
#183=VECTOR('',#377,8.99999999999991);
#184=VECTOR('',#378,8.99999999999991);
#185=EDGE_CURVE('',#264,#263,#219,.T.);
#186=EDGE_CURVE('',#262,#261,#220,.T.);
#187=EDGE_CURVE('',#260,#259,#221,.T.);
#188=EDGE_CURVE('',#258,#257,#222,.T.);
#189=EDGE_CURVE('',#256,#255,#223,.T.);
#190=EDGE_CURVE('',#254,#253,#224,.T.);
#191=EDGE_CURVE('',#252,#251,#225,.T.);
#192=EDGE_CURVE('',#250,#249,#226,.T.);
#193=EDGE_CURVE('',#248,#247,#227,.T.);
#194=EDGE_CURVE('',#246,#245,#228,.T.);
#195=EDGE_CURVE('',#264,#246,#229,.T.);
#196=EDGE_CURVE('',#245,#263,#230,.T.);
#197=EDGE_CURVE('',#264,#262,#231,.T.);
#198=EDGE_CURVE('',#261,#263,#232,.T.);
#199=EDGE_CURVE('',#260,#262,#169,.T.);
#200=EDGE_CURVE('',#259,#261,#170,.T.);
#201=EDGE_CURVE('',#256,#258,#171,.T.);
#202=EDGE_CURVE('',#255,#257,#172,.T.);
#203=EDGE_CURVE('',#251,#254,#173,.T.);
#204=EDGE_CURVE('',#252,#253,#174,.T.);
#205=EDGE_CURVE('',#248,#249,#175,.T.);
#206=EDGE_CURVE('',#247,#250,#176,.T.);
#207=EDGE_CURVE('',#246,#248,#233,.T.);
#208=EDGE_CURVE('',#247,#245,#234,.T.);
#209=EDGE_CURVE('',#263,#264,#235,.T.);
#210=EDGE_CURVE('',#261,#262,#236,.T.);
#211=EDGE_CURVE('',#259,#260,#237,.T.);
#212=EDGE_CURVE('',#257,#258,#238,.T.);
#213=EDGE_CURVE('',#255,#256,#239,.T.);
#214=EDGE_CURVE('',#253,#254,#240,.T.);
#215=EDGE_CURVE('',#251,#252,#241,.T.);
#216=EDGE_CURVE('',#249,#250,#242,.T.);
#217=EDGE_CURVE('',#247,#248,#243,.T.);
#218=EDGE_CURVE('',#245,#246,#244,.T.);
#219=CIRCLE('',#294,22.6850759182489);
#220=CIRCLE('',#295,19.25);
#221=CIRCLE('',#296,19.2499999999998);
#222=CIRCLE('',#297,14.5000000000002);
#223=CIRCLE('',#298,14.5);
#224=CIRCLE('',#299,9.99999999999994);
#225=CIRCLE('',#300,10.);
#226=CIRCLE('',#301,16.25);
#227=CIRCLE('',#302,16.25);
#228=CIRCLE('',#303,19.7872984393809);
#229=CIRCLE('',#304,1.5000000000002);
#230=CIRCLE('',#305,1.5000000000002);
#231=CIRCLE('',#306,60.);
#232=CIRCLE('',#307,60.);
#233=CIRCLE('',#308,63.);
#234=CIRCLE('',#309,63.);
#235=CIRCLE('',#310,22.6850759182489);
#236=CIRCLE('',#311,19.25);
#237=CIRCLE('',#312,19.2499999999998);
#238=CIRCLE('',#313,14.5000000000002);
#239=CIRCLE('',#314,14.5);
#240=CIRCLE('',#315,9.99999999999994);
#241=CIRCLE('',#316,10.);
#242=CIRCLE('',#317,16.25);
#243=CIRCLE('',#318,16.25);
#244=CIRCLE('',#319,19.7872984393809);
#245=VERTEX_POINT('',#443);
#246=VERTEX_POINT('',#444);
#247=VERTEX_POINT('',#445);
#248=VERTEX_POINT('',#446);
#249=VERTEX_POINT('',#447);
#250=VERTEX_POINT('',#448);
#251=VERTEX_POINT('',#449);
#252=VERTEX_POINT('',#450);
#253=VERTEX_POINT('',#451);
#254=VERTEX_POINT('',#452);
#255=VERTEX_POINT('',#453);
#256=VERTEX_POINT('',#454);
#257=VERTEX_POINT('',#455);
#258=VERTEX_POINT('',#456);
#259=VERTEX_POINT('',#457);
#260=VERTEX_POINT('',#458);
#261=VERTEX_POINT('',#459);
#262=VERTEX_POINT('',#460);
#263=VERTEX_POINT('',#461);
#264=VERTEX_POINT('',#462);
#265=PRODUCT_CATEGORY_RELATIONSHIP('','',#269,#267);
#266=PRODUCT_CATEGORY_RELATIONSHIP('','',#270,#268);
#267=PRODUCT_RELATED_PRODUCT_CATEGORY('detail','',(#282));
#268=PRODUCT_RELATED_PRODUCT_CATEGORY('detail','',(#283));
#269=PRODUCT_CATEGORY('part','');
#270=PRODUCT_CATEGORY('part','');
#271=SHAPE_DEFINITION_REPRESENTATION(#273,#290);
#272=SHAPE_DEFINITION_REPRESENTATION(#274,#291);
#273=PRODUCT_DEFINITION_SHAPE('','Shape',#276);
#274=PRODUCT_DEFINITION_SHAPE('','Shape',#277);
#275=PRODUCT_DEFINITION_SHAPE('','',#12);
#276=PRODUCT_DEFINITION('','',#278,#280);
#277=PRODUCT_DEFINITION('','',#279,#281);
#278=PRODUCT_DEFINITION_FORMATION('','',#282);
#279=PRODUCT_DEFINITION_FORMATION('','',#283);
#280=PRODUCT_DEFINITION_CONTEXT('part definition',#288,'');
#281=PRODUCT_DEFINITION_CONTEXT('part definition',#289,'');
#282=PRODUCT('tulipe Axe ar','tulipe Axe ar','not specified',(#284));
#283=PRODUCT('','','not specified',(#285));
#284=PRODUCT_CONTEXT('',#288,'mechanical');
#285=PRODUCT_CONTEXT('',#289,'mechanical');
#286=APPLICATION_PROTOCOL_DEFINITION('Draft International Standard',
'automotive_design',1997,#288);
#287=APPLICATION_PROTOCOL_DEFINITION('Draft International Standard',
'automotive_design',1997,#289);
#288=APPLICATION_CONTEXT('automotive design');
#289=APPLICATION_CONTEXT('automotive design');
#290=SHAPE_REPRESENTATION('tulipe Axe ar',(#292,#338),#516);
#291=SHAPE_REPRESENTATION('',(#293),#517);
#292=AXIS2_PLACEMENT_3D('',#441,#339,#340);
#293=AXIS2_PLACEMENT_3D('',#442,#341,#342);
#294=AXIS2_PLACEMENT_3D('',#463,#343,#344);
#295=AXIS2_PLACEMENT_3D('',#464,#345,#346);
#296=AXIS2_PLACEMENT_3D('',#465,#347,#348);
#297=AXIS2_PLACEMENT_3D('',#466,#349,#350);
#298=AXIS2_PLACEMENT_3D('',#467,#351,#352);
#299=AXIS2_PLACEMENT_3D('',#468,#353,#354);
#300=AXIS2_PLACEMENT_3D('',#469,#355,#356);
#301=AXIS2_PLACEMENT_3D('',#470,#357,#358);
#302=AXIS2_PLACEMENT_3D('',#471,#359,#360);
#303=AXIS2_PLACEMENT_3D('',#472,#361,#362);
#304=AXIS2_PLACEMENT_3D('',#473,#363,#364);
#305=AXIS2_PLACEMENT_3D('',#474,#365,#366);
#306=AXIS2_PLACEMENT_3D('',#475,#367,#368);
#307=AXIS2_PLACEMENT_3D('',#476,#369,#370);
#308=AXIS2_PLACEMENT_3D('',#485,#379,#380);
#309=AXIS2_PLACEMENT_3D('',#486,#381,#382);
#310=AXIS2_PLACEMENT_3D('',#487,#383,#384);
#311=AXIS2_PLACEMENT_3D('',#488,#385,#386);
#312=AXIS2_PLACEMENT_3D('',#489,#387,#388);
#313=AXIS2_PLACEMENT_3D('',#490,#389,#390);
#314=AXIS2_PLACEMENT_3D('',#491,#391,#392);
#315=AXIS2_PLACEMENT_3D('',#492,#393,#394);
#316=AXIS2_PLACEMENT_3D('',#493,#395,#396);
#317=AXIS2_PLACEMENT_3D('',#494,#397,#398);
#318=AXIS2_PLACEMENT_3D('',#495,#399,#400);
#319=AXIS2_PLACEMENT_3D('',#496,#401,#402);
#320=AXIS2_PLACEMENT_3D('',#497,#403,#404);
#321=AXIS2_PLACEMENT_3D('',#498,#405,#406);
#322=AXIS2_PLACEMENT_3D('',#499,#407,#408);
#323=AXIS2_PLACEMENT_3D('',#500,#409,#410);
#324=AXIS2_PLACEMENT_3D('',#501,#411,#412);
#325=AXIS2_PLACEMENT_3D('',#502,#413,#414);
#326=AXIS2_PLACEMENT_3D('',#503,#415,#416);
#327=AXIS2_PLACEMENT_3D('',#504,#417,#418);
#328=AXIS2_PLACEMENT_3D('',#505,#419,#420);
#329=AXIS2_PLACEMENT_3D('',#506,#421,#422);
#330=AXIS2_PLACEMENT_3D('',#507,#423,#424);
#331=AXIS2_PLACEMENT_3D('',#508,#425,#426);
#332=AXIS2_PLACEMENT_3D('',#509,#427,#428);
#333=AXIS2_PLACEMENT_3D('',#510,#429,#430);
#334=AXIS2_PLACEMENT_3D('',#511,#431,#432);
#335=AXIS2_PLACEMENT_3D('',#512,#433,#434);
#336=AXIS2_PLACEMENT_3D('',#513,#435,#436);
#337=AXIS2_PLACEMENT_3D('',#514,#437,#438);
#338=AXIS2_PLACEMENT_3D('',#515,#439,#440);
#339=DIRECTION('',(0.,0.,1.));
#340=DIRECTION('',(1.,0.,0.));
#341=DIRECTION('',(0.,0.,1.));
#342=DIRECTION('',(1.,0.,0.));
#343=DIRECTION('',(1.,0.,0.));
#344=DIRECTION('',(0.,0.,1.));
#345=DIRECTION('',(1.,0.,0.));
#346=DIRECTION('',(0.,0.,1.));
#347=DIRECTION('',(1.,0.,0.));
#348=DIRECTION('',(0.,0.,1.));
#349=DIRECTION('',(1.,0.,0.));
#350=DIRECTION('',(0.,0.,1.));
#351=DIRECTION('',(1.,0.,0.));
#352=DIRECTION('',(0.,0.,1.));
#353=DIRECTION('',(1.,0.,0.));
#354=DIRECTION('',(0.,0.,1.));
#355=DIRECTION('',(-1.,0.,0.));
#356=DIRECTION('',(0.,0.,-1.));
#357=DIRECTION('',(-1.,0.,0.));
#358=DIRECTION('',(0.,0.,-1.));
#359=DIRECTION('',(1.,0.,0.));
#360=DIRECTION('',(0.,0.,1.));
#361=DIRECTION('',(1.,0.,0.));
#362=DIRECTION('',(0.,0.,1.));
#363=DIRECTION('',(0.,-1.,0.));
#364=DIRECTION('',(0.258819045102487,0.,0.965925826289078));
#365=DIRECTION('',(0.,-1.,0.));
#366=DIRECTION('',(-0.258819045102487,0.,0.965925826289077));
#367=DIRECTION('',(0.,-1.,0.));
#368=DIRECTION('',(-0.335558869754332,0.,-0.942019238088689));
#369=DIRECTION('',(0.,-1.,0.));
#370=DIRECTION('',(0.0381898029456313,0.,0.999270503392837));
#371=DIRECTION('',(-1.,0.,0.));
#372=DIRECTION('',(-1.,0.,0.));
#373=DIRECTION('',(1.,0.,0.));
#374=DIRECTION('',(1.,0.,0.));
#375=DIRECTION('',(1.,0.,0.));
#376=DIRECTION('',(1.,0.,0.));
#377=DIRECTION('',(1.,0.,0.));
#378=DIRECTION('',(1.,0.,0.));
#379=DIRECTION('',(0.,-1.,0.));
#380=DIRECTION('',(-0.352769946776819,0.,-0.935710085791043));
#381=DIRECTION('',(0.,-1.,0.));
#382=DIRECTION('',(-0.127351256343415,0.,0.991857680066931));
#383=DIRECTION('',(1.,0.,0.));
#384=DIRECTION('',(0.,0.,-1.));
#385=DIRECTION('',(1.,0.,0.));
#386=DIRECTION('',(0.,0.,-1.));
#387=DIRECTION('',(1.,0.,0.));
#388=DIRECTION('',(0.,0.,-1.));
#389=DIRECTION('',(1.,0.,0.));
#390=DIRECTION('',(0.,0.,-1.));
#391=DIRECTION('',(1.,0.,0.));
#392=DIRECTION('',(0.,0.,-1.));
#393=DIRECTION('',(1.,0.,0.));
#394=DIRECTION('',(0.,0.,-1.));
#395=DIRECTION('',(-1.,0.,0.));
#396=DIRECTION('',(0.,0.,1.));
#397=DIRECTION('',(-1.,0.,0.));
#398=DIRECTION('',(0.,0.,1.));
#399=DIRECTION('',(1.,0.,0.));
#400=DIRECTION('',(0.,0.,-1.));
#401=DIRECTION('',(1.,0.,0.));
#402=DIRECTION('',(0.,0.,-1.));
#403=DIRECTION('',(1.,0.,0.));
#404=DIRECTION('',(0.,0.,-1.));
#405=DIRECTION('',(1.,0.,0.));
#406=DIRECTION('',(0.,0.,-1.));
#407=DIRECTION('',(1.,0.,0.));
#408=DIRECTION('',(0.,0.,1.));
#409=DIRECTION('',(1.,0.,0.));
#410=DIRECTION('',(0.,0.,1.));
#411=DIRECTION('',(1.,0.,0.));
#412=DIRECTION('',(0.,0.,1.));
#413=DIRECTION('',(1.,0.,0.));
#414=DIRECTION('',(0.,0.,1.));
#415=DIRECTION('',(1.,0.,0.));
#416=DIRECTION('',(0.,0.,-1.));
#417=DIRECTION('',(1.,0.,0.));
#418=DIRECTION('',(0.,0.,-1.));
#419=DIRECTION('',(1.,0.,0.));
#420=DIRECTION('',(0.,0.,-1.));
#421=DIRECTION('',(1.,0.,0.));
#422=DIRECTION('',(0.,0.,-1.));
#423=DIRECTION('',(1.,0.,0.));
#424=DIRECTION('',(0.,-1.,0.));
#425=DIRECTION('',(1.,0.,0.));
#426=DIRECTION('',(0.,0.,-1.));
#427=DIRECTION('',(1.,0.,0.));
#428=DIRECTION('',(0.,-1.,0.));
#429=DIRECTION('',(1.,0.,0.));
#430=DIRECTION('',(0.,0.,-1.));
#431=DIRECTION('',(-1.,0.,0.));
#432=DIRECTION('',(0.,1.,0.));
#433=DIRECTION('',(1.,0.,0.));
#434=DIRECTION('',(0.,0.,-1.));
#435=DIRECTION('',(1.,0.,0.));
#436=DIRECTION('',(0.,0.,-1.));
#437=DIRECTION('',(0.,0.,1.));
#438=DIRECTION('',(1.,0.,0.));
#439=DIRECTION('',(0.,0.,1.));
#440=DIRECTION('',(1.,0.,0.));
#441=CARTESIAN_POINT('',(0.,0.,0.));
#442=CARTESIAN_POINT('',(0.,0.,0.));
#443=CARTESIAN_POINT('',(-7.77440519240482,0.,-19.787298439381));
#444=CARTESIAN_POINT('',(-7.77440519240482,0.,19.787298439381));
#445=CARTESIAN_POINT('',(6.42697230489989,0.,-16.25));
#446=CARTESIAN_POINT('',(6.42697230489989,0.,16.25));
#447=CARTESIAN_POINT('',(15.4269723048998,0.,16.25));
#448=CARTESIAN_POINT('',(15.4269723048998,0.,-16.25));
#449=CARTESIAN_POINT('',(15.4269723048998,0.,9.99999999999998));
#450=CARTESIAN_POINT('',(15.4269723048998,0.,-10.));
#451=CARTESIAN_POINT('',(19.4269723049001,0.,-9.99999999999994));
#452=CARTESIAN_POINT('',(19.4269723049001,0.,9.99999999999996));
#453=CARTESIAN_POINT('',(19.4269723049001,0.,-14.5));
#454=CARTESIAN_POINT('',(19.4269723049001,0.,14.5));
#455=CARTESIAN_POINT('',(20.9269723049,0.,-14.5000000000001));
#456=CARTESIAN_POINT('',(20.9269723049,0.,14.5000000000001));
#457=CARTESIAN_POINT('',(20.9269723048999,0.,-19.2499999999998));
#458=CARTESIAN_POINT('',(20.9269723048999,0.,19.2499999999998));
#459=CARTESIAN_POINT('',(15.4269723048984,0.,-19.2499999999999));
#460=CARTESIAN_POINT('',(15.4269723048984,0.,19.2499999999999));
#461=CARTESIAN_POINT('',(-6.99794805709798,0.,-22.6850759182489));
#462=CARTESIAN_POINT('',(-6.99794805709799,0.,22.6850759182489));
#463=CARTESIAN_POINT('',(-6.997948057098,0.,0.));
#464=CARTESIAN_POINT('',(15.4269723048999,0.,0.));
#465=CARTESIAN_POINT('',(20.9269723048999,0.,0.));
#466=CARTESIAN_POINT('',(20.9269723049,0.,0.));
#467=CARTESIAN_POINT('',(19.4269723049,0.,0.));
#468=CARTESIAN_POINT('',(19.4269723049001,0.,0.));
#469=CARTESIAN_POINT('',(15.4269723048998,0.,0.));
#470=CARTESIAN_POINT('',(15.4269723048998,0.,0.));
#471=CARTESIAN_POINT('',(6.42697230489989,0.,0.));
#472=CARTESIAN_POINT('',(-7.77440519240457,0.,0.));
#473=CARTESIAN_POINT('',(-7.38617662475178,0.,21.236187178815));
#474=CARTESIAN_POINT('',(-7.38617662475178,0.,-21.236187178815));
#475=CARTESIAN_POINT('',(13.135584128162,0.,79.2062302035702));
#476=CARTESIAN_POINT('',(13.135584128162,0.,-79.2062302035702));
#477=CARTESIAN_POINT('',(20.9269723048999,0.,19.2499999999998));
#478=CARTESIAN_POINT('',(20.9269723048999,0.,-19.2499999999998));
#479=CARTESIAN_POINT('',(19.4269723049001,0.,14.5000000000001));
#480=CARTESIAN_POINT('',(19.4269723049001,0.,-14.5));
#481=CARTESIAN_POINT('',(15.4269723048998,0.,9.99999999999994));
#482=CARTESIAN_POINT('',(15.4269723048998,0.,-10.));
#483=CARTESIAN_POINT('',(6.42697230489989,0.,16.25));
#484=CARTESIAN_POINT('',(6.42697230489989,0.,-16.25));
#485=CARTESIAN_POINT('',(14.450101454535,0.,78.7370338442166));
#486=CARTESIAN_POINT('',(14.450101454535,0.,-78.7370338442166));
#487=CARTESIAN_POINT('',(-6.997948057098,0.,0.));
#488=CARTESIAN_POINT('',(15.4269723048999,0.,0.));
#489=CARTESIAN_POINT('',(20.9269723048999,0.,0.));
#490=CARTESIAN_POINT('',(20.9269723049,0.,0.));
#491=CARTESIAN_POINT('',(19.4269723049,0.,0.));
#492=CARTESIAN_POINT('',(19.4269723049001,0.,0.));
#493=CARTESIAN_POINT('',(15.4269723048998,0.,0.));
#494=CARTESIAN_POINT('',(15.4269723048998,0.,0.));
#495=CARTESIAN_POINT('',(6.42697230489989,0.,0.));
#496=CARTESIAN_POINT('',(-7.77440519240457,0.,0.));
#497=CARTESIAN_POINT('',(-7.38617662475178,0.,0.));
#498=CARTESIAN_POINT('',(13.135584128162,0.,0.));
#499=CARTESIAN_POINT('',(20.9269723048999,0.,0.));
#500=CARTESIAN_POINT('',(19.4269723049001,0.,0.));
#501=CARTESIAN_POINT('',(15.4269723048998,0.,0.));
#502=CARTESIAN_POINT('',(6.42697230489989,0.,0.));
#503=CARTESIAN_POINT('',(14.450101454535,0.,0.));
#504=CARTESIAN_POINT('',(-7.38617662475178,0.,0.));
#505=CARTESIAN_POINT('',(13.135584128162,0.,0.));
#506=CARTESIAN_POINT('',(20.9269723048999,0.,0.));
#507=CARTESIAN_POINT('',(20.9269723049,19.635,19.635));
#508=CARTESIAN_POINT('',(19.4269723049001,0.,0.));
#509=CARTESIAN_POINT('',(19.4269723049001,14.79,14.79));
#510=CARTESIAN_POINT('',(15.4269723048998,0.,0.));
#511=CARTESIAN_POINT('',(15.4269723048998,-16.575,16.575));
#512=CARTESIAN_POINT('',(6.42697230489989,0.,0.));
#513=CARTESIAN_POINT('',(14.450101454535,0.,0.));
#514=CARTESIAN_POINT('',(0.,0.,0.));
#515=CARTESIAN_POINT('',(0.,0.,0.));
#516=(
GEOMETRIC_REPRESENTATION_CONTEXT(3)
GLOBAL_UNCERTAINTY_ASSIGNED_CONTEXT((#519))
GLOBAL_UNIT_ASSIGNED_CONTEXT((#528,#525,#522))
REPRESENTATION_CONTEXT('','')
);
#517=(
GEOMETRIC_REPRESENTATION_CONTEXT(3)
GLOBAL_UNCERTAINTY_ASSIGNED_CONTEXT((#520))
GLOBAL_UNIT_ASSIGNED_CONTEXT((#529,#526,#523))
REPRESENTATION_CONTEXT('','')
);
#518=(
GEOMETRIC_REPRESENTATION_CONTEXT(3)
GLOBAL_UNCERTAINTY_ASSIGNED_CONTEXT((#521))
GLOBAL_UNIT_ASSIGNED_CONTEXT((#530,#527,#524))
REPRESENTATION_CONTEXT('','')
);
#519=UNCERTAINTY_MEASURE_WITH_UNIT(LENGTH_MEASURE(0.001),#528,'TOL_CRV',
'CONFUSED CURVE UNCERTAINTY');
#520=UNCERTAINTY_MEASURE_WITH_UNIT(LENGTH_MEASURE(0.001),#529,'TOL_CRV',
'CONFUSED CURVE UNCERTAINTY');
#521=UNCERTAINTY_MEASURE_WITH_UNIT(LENGTH_MEASURE(0.001),#530,'TOL_CRV',
'CONFUSED CURVE UNCERTAINTY');
#522=(
SI_UNIT($,.STERADIAN.)
SOLID_ANGLE_UNIT()
NAMED_UNIT(*)
);
#523=(
SI_UNIT($,.STERADIAN.)
SOLID_ANGLE_UNIT()
NAMED_UNIT(*)
);
#524=(
SI_UNIT($,.STERADIAN.)
SOLID_ANGLE_UNIT()
NAMED_UNIT(*)
);
#525=(
PLANE_ANGLE_UNIT()
NAMED_UNIT(*)
SI_UNIT($,.RADIAN.)
);
#526=(
PLANE_ANGLE_UNIT()
NAMED_UNIT(*)
SI_UNIT($,.RADIAN.)
);
#527=(
PLANE_ANGLE_UNIT()
NAMED_UNIT(*)
SI_UNIT($,.RADIAN.)
);
#528=(
LENGTH_UNIT()
NAMED_UNIT(*)
SI_UNIT(.MILLI.,.METRE.)
);
#529=(
LENGTH_UNIT()
NAMED_UNIT(*)
SI_UNIT(.MILLI.,.METRE.)
);
#530=(
LENGTH_UNIT()
NAMED_UNIT(*)
SI_UNIT(.MILLI.,.METRE.)
);
ENDSEC;
END-ISO-10303-21;
