ISO-10303-21;
HEADER;
FILE_DESCRIPTION (( 'STEP AP214' ),
    '1' );
FILE_NAME ('Entretoise_11x15x15.STEP',
    '2022-01-14T14:48:50',
    ( '' ),
    ( '' ),
    'SwSTEP 2.0',
    'SolidWorks 2021',
    '' );
FILE_SCHEMA (( 'AUTOMOTIVE_DESIGN' ));
ENDSEC;

DATA;
#1 = CARTESIAN_POINT ( 'NONE',  ( -23.78020900532199988, -26.22708025625093242, 15.00000000000000000 ) ) ;
#2 = ORIENTED_EDGE ( 'NONE', *, *, #60, .F. ) ;
#3 = COLOUR_RGB ( '',0.7921568627450980005, 0.8196078431372548767, 0.9333333333333333481 ) ;
#4 = ORIENTED_EDGE ( 'NONE', *, *, #54, .F. ) ;
#5 = DIRECTION ( 'NONE',  ( -1.000000000000000000, 0.000000000000000000, 0.000000000000000000 ) ) ;
#6 = CYLINDRICAL_SURFACE ( 'NONE', #108, 5.500000000000001776 ) ;
#7 = FACE_OUTER_BOUND ( 'NONE', #155, .T. ) ;
#8 = AXIS2_PLACEMENT_3D ( 'NONE', #29, #156, #191 ) ;
#9 =( NAMED_UNIT ( * ) PLANE_ANGLE_UNIT ( ) SI_UNIT ( $, .RADIAN. ) );
#10 =( GEOMETRIC_REPRESENTATION_CONTEXT ( 3 ) GLOBAL_UNCERTAINTY_ASSIGNED_CONTEXT ( ( #105 ) ) GLOBAL_UNIT_ASSIGNED_CONTEXT ( ( #115, #88, #12 ) ) REPRESENTATION_CONTEXT ( 'NONE', 'WORKASPACE' ) );
#11 = FILL_AREA_STYLE_COLOUR ( '', #3 ) ;
#12 =( NAMED_UNIT ( * ) SI_UNIT ( $, .STERADIAN. ) SOLID_ANGLE_UNIT ( ) );
#13 = VERTEX_POINT ( 'NONE', #163 ) ;
#14 = PRESENTATION_LAYER_ASSIGNMENT (  '', '', ( #167 ) ) ;
#15 = DIRECTION ( 'NONE',  ( -0.000000000000000000, -0.000000000000000000, -1.000000000000000000 ) ) ;
#16 = CARTESIAN_POINT ( 'NONE',  ( -23.78020900532199988, -26.22708025625093242, 0.000000000000000000 ) ) ;
#17 = EDGE_CURVE ( 'NONE', #13, #197, #33, .T. ) ;
#18 = AXIS2_PLACEMENT_3D ( 'NONE', #209, #113, #139 ) ;
#19 = AXIS2_PLACEMENT_3D ( 'NONE', #201, #39, #148 ) ;
#20 = DIRECTION ( 'NONE',  ( 0.000000000000000000, 0.000000000000000000, 1.000000000000000000 ) ) ;
#21 = LINE ( 'NONE', #107, #150 ) ;
#22 =( GEOMETRIC_REPRESENTATION_CONTEXT ( 3 ) GLOBAL_UNCERTAINTY_ASSIGNED_CONTEXT ( ( #202 ) ) GLOBAL_UNIT_ASSIGNED_CONTEXT ( ( #186, #9, #71 ) ) REPRESENTATION_CONTEXT ( 'NONE', 'WORKASPACE' ) );
#23 =( NAMED_UNIT ( * ) SI_UNIT ( $, .STERADIAN. ) SOLID_ANGLE_UNIT ( ) );
#24 = APPLICATION_CONTEXT ( 'automotive_design' ) ;
#25 = ORIENTED_EDGE ( 'NONE', *, *, #17, .F. ) ;
#26 = LINE ( 'NONE', #94, #40 ) ;
#27 = DIRECTION ( 'NONE',  ( 1.000000000000000000, 0.000000000000000000, 0.000000000000000000 ) ) ;
#28 = CIRCLE ( 'NONE', #175, 5.500000000000001776 ) ;
#29 = CARTESIAN_POINT ( 'NONE',  ( -23.78020900532199988, -26.22708025625093242, 15.00000000000000000 ) ) ;
#30 = ORIENTED_EDGE ( 'NONE', *, *, #149, .F. ) ;
#31 = CARTESIAN_POINT ( 'NONE',  ( -16.28020900532199988, -26.22708025625093242, 0.000000000000000000 ) ) ;
#32 = DIRECTION ( 'NONE',  ( 0.000000000000000000, 0.000000000000000000, 1.000000000000000000 ) ) ;
#33 = CIRCLE ( 'NONE', #111, 5.500000000000001776 ) ;
#34 = LINE ( 'NONE', #121, #183 ) ;
#35 = VERTEX_POINT ( 'NONE', #169 ) ;
#36 = SURFACE_SIDE_STYLE ('',( #130 ) ) ;
#37 = EDGE_LOOP ( 'NONE', ( #61, #99, #4, #46 ) ) ;
#38 = PRODUCT_RELATED_PRODUCT_CATEGORY ( 'part', '', ( #212 ) ) ;
#39 = DIRECTION ( 'NONE',  ( 0.000000000000000000, 0.000000000000000000, 1.000000000000000000 ) ) ;
#40 = VECTOR ( 'NONE', #15, 1000.000000000000000 ) ;
#41 = CARTESIAN_POINT ( 'NONE',  ( -23.78020900532199988, -26.22708025625093242, 15.00000000000000000 ) ) ;
#42 = DIRECTION ( 'NONE',  ( -0.000000000000000000, -0.000000000000000000, -1.000000000000000000 ) ) ;
#43 = AXIS2_PLACEMENT_3D ( 'NONE', #16, #192, #80 ) ;
#44 = CARTESIAN_POINT ( 'NONE',  ( -23.78020900532199988, -26.22708025625093242, 0.000000000000000000 ) ) ;
#45 =( LENGTH_UNIT ( ) NAMED_UNIT ( * ) SI_UNIT ( .MILLI., .METRE. ) );
#46 = ORIENTED_EDGE ( 'NONE', *, *, #70, .F. ) ;
#47 = PRESENTATION_STYLE_ASSIGNMENT (( #173 ) ) ;
#48 = DIRECTION ( 'NONE',  ( -0.000000000000000000, -0.000000000000000000, -1.000000000000000000 ) ) ;
#49 = VERTEX_POINT ( 'NONE', #51 ) ;
#50 = CARTESIAN_POINT ( 'NONE',  ( -23.78020900532199988, -26.22708025625093242, 15.00000000000000000 ) ) ;
#51 = CARTESIAN_POINT ( 'NONE',  ( -18.28020900532199988, -26.22708025625093242, 0.000000000000000000 ) ) ;
#52 = DIRECTION ( 'NONE',  ( 0.000000000000000000, 0.000000000000000000, 1.000000000000000000 ) ) ;
#53 = VECTOR ( 'NONE', #146, 1000.000000000000000 ) ;
#54 = EDGE_CURVE ( 'NONE', #74, #49, #84, .T. ) ;
#55 = ORIENTED_EDGE ( 'NONE', *, *, #136, .T. ) ;
#56 = DIRECTION ( 'NONE',  ( 1.000000000000000000, 0.000000000000000000, 0.000000000000000000 ) ) ;
#57 = ORIENTED_EDGE ( 'NONE', *, *, #102, .F. ) ;
#58 = ADVANCED_FACE ( 'NONE', ( #206 ), #140, .T. ) ;
#59 = CARTESIAN_POINT ( 'NONE',  ( -31.28020900532199633, -26.22708025625093242, 0.000000000000000000 ) ) ;
#60 = EDGE_CURVE ( 'NONE', #35, #177, #214, .T. ) ;
#61 = ORIENTED_EDGE ( 'NONE', *, *, #147, .T. ) ;
#62 = ORIENTED_EDGE ( 'NONE', *, *, #195, .F. ) ;
#63 = DIRECTION ( 'NONE',  ( -0.000000000000000000, -0.000000000000000000, -1.000000000000000000 ) ) ;
#64 = CARTESIAN_POINT ( 'NONE',  ( -23.78020900532199988, -26.22708025625093242, 15.00000000000000000 ) ) ;
#65 = CIRCLE ( 'NONE', #132, 5.500000000000001776 ) ;
#66 = EDGE_LOOP ( 'NONE', ( #142, #194 ) ) ;
#67 = PRODUCT_DEFINITION_CONTEXT ( 'detailed design', #24, 'design' ) ;
#68 = STYLED_ITEM ( 'NONE', ( #92 ), #96 ) ;
#69 = APPLICATION_CONTEXT ( 'automotive_design' ) ;
#70 = EDGE_CURVE ( 'NONE', #197, #74, #26, .T. ) ;
#71 =( NAMED_UNIT ( * ) SI_UNIT ( $, .STERADIAN. ) SOLID_ANGLE_UNIT ( ) );
#72 = CIRCLE ( 'NONE', #103, 7.500000000000000000 ) ;
#73 = DIRECTION ( 'NONE',  ( -0.000000000000000000, -0.000000000000000000, -1.000000000000000000 ) ) ;
#74 = VERTEX_POINT ( 'NONE', #180 ) ;
#75 = DIRECTION ( 'NONE',  ( 0.000000000000000000, 0.000000000000000000, 1.000000000000000000 ) ) ;
#76 = AXIS2_PLACEMENT_3D ( 'NONE', #116, #63, #98 ) ;
#77 = ORIENTED_EDGE ( 'NONE', *, *, #136, .F. ) ;
#78 = SURFACE_STYLE_FILL_AREA ( #112 ) ;
#79 = CYLINDRICAL_SURFACE ( 'NONE', #76, 7.499999999999996447 ) ;
#80 = DIRECTION ( 'NONE',  ( 1.000000000000000000, 0.000000000000000000, 0.000000000000000000 ) ) ;
#81 = DIRECTION ( 'NONE',  ( 0.000000000000000000, 0.000000000000000000, 1.000000000000000000 ) ) ;
#82 = CYLINDRICAL_SURFACE ( 'NONE', #153, 5.500000000000001776 ) ;
#83 = PLANE ( 'NONE',  #19 ) ;
#84 = CIRCLE ( 'NONE', #18, 5.500000000000001776 ) ;
#85 = PRODUCT_DEFINITION_FORMATION_WITH_SPECIFIED_SOURCE ( 'ANY', '', #212, .NOT_KNOWN. ) ;
#86 = FILL_AREA_STYLE ('',( #11 ) ) ;
#87 = CARTESIAN_POINT ( 'NONE',  ( 0.000000000000000000, 0.000000000000000000, 0.000000000000000000 ) ) ;
#88 =( NAMED_UNIT ( * ) PLANE_ANGLE_UNIT ( ) SI_UNIT ( $, .RADIAN. ) );
#89 = ADVANCED_FACE ( 'NONE', ( #182 ), #79, .T. ) ;
#90 = SHAPE_DEFINITION_REPRESENTATION ( #145, #96 ) ;
#91 = DIRECTION ( 'NONE',  ( 1.000000000000000000, 0.000000000000000000, 0.000000000000000000 ) ) ;
#92 = PRESENTATION_STYLE_ASSIGNMENT (( #106 ) ) ;
#93 = ORIENTED_EDGE ( 'NONE', *, *, #17, .T. ) ;
#94 = CARTESIAN_POINT ( 'NONE',  ( -29.28020900532199988, -26.22708025625093242, 15.00000000000000000 ) ) ;
#95 = AXIS2_PLACEMENT_3D ( 'NONE', #64, #48, #5 ) ;
#96 = ADVANCED_BREP_SHAPE_REPRESENTATION ( 'Entretoise_11x15x15', ( #117, #154 ), #22 ) ;
#97 = CARTESIAN_POINT ( 'NONE',  ( -23.78020900532199988, -26.22708025625093242, 0.000000000000000000 ) ) ;
#98 = DIRECTION ( 'NONE',  ( -1.000000000000000000, 0.000000000000000000, 0.000000000000000000 ) ) ;
#99 = ORIENTED_EDGE ( 'NONE', *, *, #203, .T. ) ;
#100 = ORIENTED_EDGE ( 'NONE', *, *, #102, .T. ) ;
#101 = DIRECTION ( 'NONE',  ( 1.000000000000000000, 0.000000000000000000, 0.000000000000000000 ) ) ;
#102 = EDGE_CURVE ( 'NONE', #137, #204, #189, .T. ) ;
#103 = AXIS2_PLACEMENT_3D ( 'NONE', #44, #174, #144 ) ;
#104 = CARTESIAN_POINT ( 'NONE',  ( -29.28020900532199988, -26.22708025625093242, 15.00000000000000000 ) ) ;
#105 = UNCERTAINTY_MEASURE_WITH_UNIT (LENGTH_MEASURE( 1.000000000000000082E-05 ), #115, 'distance_accuracy_value', 'NONE');
#106 = SURFACE_STYLE_USAGE ( .BOTH. , #36 ) ;
#107 = CARTESIAN_POINT ( 'NONE',  ( -18.28020900532199988, -26.22708025625093242, 15.00000000000000000 ) ) ;
#108 = AXIS2_PLACEMENT_3D ( 'NONE', #1, #42, #109 ) ;
#109 = DIRECTION ( 'NONE',  ( -1.000000000000000000, 0.000000000000000000, 0.000000000000000000 ) ) ;
#110 = DIRECTION ( 'NONE',  ( 0.000000000000000000, 0.000000000000000000, 1.000000000000000000 ) ) ;
#111 = AXIS2_PLACEMENT_3D ( 'NONE', #41, #75, #152 ) ;
#112 = FILL_AREA_STYLE ('',( #138 ) ) ;
#113 = DIRECTION ( 'NONE',  ( 0.000000000000000000, 0.000000000000000000, 1.000000000000000000 ) ) ;
#114 = ADVANCED_FACE ( 'NONE', ( #159 ), #6, .F. ) ;
#115 =( LENGTH_UNIT ( ) NAMED_UNIT ( * ) SI_UNIT ( .MILLI., .METRE. ) );
#116 = CARTESIAN_POINT ( 'NONE',  ( -23.78020900532199988, -26.22708025625093242, 15.00000000000000000 ) ) ;
#117 = MANIFOLD_SOLID_BREP ( 'Boss.-Extru.1', #151 ) ;
#118 = EDGE_LOOP ( 'NONE', ( #210, #93, #120, #30 ) ) ;
#119 = DIRECTION ( 'NONE',  ( -0.000000000000000000, -0.000000000000000000, -1.000000000000000000 ) ) ;
#120 = ORIENTED_EDGE ( 'NONE', *, *, #70, .T. ) ;
#121 = CARTESIAN_POINT ( 'NONE',  ( -16.28020900532199988, -26.22708025625093242, 15.00000000000000000 ) ) ;
#122 = EDGE_CURVE ( 'NONE', #204, #137, #72, .T. ) ;
#123 = UNCERTAINTY_MEASURE_WITH_UNIT (LENGTH_MEASURE( 1.000000000000000082E-05 ), #45, 'distance_accuracy_value', 'NONE');
#124 = LINE ( 'NONE', #128, #53 ) ;
#125 = MECHANICAL_DESIGN_GEOMETRIC_PRESENTATION_REPRESENTATION (  '', ( #167 ), #10 ) ;
#126 = MECHANICAL_DESIGN_GEOMETRIC_PRESENTATION_REPRESENTATION (  '', ( #68 ), #164 ) ;
#127 = PLANE ( 'NONE',  #162 ) ;
#128 = CARTESIAN_POINT ( 'NONE',  ( -31.28020900532199633, -26.22708025625093242, 15.00000000000000000 ) ) ;
#129 = ORIENTED_EDGE ( 'NONE', *, *, #141, .T. ) ;
#130 = SURFACE_STYLE_FILL_AREA ( #86 ) ;
#131 = ORIENTED_EDGE ( 'NONE', *, *, #141, .F. ) ;
#132 = AXIS2_PLACEMENT_3D ( 'NONE', #97, #81, #27 ) ;
#133 = FACE_BOUND ( 'NONE', #66, .T. ) ;
#134 = CIRCLE ( 'NONE', #171, 7.500000000000000000 ) ;
#135 = EDGE_LOOP ( 'NONE', ( #205, #25 ) ) ;
#136 = EDGE_CURVE ( 'NONE', #177, #35, #134, .T. ) ;
#137 = VERTEX_POINT ( 'NONE', #31 ) ;
#138 = FILL_AREA_STYLE_COLOUR ( '', #199 ) ;
#139 = DIRECTION ( 'NONE',  ( 1.000000000000000000, 0.000000000000000000, 0.000000000000000000 ) ) ;
#140 = CYLINDRICAL_SURFACE ( 'NONE', #95, 7.499999999999996447 ) ;
#141 = EDGE_CURVE ( 'NONE', #35, #204, #124, .T. ) ;
#142 = ORIENTED_EDGE ( 'NONE', *, *, #54, .T. ) ;
#143 = CARTESIAN_POINT ( 'NONE',  ( -23.78020900532199988, -26.22708025625093242, 15.00000000000000000 ) ) ;
#144 = DIRECTION ( 'NONE',  ( 1.000000000000000000, 0.000000000000000000, 0.000000000000000000 ) ) ;
#145 = PRODUCT_DEFINITION_SHAPE ( 'NONE', 'NONE',  #160 ) ;
#146 = DIRECTION ( 'NONE',  ( -0.000000000000000000, -0.000000000000000000, -1.000000000000000000 ) ) ;
#147 = EDGE_CURVE ( 'NONE', #197, #13, #28, .T. ) ;
#148 = DIRECTION ( 'NONE',  ( 1.000000000000000000, 0.000000000000000000, -0.000000000000000000 ) ) ;
#149 = EDGE_CURVE ( 'NONE', #49, #74, #65, .T. ) ;
#150 = VECTOR ( 'NONE', #73, 1000.000000000000000 ) ;
#151 = CLOSED_SHELL ( 'NONE', ( #114, #89, #190, #198, #58, #181 ) ) ;
#152 = DIRECTION ( 'NONE',  ( 1.000000000000000000, 0.000000000000000000, 0.000000000000000000 ) ) ;
#153 = AXIS2_PLACEMENT_3D ( 'NONE', #50, #119, #161 ) ;
#154 = AXIS2_PLACEMENT_3D ( 'NONE', #87, #110, #91 ) ;
#155 = EDGE_LOOP ( 'NONE', ( #178, #55 ) ) ;
#156 = DIRECTION ( 'NONE',  ( 0.000000000000000000, 0.000000000000000000, 1.000000000000000000 ) ) ;
#157 = ORIENTED_EDGE ( 'NONE', *, *, #122, .T. ) ;
#158 = CARTESIAN_POINT ( 'NONE',  ( -16.28020900532199988, -26.22708025625093242, 15.00000000000000000 ) ) ;
#159 = FACE_OUTER_BOUND ( 'NONE', #37, .T. ) ;
#160 = PRODUCT_DEFINITION ( 'UNKNOWN', '', #85, #67 ) ;
#161 = DIRECTION ( 'NONE',  ( -1.000000000000000000, 0.000000000000000000, 0.000000000000000000 ) ) ;
#162 = AXIS2_PLACEMENT_3D ( 'NONE', #211, #52, #196 ) ;
#163 = CARTESIAN_POINT ( 'NONE',  ( -18.28020900532199988, -26.22708025625093242, 15.00000000000000000 ) ) ;
#164 =( GEOMETRIC_REPRESENTATION_CONTEXT ( 3 ) GLOBAL_UNCERTAINTY_ASSIGNED_CONTEXT ( ( #123 ) ) GLOBAL_UNIT_ASSIGNED_CONTEXT ( ( #45, #187, #23 ) ) REPRESENTATION_CONTEXT ( 'NONE', 'WORKASPACE' ) );
#165 = DIRECTION ( 'NONE',  ( -0.000000000000000000, -0.000000000000000000, -1.000000000000000000 ) ) ;
#166 = FACE_BOUND ( 'NONE', #135, .T. ) ;
#167 = STYLED_ITEM ( 'NONE', ( #47 ), #117 ) ;
#168 = PRESENTATION_LAYER_ASSIGNMENT (  '', '', ( #68 ) ) ;
#169 = CARTESIAN_POINT ( 'NONE',  ( -31.28020900532199633, -26.22708025625093242, 15.00000000000000000 ) ) ;
#170 = FACE_OUTER_BOUND ( 'NONE', #185, .T. ) ;
#171 = AXIS2_PLACEMENT_3D ( 'NONE', #184, #20, #101 ) ;
#172 = APPLICATION_PROTOCOL_DEFINITION ( 'draft international standard', 'automotive_design', 1998, #69 ) ;
#173 = SURFACE_STYLE_USAGE ( .BOTH. , #179 ) ;
#174 = DIRECTION ( 'NONE',  ( 0.000000000000000000, 0.000000000000000000, 1.000000000000000000 ) ) ;
#175 = AXIS2_PLACEMENT_3D ( 'NONE', #143, #32, #56 ) ;
#176 = APPLICATION_PROTOCOL_DEFINITION ( 'draft international standard', 'automotive_design', 1998, #24 ) ;
#177 = VERTEX_POINT ( 'NONE', #158 ) ;
#178 = ORIENTED_EDGE ( 'NONE', *, *, #60, .T. ) ;
#179 = SURFACE_SIDE_STYLE ('',( #78 ) ) ;
#180 = CARTESIAN_POINT ( 'NONE',  ( -29.28020900532199988, -26.22708025625093242, 0.000000000000000000 ) ) ;
#181 = ADVANCED_FACE ( 'NONE', ( #208 ), #82, .F. ) ;
#182 = FACE_OUTER_BOUND ( 'NONE', #207, .T. ) ;
#183 = VECTOR ( 'NONE', #165, 1000.000000000000000 ) ;
#184 = CARTESIAN_POINT ( 'NONE',  ( -23.78020900532199988, -26.22708025625093242, 15.00000000000000000 ) ) ;
#185 = EDGE_LOOP ( 'NONE', ( #193, #57 ) ) ;
#186 =( LENGTH_UNIT ( ) NAMED_UNIT ( * ) SI_UNIT ( .MILLI., .METRE. ) );
#187 =( NAMED_UNIT ( * ) PLANE_ANGLE_UNIT ( ) SI_UNIT ( $, .RADIAN. ) );
#188 = PRODUCT_CONTEXT ( 'NONE', #69, 'mechanical' ) ;
#189 = CIRCLE ( 'NONE', #43, 7.500000000000000000 ) ;
#190 = ADVANCED_FACE ( 'NONE', ( #7, #166 ), #127, .T. ) ;
#191 = DIRECTION ( 'NONE',  ( 1.000000000000000000, 0.000000000000000000, 0.000000000000000000 ) ) ;
#192 = DIRECTION ( 'NONE',  ( 0.000000000000000000, 0.000000000000000000, 1.000000000000000000 ) ) ;
#193 = ORIENTED_EDGE ( 'NONE', *, *, #122, .F. ) ;
#194 = ORIENTED_EDGE ( 'NONE', *, *, #149, .T. ) ;
#195 = EDGE_CURVE ( 'NONE', #177, #137, #34, .T. ) ;
#196 = DIRECTION ( 'NONE',  ( 1.000000000000000000, 0.000000000000000000, -0.000000000000000000 ) ) ;
#197 = VERTEX_POINT ( 'NONE', #104 ) ;
#198 = ADVANCED_FACE ( 'NONE', ( #170, #133 ), #83, .F. ) ;
#199 = COLOUR_RGB ( '',0.7921568627450980005, 0.8196078431372548767, 0.9333333333333333481 ) ;
#200 = ORIENTED_EDGE ( 'NONE', *, *, #195, .T. ) ;
#201 = CARTESIAN_POINT ( 'NONE',  ( -23.78020900532199988, -26.22708025625093242, 0.000000000000000000 ) ) ;
#202 = UNCERTAINTY_MEASURE_WITH_UNIT (LENGTH_MEASURE( 1.000000000000000082E-05 ), #186, 'distance_accuracy_value', 'NONE');
#203 = EDGE_CURVE ( 'NONE', #13, #49, #21, .T. ) ;
#204 = VERTEX_POINT ( 'NONE', #59 ) ;
#205 = ORIENTED_EDGE ( 'NONE', *, *, #147, .F. ) ;
#206 = FACE_OUTER_BOUND ( 'NONE', #213, .T. ) ;
#207 = EDGE_LOOP ( 'NONE', ( #77, #200, #100, #131 ) ) ;
#208 = FACE_OUTER_BOUND ( 'NONE', #118, .T. ) ;
#209 = CARTESIAN_POINT ( 'NONE',  ( -23.78020900532199988, -26.22708025625093242, 0.000000000000000000 ) ) ;
#210 = ORIENTED_EDGE ( 'NONE', *, *, #203, .F. ) ;
#211 = CARTESIAN_POINT ( 'NONE',  ( -23.78020900532199988, -26.22708025625093242, 15.00000000000000000 ) ) ;
#212 = PRODUCT ( 'Entretoise_11x15x15', 'Entretoise_11x15x15', '', ( #188 ) ) ;
#213 = EDGE_LOOP ( 'NONE', ( #62, #2, #129, #157 ) ) ;
#214 = CIRCLE ( 'NONE', #8, 7.500000000000000000 ) ;
ENDSEC;
END-ISO-10303-21;
