ISO-10303-21;
HEADER;
FILE_DESCRIPTION (( 'STEP AP214' ),
    '1' );
FILE_NAME ('EntretoiseMP_31x35x15.STEP',
    '2022-01-14T14:41:34',
    ( '' ),
    ( '' ),
    'SwSTEP 2.0',
    'SolidWorks 2021',
    '' );
FILE_SCHEMA (( 'AUTOMOTIVE_DESIGN' ));
ENDSEC;

DATA;
#1 = AXIS2_PLACEMENT_3D ( 'NONE', #79, #139, #163 ) ;
#2 = CARTESIAN_POINT ( 'NONE',  ( -325.4891243200819417, -138.6189844968413922, 15.00000000000000000 ) ) ;
#3 =( NAMED_UNIT ( * ) SI_UNIT ( $, .STERADIAN. ) SOLID_ANGLE_UNIT ( ) );
#4 = ORIENTED_EDGE ( 'NONE', *, *, #27, .T. ) ;
#5 = PRESENTATION_STYLE_ASSIGNMENT (( #203 ) ) ;
#6 = ORIENTED_EDGE ( 'NONE', *, *, #46, .T. ) ;
#7 =( GEOMETRIC_REPRESENTATION_CONTEXT ( 3 ) GLOBAL_UNCERTAINTY_ASSIGNED_CONTEXT ( ( #211 ) ) GLOBAL_UNIT_ASSIGNED_CONTEXT ( ( #123, #179, #8 ) ) REPRESENTATION_CONTEXT ( 'NONE', 'WORKASPACE' ) );
#8 =( NAMED_UNIT ( * ) SI_UNIT ( $, .STERADIAN. ) SOLID_ANGLE_UNIT ( ) );
#9 = SURFACE_SIDE_STYLE ('',( #102 ) ) ;
#10 = CARTESIAN_POINT ( 'NONE',  ( -325.4891243200819417, -138.6189844968413922, 15.00000000000000000 ) ) ;
#11 = CARTESIAN_POINT ( 'NONE',  ( -307.9891243200818849, -138.6189844968413922, 0.000000000000000000 ) ) ;
#12 = CLOSED_SHELL ( 'NONE', ( #73, #25, #77, #113, #182, #54 ) ) ;
#13 = CARTESIAN_POINT ( 'NONE',  ( -340.9891243200819417, -138.6189844968413922, 15.00000000000000000 ) ) ;
#14 = UNCERTAINTY_MEASURE_WITH_UNIT (LENGTH_MEASURE( 1.000000000000000082E-05 ), #106, 'distance_accuracy_value', 'NONE');
#15 = CYLINDRICAL_SURFACE ( 'NONE', #141, 17.50000000000001421 ) ;
#16 = VERTEX_POINT ( 'NONE', #105 ) ;
#17 = EDGE_CURVE ( 'NONE', #28, #134, #94, .T. ) ;
#18 = CARTESIAN_POINT ( 'NONE',  ( -307.9891243200818849, -138.6189844968413922, 15.00000000000000000 ) ) ;
#19 = CIRCLE ( 'NONE', #121, 17.50000000000001421 ) ;
#20 = AXIS2_PLACEMENT_3D ( 'NONE', #112, #87, #210 ) ;
#21 = AXIS2_PLACEMENT_3D ( 'NONE', #212, #71, #120 ) ;
#22 = VERTEX_POINT ( 'NONE', #200 ) ;
#23 = ORIENTED_EDGE ( 'NONE', *, *, #197, .T. ) ;
#24 = CARTESIAN_POINT ( 'NONE',  ( -309.9891243200818849, -138.6189844968413922, 15.00000000000000000 ) ) ;
#25 = ADVANCED_FACE ( 'NONE', ( #170 ), #15, .T. ) ;
#26 = SURFACE_STYLE_USAGE ( .BOTH. , #9 ) ;
#27 = EDGE_CURVE ( 'NONE', #28, #61, #19, .T. ) ;
#28 = VERTEX_POINT ( 'NONE', #37 ) ;
#29 = FACE_OUTER_BOUND ( 'NONE', #187, .T. ) ;
#30 = EDGE_CURVE ( 'NONE', #125, #198, #164, .T. ) ;
#31 = DIRECTION ( 'NONE',  ( 1.000000000000000000, 0.000000000000000000, 0.000000000000000000 ) ) ;
#32 = CARTESIAN_POINT ( 'NONE',  ( -340.9891243200819417, -138.6189844968413922, 0.000000000000000000 ) ) ;
#33 = MANIFOLD_SOLID_BREP ( 'Boss.-Extru.1', #12 ) ;
#34 = PRODUCT_DEFINITION_FORMATION_WITH_SPECIFIED_SOURCE ( 'ANY', '', #62, .NOT_KNOWN. ) ;
#35 = CARTESIAN_POINT ( 'NONE',  ( -342.9891243200819417, -138.6189844968413922, 0.000000000000000000 ) ) ;
#36 = DIRECTION ( 'NONE',  ( 1.000000000000000000, 0.000000000000000000, 0.000000000000000000 ) ) ;
#37 = CARTESIAN_POINT ( 'NONE',  ( -342.9891243200819417, -138.6189844968413922, 15.00000000000000000 ) ) ;
#38 = DIRECTION ( 'NONE',  ( -0.000000000000000000, -0.000000000000000000, -1.000000000000000000 ) ) ;
#39 = ORIENTED_EDGE ( 'NONE', *, *, #17, .T. ) ;
#40 = PRODUCT_CONTEXT ( 'NONE', #151, 'mechanical' ) ;
#41 = EDGE_LOOP ( 'NONE', ( #118, #147, #39, #6 ) ) ;
#42 = DIRECTION ( 'NONE',  ( 1.000000000000000000, 0.000000000000000000, 0.000000000000000000 ) ) ;
#43 = FACE_OUTER_BOUND ( 'NONE', #41, .T. ) ;
#44 = EDGE_LOOP ( 'NONE', ( #98, #201, #81, #60 ) ) ;
#45 = CARTESIAN_POINT ( 'NONE',  ( -325.4891243200819417, -138.6189844968413922, 15.00000000000000000 ) ) ;
#46 = EDGE_CURVE ( 'NONE', #134, #135, #89, .T. ) ;
#47 = VECTOR ( 'NONE', #38, 1000.000000000000000 ) ;
#48 = FACE_BOUND ( 'NONE', #206, .T. ) ;
#49 = ORIENTED_EDGE ( 'NONE', *, *, #97, .F. ) ;
#50 = FILL_AREA_STYLE ('',( #70 ) ) ;
#51 = CARTESIAN_POINT ( 'NONE',  ( -325.4891243200819417, -138.6189844968413922, 15.00000000000000000 ) ) ;
#52 = VECTOR ( 'NONE', #181, 1000.000000000000000 ) ;
#53 = CARTESIAN_POINT ( 'NONE',  ( -325.4891243200819417, -138.6189844968413922, 0.000000000000000000 ) ) ;
#54 = ADVANCED_FACE ( 'NONE', ( #142 ), #155, .F. ) ;
#55 = CARTESIAN_POINT ( 'NONE',  ( 0.000000000000000000, 0.000000000000000000, 0.000000000000000000 ) ) ;
#56 = VECTOR ( 'NONE', #59, 1000.000000000000000 ) ;
#57 = DIRECTION ( 'NONE',  ( -1.000000000000000000, 0.000000000000000000, 0.000000000000000000 ) ) ;
#58 = FILL_AREA_STYLE ('',( #132 ) ) ;
#59 = DIRECTION ( 'NONE',  ( -0.000000000000000000, -0.000000000000000000, -1.000000000000000000 ) ) ;
#60 = ORIENTED_EDGE ( 'NONE', *, *, #192, .F. ) ;
#61 = VERTEX_POINT ( 'NONE', #185 ) ;
#62 = PRODUCT ( 'EntretoiseMP_31x35x15', 'EntretoiseMP_31x35x15', '', ( #40 ) ) ;
#63 = ORIENTED_EDGE ( 'NONE', *, *, #30, .T. ) ;
#64 = AXIS2_PLACEMENT_3D ( 'NONE', #51, #188, #171 ) ;
#65 = CARTESIAN_POINT ( 'NONE',  ( -325.4891243200819417, -138.6189844968413922, 15.00000000000000000 ) ) ;
#66 = DIRECTION ( 'NONE',  ( -0.000000000000000000, -0.000000000000000000, -1.000000000000000000 ) ) ;
#67 = ORIENTED_EDGE ( 'NONE', *, *, #46, .F. ) ;
#68 = SURFACE_SIDE_STYLE ('',( #107 ) ) ;
#69 = DIRECTION ( 'NONE',  ( 1.000000000000000000, 0.000000000000000000, -0.000000000000000000 ) ) ;
#70 = FILL_AREA_STYLE_COLOUR ( '', #190 ) ;
#71 = DIRECTION ( 'NONE',  ( 0.000000000000000000, 0.000000000000000000, 1.000000000000000000 ) ) ;
#72 = COLOUR_RGB ( '',0.7921568627450980005, 0.8196078431372548767, 0.9333333333333333481 ) ;
#73 = ADVANCED_FACE ( 'NONE', ( #96 ), #129, .F. ) ;
#74 = CARTESIAN_POINT ( 'NONE',  ( -325.4891243200819417, -138.6189844968413922, 0.000000000000000000 ) ) ;
#75 = ORIENTED_EDGE ( 'NONE', *, *, #110, .F. ) ;
#76 = APPLICATION_PROTOCOL_DEFINITION ( 'draft international standard', 'automotive_design', 1998, #86 ) ;
#77 = ADVANCED_FACE ( 'NONE', ( #29, #48 ), #100, .T. ) ;
#78 = EDGE_LOOP ( 'NONE', ( #63, #199 ) ) ;
#79 = CARTESIAN_POINT ( 'NONE',  ( -325.4891243200819417, -138.6189844968413922, 0.000000000000000000 ) ) ;
#80 = PRODUCT_RELATED_PRODUCT_CATEGORY ( 'part', '', ( #62 ) ) ;
#81 = ORIENTED_EDGE ( 'NONE', *, *, #145, .T. ) ;
#82 = AXIS2_PLACEMENT_3D ( 'NONE', #74, #186, #103 ) ;
#83 =( GEOMETRIC_REPRESENTATION_CONTEXT ( 3 ) GLOBAL_UNCERTAINTY_ASSIGNED_CONTEXT ( ( #14 ) ) GLOBAL_UNIT_ASSIGNED_CONTEXT ( ( #106, #196, #3 ) ) REPRESENTATION_CONTEXT ( 'NONE', 'WORKASPACE' ) );
#84 = EDGE_LOOP ( 'NONE', ( #133, #128, #138, #176 ) ) ;
#85 = DIRECTION ( 'NONE',  ( 0.000000000000000000, 0.000000000000000000, 1.000000000000000000 ) ) ;
#86 = APPLICATION_CONTEXT ( 'automotive_design' ) ;
#87 = DIRECTION ( 'NONE',  ( 0.000000000000000000, 0.000000000000000000, 1.000000000000000000 ) ) ;
#88 = LINE ( 'NONE', #13, #189 ) ;
#89 = CIRCLE ( 'NONE', #208, 17.50000000000001421 ) ;
#90 = DIRECTION ( 'NONE',  ( -0.000000000000000000, -0.000000000000000000, -1.000000000000000000 ) ) ;
#91 = DIRECTION ( 'NONE',  ( 0.000000000000000000, 0.000000000000000000, 1.000000000000000000 ) ) ;
#92 = CYLINDRICAL_SURFACE ( 'NONE', #143, 17.50000000000001421 ) ;
#93 = DIRECTION ( 'NONE',  ( -0.000000000000000000, -0.000000000000000000, -1.000000000000000000 ) ) ;
#94 = LINE ( 'NONE', #152, #47 ) ;
#95 = AXIS2_PLACEMENT_3D ( 'NONE', #53, #175, #31 ) ;
#96 = FACE_OUTER_BOUND ( 'NONE', #195, .T. ) ;
#97 = EDGE_CURVE ( 'NONE', #16, #22, #159, .T. ) ;
#98 = ORIENTED_EDGE ( 'NONE', *, *, #197, .F. ) ;
#99 =( NAMED_UNIT ( * ) SI_UNIT ( $, .STERADIAN. ) SOLID_ANGLE_UNIT ( ) );
#100 = PLANE ( 'NONE',  #114 ) ;
#101 = MECHANICAL_DESIGN_GEOMETRIC_PRESENTATION_REPRESENTATION (  '', ( #202 ), #7 ) ;
#102 = SURFACE_STYLE_FILL_AREA ( #58 ) ;
#103 = DIRECTION ( 'NONE',  ( 1.000000000000000000, 0.000000000000000000, 0.000000000000000000 ) ) ;
#104 = FACE_OUTER_BOUND ( 'NONE', #162, .T. ) ;
#105 = CARTESIAN_POINT ( 'NONE',  ( -309.9891243200818849, -138.6189844968413922, 15.00000000000000000 ) ) ;
#106 =( LENGTH_UNIT ( ) NAMED_UNIT ( * ) SI_UNIT ( .MILLI., .METRE. ) );
#107 = SURFACE_STYLE_FILL_AREA ( #50 ) ;
#108 = DIRECTION ( 'NONE',  ( 1.000000000000000000, 0.000000000000000000, 0.000000000000000000 ) ) ;
#109 = CARTESIAN_POINT ( 'NONE',  ( -325.4891243200819417, -138.6189844968413922, 15.00000000000000000 ) ) ;
#110 = EDGE_CURVE ( 'NONE', #135, #134, #178, .T. ) ;
#111 = CARTESIAN_POINT ( 'NONE',  ( -325.4891243200819417, -138.6189844968413922, 0.000000000000000000 ) ) ;
#112 = CARTESIAN_POINT ( 'NONE',  ( -325.4891243200819417, -138.6189844968413922, 15.00000000000000000 ) ) ;
#113 = ADVANCED_FACE ( 'NONE', ( #104, #124 ), #131, .F. ) ;
#114 = AXIS2_PLACEMENT_3D ( 'NONE', #109, #85, #69 ) ;
#115 = DIRECTION ( 'NONE',  ( 0.000000000000000000, 0.000000000000000000, 1.000000000000000000 ) ) ;
#116 = DIRECTION ( 'NONE',  ( -0.000000000000000000, -0.000000000000000000, -1.000000000000000000 ) ) ;
#117 = ORIENTED_EDGE ( 'NONE', *, *, #30, .F. ) ;
#118 = ORIENTED_EDGE ( 'NONE', *, *, #205, .F. ) ;
#119 = AXIS2_PLACEMENT_3D ( 'NONE', #194, #115, #177 ) ;
#120 = DIRECTION ( 'NONE',  ( 1.000000000000000000, 0.000000000000000000, 0.000000000000000000 ) ) ;
#121 = AXIS2_PLACEMENT_3D ( 'NONE', #10, #91, #36 ) ;
#122 = CIRCLE ( 'NONE', #21, 15.50000000000001421 ) ;
#123 =( LENGTH_UNIT ( ) NAMED_UNIT ( * ) SI_UNIT ( .MILLI., .METRE. ) );
#124 = FACE_BOUND ( 'NONE', #78, .T. ) ;
#125 = VERTEX_POINT ( 'NONE', #32 ) ;
#126 = PRESENTATION_LAYER_ASSIGNMENT (  '', '', ( #130 ) ) ;
#127 = ORIENTED_EDGE ( 'NONE', *, *, #168, .T. ) ;
#128 = ORIENTED_EDGE ( 'NONE', *, *, #205, .T. ) ;
#129 = CYLINDRICAL_SURFACE ( 'NONE', #64, 15.50000000000001421 ) ;
#130 = STYLED_ITEM ( 'NONE', ( #5 ), #214 ) ;
#131 = PLANE ( 'NONE',  #119 ) ;
#132 = FILL_AREA_STYLE_COLOUR ( '', #72 ) ;
#133 = ORIENTED_EDGE ( 'NONE', *, *, #213, .F. ) ;
#134 = VERTEX_POINT ( 'NONE', #35 ) ;
#135 = VERTEX_POINT ( 'NONE', #11 ) ;
#136 = PRESENTATION_STYLE_ASSIGNMENT (( #26 ) ) ;
#137 = LINE ( 'NONE', #24, #56 ) ;
#138 = ORIENTED_EDGE ( 'NONE', *, *, #110, .T. ) ;
#139 = DIRECTION ( 'NONE',  ( 0.000000000000000000, 0.000000000000000000, 1.000000000000000000 ) ) ;
#140 = APPLICATION_PROTOCOL_DEFINITION ( 'draft international standard', 'automotive_design', 1998, #151 ) ;
#141 = AXIS2_PLACEMENT_3D ( 'NONE', #174, #116, #57 ) ;
#142 = FACE_OUTER_BOUND ( 'NONE', #44, .T. ) ;
#143 = AXIS2_PLACEMENT_3D ( 'NONE', #2, #93, #167 ) ;
#144 = MECHANICAL_DESIGN_GEOMETRIC_PRESENTATION_REPRESENTATION (  '', ( #130 ), #169 ) ;
#145 = EDGE_CURVE ( 'NONE', #22, #125, #88, .T. ) ;
#146 = ORIENTED_EDGE ( 'NONE', *, *, #145, .F. ) ;
#147 = ORIENTED_EDGE ( 'NONE', *, *, #27, .F. ) ;
#148 = UNCERTAINTY_MEASURE_WITH_UNIT (LENGTH_MEASURE( 1.000000000000000082E-05 ), #184, 'distance_accuracy_value', 'NONE');
#149 = LINE ( 'NONE', #18, #52 ) ;
#150 = PRODUCT_DEFINITION_CONTEXT ( 'detailed design', #86, 'design' ) ;
#151 = APPLICATION_CONTEXT ( 'automotive_design' ) ;
#152 = CARTESIAN_POINT ( 'NONE',  ( -342.9891243200819417, -138.6189844968413922, 15.00000000000000000 ) ) ;
#153 = CARTESIAN_POINT ( 'NONE',  ( -309.9891243200818849, -138.6189844968413922, 0.000000000000000000 ) ) ;
#154 = ORIENTED_EDGE ( 'NONE', *, *, #168, .F. ) ;
#155 = CYLINDRICAL_SURFACE ( 'NONE', #165, 15.50000000000001421 ) ;
#156 = AXIS2_PLACEMENT_3D ( 'NONE', #45, #161, #42 ) ;
#157 = DIRECTION ( 'NONE',  ( 0.000000000000000000, 0.000000000000000000, 1.000000000000000000 ) ) ;
#158 = DIRECTION ( 'NONE',  ( 1.000000000000000000, 0.000000000000000000, 0.000000000000000000 ) ) ;
#159 = CIRCLE ( 'NONE', #20, 15.50000000000001421 ) ;
#160 = CIRCLE ( 'NONE', #156, 17.50000000000001421 ) ;
#161 = DIRECTION ( 'NONE',  ( 0.000000000000000000, 0.000000000000000000, 1.000000000000000000 ) ) ;
#162 = EDGE_LOOP ( 'NONE', ( #67, #75 ) ) ;
#163 = DIRECTION ( 'NONE',  ( 1.000000000000000000, 0.000000000000000000, 0.000000000000000000 ) ) ;
#164 = CIRCLE ( 'NONE', #82, 15.50000000000001421 ) ;
#165 = AXIS2_PLACEMENT_3D ( 'NONE', #65, #66, #209 ) ;
#166 = AXIS2_PLACEMENT_3D ( 'NONE', #55, #191, #158 ) ;
#167 = DIRECTION ( 'NONE',  ( -1.000000000000000000, 0.000000000000000000, 0.000000000000000000 ) ) ;
#168 = EDGE_CURVE ( 'NONE', #22, #16, #122, .T. ) ;
#169 =( GEOMETRIC_REPRESENTATION_CONTEXT ( 3 ) GLOBAL_UNCERTAINTY_ASSIGNED_CONTEXT ( ( #148 ) ) GLOBAL_UNIT_ASSIGNED_CONTEXT ( ( #184, #207, #99 ) ) REPRESENTATION_CONTEXT ( 'NONE', 'WORKASPACE' ) );
#170 = FACE_OUTER_BOUND ( 'NONE', #84, .T. ) ;
#171 = DIRECTION ( 'NONE',  ( -1.000000000000000000, 0.000000000000000000, 0.000000000000000000 ) ) ;
#172 = PRODUCT_DEFINITION ( 'UNKNOWN', '', #34, #150 ) ;
#173 = CIRCLE ( 'NONE', #1, 15.50000000000001421 ) ;
#174 = CARTESIAN_POINT ( 'NONE',  ( -325.4891243200819417, -138.6189844968413922, 15.00000000000000000 ) ) ;
#175 = DIRECTION ( 'NONE',  ( 0.000000000000000000, 0.000000000000000000, 1.000000000000000000 ) ) ;
#176 = ORIENTED_EDGE ( 'NONE', *, *, #17, .F. ) ;
#177 = DIRECTION ( 'NONE',  ( 1.000000000000000000, 0.000000000000000000, -0.000000000000000000 ) ) ;
#178 = CIRCLE ( 'NONE', #95, 17.50000000000001421 ) ;
#179 =( NAMED_UNIT ( * ) PLANE_ANGLE_UNIT ( ) SI_UNIT ( $, .RADIAN. ) );
#180 = ORIENTED_EDGE ( 'NONE', *, *, #213, .T. ) ;
#181 = DIRECTION ( 'NONE',  ( -0.000000000000000000, -0.000000000000000000, -1.000000000000000000 ) ) ;
#182 = ADVANCED_FACE ( 'NONE', ( #43 ), #92, .T. ) ;
#183 = PRODUCT_DEFINITION_SHAPE ( 'NONE', 'NONE',  #172 ) ;
#184 =( LENGTH_UNIT ( ) NAMED_UNIT ( * ) SI_UNIT ( .MILLI., .METRE. ) );
#185 = CARTESIAN_POINT ( 'NONE',  ( -307.9891243200818849, -138.6189844968413922, 15.00000000000000000 ) ) ;
#186 = DIRECTION ( 'NONE',  ( 0.000000000000000000, 0.000000000000000000, 1.000000000000000000 ) ) ;
#187 = EDGE_LOOP ( 'NONE', ( #4, #180 ) ) ;
#188 = DIRECTION ( 'NONE',  ( -0.000000000000000000, -0.000000000000000000, -1.000000000000000000 ) ) ;
#189 = VECTOR ( 'NONE', #90, 1000.000000000000000 ) ;
#190 = COLOUR_RGB ( '',0.7921568627450980005, 0.8196078431372548767, 0.9333333333333333481 ) ;
#191 = DIRECTION ( 'NONE',  ( 0.000000000000000000, 0.000000000000000000, 1.000000000000000000 ) ) ;
#192 = EDGE_CURVE ( 'NONE', #198, #125, #173, .T. ) ;
#193 = SHAPE_DEFINITION_REPRESENTATION ( #183, #214 ) ;
#194 = CARTESIAN_POINT ( 'NONE',  ( -325.4891243200819417, -138.6189844968413922, 0.000000000000000000 ) ) ;
#195 = EDGE_LOOP ( 'NONE', ( #127, #23, #117, #146 ) ) ;
#196 =( NAMED_UNIT ( * ) PLANE_ANGLE_UNIT ( ) SI_UNIT ( $, .RADIAN. ) );
#197 = EDGE_CURVE ( 'NONE', #16, #198, #137, .T. ) ;
#198 = VERTEX_POINT ( 'NONE', #153 ) ;
#199 = ORIENTED_EDGE ( 'NONE', *, *, #192, .T. ) ;
#200 = CARTESIAN_POINT ( 'NONE',  ( -340.9891243200819417, -138.6189844968413922, 15.00000000000000000 ) ) ;
#201 = ORIENTED_EDGE ( 'NONE', *, *, #97, .T. ) ;
#202 = STYLED_ITEM ( 'NONE', ( #136 ), #33 ) ;
#203 = SURFACE_STYLE_USAGE ( .BOTH. , #68 ) ;
#204 = PRESENTATION_LAYER_ASSIGNMENT (  '', '', ( #202 ) ) ;
#205 = EDGE_CURVE ( 'NONE', #61, #135, #149, .T. ) ;
#206 = EDGE_LOOP ( 'NONE', ( #154, #49 ) ) ;
#207 =( NAMED_UNIT ( * ) PLANE_ANGLE_UNIT ( ) SI_UNIT ( $, .RADIAN. ) );
#208 = AXIS2_PLACEMENT_3D ( 'NONE', #111, #157, #108 ) ;
#209 = DIRECTION ( 'NONE',  ( -1.000000000000000000, 0.000000000000000000, 0.000000000000000000 ) ) ;
#210 = DIRECTION ( 'NONE',  ( 1.000000000000000000, 0.000000000000000000, 0.000000000000000000 ) ) ;
#211 = UNCERTAINTY_MEASURE_WITH_UNIT (LENGTH_MEASURE( 1.000000000000000082E-05 ), #123, 'distance_accuracy_value', 'NONE');
#212 = CARTESIAN_POINT ( 'NONE',  ( -325.4891243200819417, -138.6189844968413922, 15.00000000000000000 ) ) ;
#213 = EDGE_CURVE ( 'NONE', #61, #28, #160, .T. ) ;
#214 = ADVANCED_BREP_SHAPE_REPRESENTATION ( 'EntretoiseMP_31x35x15', ( #33, #166 ), #83 ) ;
ENDSEC;
END-ISO-10303-21;
