ISO-10303-21;
HEADER;
FILE_DESCRIPTION (( 'STEP AP214' ),
    '1' );
FILE_NAME ('EntretoiseFab_11x15x10.STEP',
    '2022-01-14T14:36:03',
    ( '' ),
    ( '' ),
    'SwSTEP 2.0',
    'SolidWorks 2021',
    '' );
FILE_SCHEMA (( 'AUTOMOTIVE_DESIGN' ));
ENDSEC;

DATA;
#1 = DIRECTION ( 'NONE',  ( 1.000000000000000000, 0.000000000000000000, 0.000000000000000000 ) ) ;
#2 = CARTESIAN_POINT ( 'NONE',  ( 28.27123448728264421, -27.60600098379092415, 10.00000000000000000 ) ) ;
#3 =( LENGTH_UNIT ( ) NAMED_UNIT ( * ) SI_UNIT ( .MILLI., .METRE. ) );
#4 = COLOUR_RGB ( '',0.7921568627450980005, 0.8196078431372548767, 0.9333333333333333481 ) ;
#5 = DIRECTION ( 'NONE',  ( 1.000000000000000000, 0.000000000000000000, -0.000000000000000000 ) ) ;
#6 = DIRECTION ( 'NONE',  ( 0.000000000000000000, 0.000000000000000000, 1.000000000000000000 ) ) ;
#7 = EDGE_CURVE ( 'NONE', #98, #194, #157, .T. ) ;
#8 = CARTESIAN_POINT ( 'NONE',  ( 30.27123448728264066, -27.60600098379092415, 0.000000000000000000 ) ) ;
#9 = AXIS2_PLACEMENT_3D ( 'NONE', #202, #55, #5 ) ;
#10 = DIRECTION ( 'NONE',  ( 0.000000000000000000, 0.000000000000000000, 1.000000000000000000 ) ) ;
#11 = DIRECTION ( 'NONE',  ( -1.000000000000000000, 0.000000000000000000, 0.000000000000000000 ) ) ;
#12 = EDGE_CURVE ( 'NONE', #182, #50, #78, .T. ) ;
#13 = DIRECTION ( 'NONE',  ( 0.000000000000000000, 0.000000000000000000, 1.000000000000000000 ) ) ;
#14 = EDGE_LOOP ( 'NONE', ( #35, #65, #15, #124 ) ) ;
#15 = ORIENTED_EDGE ( 'NONE', *, *, #206, .T. ) ;
#16 = CARTESIAN_POINT ( 'NONE',  ( 35.77123448728264066, -27.60600098379092415, 10.00000000000000000 ) ) ;
#17 = EDGE_LOOP ( 'NONE', ( #136, #75 ) ) ;
#18 = CARTESIAN_POINT ( 'NONE',  ( 35.77123448728264066, -27.60600098379092415, 0.000000000000000000 ) ) ;
#19 = COLOUR_RGB ( '',0.7921568627450980005, 0.8196078431372548767, 0.9333333333333333481 ) ;
#20 = CIRCLE ( 'NONE', #71, 7.500000000000000000 ) ;
#21 = CARTESIAN_POINT ( 'NONE',  ( 35.77123448728264066, -27.60600098379092415, 10.00000000000000000 ) ) ;
#22 = CARTESIAN_POINT ( 'NONE',  ( 30.27123448728264066, -27.60600098379092415, 10.00000000000000000 ) ) ;
#23 = DIRECTION ( 'NONE',  ( 1.000000000000000000, 0.000000000000000000, 0.000000000000000000 ) ) ;
#24 = AXIS2_PLACEMENT_3D ( 'NONE', #106, #86, #104 ) ;
#25 = AXIS2_PLACEMENT_3D ( 'NONE', #193, #13, #137 ) ;
#26 = LINE ( 'NONE', #22, #36 ) ;
#27 = EDGE_CURVE ( 'NONE', #182, #211, #150, .T. ) ;
#28 =( GEOMETRIC_REPRESENTATION_CONTEXT ( 3 ) GLOBAL_UNCERTAINTY_ASSIGNED_CONTEXT ( ( #173 ) ) GLOBAL_UNIT_ASSIGNED_CONTEXT ( ( #3, #197, #199 ) ) REPRESENTATION_CONTEXT ( 'NONE', 'WORKASPACE' ) );
#29 =( NAMED_UNIT ( * ) SI_UNIT ( $, .STERADIAN. ) SOLID_ANGLE_UNIT ( ) );
#30 = EDGE_LOOP ( 'NONE', ( #52, #82 ) ) ;
#31 = AXIS2_PLACEMENT_3D ( 'NONE', #21, #149, #11 ) ;
#32 = MANIFOLD_SOLID_BREP ( 'Boss.-Extru.1', #129 ) ;
#33 = AXIS2_PLACEMENT_3D ( 'NONE', #87, #115, #85 ) ;
#34 = DIRECTION ( 'NONE',  ( -1.000000000000000000, 0.000000000000000000, 0.000000000000000000 ) ) ;
#35 = ORIENTED_EDGE ( 'NONE', *, *, #190, .F. ) ;
#36 = VECTOR ( 'NONE', #152, 1000.000000000000000 ) ;
#37 = SURFACE_SIDE_STYLE ('',( #140 ) ) ;
#38 = ORIENTED_EDGE ( 'NONE', *, *, #7, .T. ) ;
#39 =( LENGTH_UNIT ( ) NAMED_UNIT ( * ) SI_UNIT ( .MILLI., .METRE. ) );
#40 = CARTESIAN_POINT ( 'NONE',  ( 35.77123448728264066, -27.60600098379092415, 10.00000000000000000 ) ) ;
#41 = MECHANICAL_DESIGN_GEOMETRIC_PRESENTATION_REPRESENTATION (  '', ( #100 ), #28 ) ;
#42 = CARTESIAN_POINT ( 'NONE',  ( 30.27123448728264066, -27.60600098379092415, 10.00000000000000000 ) ) ;
#43 = FACE_OUTER_BOUND ( 'NONE', #183, .T. ) ;
#44 = PRODUCT_DEFINITION_FORMATION_WITH_SPECIFIED_SOURCE ( 'ANY', '', #68, .NOT_KNOWN. ) ;
#45 = PRESENTATION_STYLE_ASSIGNMENT (( #107 ) ) ;
#46 = ADVANCED_BREP_SHAPE_REPRESENTATION ( 'EntretoiseFab_11x15x10', ( #32, #25 ), #161 ) ;
#47 = APPLICATION_PROTOCOL_DEFINITION ( 'draft international standard', 'automotive_design', 1998, #179 ) ;
#48 = ORIENTED_EDGE ( 'NONE', *, *, #27, .T. ) ;
#49 = ADVANCED_FACE ( 'NONE', ( #112 ), #53, .T. ) ;
#50 = VERTEX_POINT ( 'NONE', #81 ) ;
#51 = AXIS2_PLACEMENT_3D ( 'NONE', #126, #128, #1 ) ;
#52 = ORIENTED_EDGE ( 'NONE', *, *, #134, .F. ) ;
#53 = CYLINDRICAL_SURFACE ( 'NONE', #187, 7.500000000000000000 ) ;
#54 = DIRECTION ( 'NONE',  ( -0.000000000000000000, -0.000000000000000000, -1.000000000000000000 ) ) ;
#55 = DIRECTION ( 'NONE',  ( 0.000000000000000000, 0.000000000000000000, 1.000000000000000000 ) ) ;
#56 = DIRECTION ( 'NONE',  ( 1.000000000000000000, 0.000000000000000000, 0.000000000000000000 ) ) ;
#57 = CARTESIAN_POINT ( 'NONE',  ( 43.27123448728264066, -27.60600098379092415, 10.00000000000000000 ) ) ;
#58 = DIRECTION ( 'NONE',  ( 0.000000000000000000, 0.000000000000000000, 1.000000000000000000 ) ) ;
#59 = PRESENTATION_LAYER_ASSIGNMENT (  '', '', ( #196 ) ) ;
#60 = SURFACE_STYLE_FILL_AREA ( #156 ) ;
#61 = PRESENTATION_STYLE_ASSIGNMENT (( #198 ) ) ;
#62 = EDGE_LOOP ( 'NONE', ( #195, #83 ) ) ;
#63 = CARTESIAN_POINT ( 'NONE',  ( 41.27123448728264776, -27.60600098379092415, 10.00000000000000000 ) ) ;
#64 = VECTOR ( 'NONE', #114, 1000.000000000000000 ) ;
#65 = ORIENTED_EDGE ( 'NONE', *, *, #181, .T. ) ;
#66 = CYLINDRICAL_SURFACE ( 'NONE', #76, 5.500000000000005329 ) ;
#67 = ADVANCED_FACE ( 'NONE', ( #142, #97 ), #113, .F. ) ;
#68 = PRODUCT ( 'EntretoiseFab_11x15x10', 'EntretoiseFab_11x15x10', '', ( #122 ) ) ;
#69 = CARTESIAN_POINT ( 'NONE',  ( 35.77123448728264066, -27.60600098379092415, 10.00000000000000000 ) ) ;
#70 = CARTESIAN_POINT ( 'NONE',  ( 28.27123448728264421, -27.60600098379092415, 10.00000000000000000 ) ) ;
#71 = AXIS2_PLACEMENT_3D ( 'NONE', #164, #72, #56 ) ;
#72 = DIRECTION ( 'NONE',  ( 0.000000000000000000, 0.000000000000000000, 1.000000000000000000 ) ) ;
#73 = CARTESIAN_POINT ( 'NONE',  ( 43.27123448728264066, -27.60600098379092415, 0.000000000000000000 ) ) ;
#74 =( NAMED_UNIT ( * ) SI_UNIT ( $, .STERADIAN. ) SOLID_ANGLE_UNIT ( ) );
#75 = ORIENTED_EDGE ( 'NONE', *, *, #127, .T. ) ;
#76 = AXIS2_PLACEMENT_3D ( 'NONE', #147, #185, #99 ) ;
#77 = PRODUCT_RELATED_PRODUCT_CATEGORY ( 'part', '', ( #68 ) ) ;
#78 = LINE ( 'NONE', #2, #200 ) ;
#79 = ORIENTED_EDGE ( 'NONE', *, *, #134, .T. ) ;
#80 = AXIS2_PLACEMENT_3D ( 'NONE', #18, #58, #89 ) ;
#81 = CARTESIAN_POINT ( 'NONE',  ( 28.27123448728264421, -27.60600098379092415, 0.000000000000000000 ) ) ;
#82 = ORIENTED_EDGE ( 'NONE', *, *, #206, .F. ) ;
#83 = ORIENTED_EDGE ( 'NONE', *, *, #174, .F. ) ;
#84 = ADVANCED_FACE ( 'NONE', ( #43, #133 ), #163, .T. ) ;
#85 = DIRECTION ( 'NONE',  ( 1.000000000000000000, 0.000000000000000000, 0.000000000000000000 ) ) ;
#86 = DIRECTION ( 'NONE',  ( -0.000000000000000000, -0.000000000000000000, -1.000000000000000000 ) ) ;
#87 = CARTESIAN_POINT ( 'NONE',  ( 35.77123448728264066, -27.60600098379092415, 0.000000000000000000 ) ) ;
#88 = EDGE_CURVE ( 'NONE', #153, #158, #26, .T. ) ;
#89 = DIRECTION ( 'NONE',  ( 1.000000000000000000, 0.000000000000000000, 0.000000000000000000 ) ) ;
#90 = PRODUCT_DEFINITION_CONTEXT ( 'detailed design', #203, 'design' ) ;
#91 = DIRECTION ( 'NONE',  ( 0.000000000000000000, 0.000000000000000000, 1.000000000000000000 ) ) ;
#92 = ADVANCED_FACE ( 'NONE', ( #102 ), #117, .T. ) ;
#93 = PRESENTATION_LAYER_ASSIGNMENT (  '', '', ( #100 ) ) ;
#94 = UNCERTAINTY_MEASURE_WITH_UNIT (LENGTH_MEASURE( 1.000000000000000082E-05 ), #191, 'distance_accuracy_value', 'NONE');
#95 = ORIENTED_EDGE ( 'NONE', *, *, #190, .T. ) ;
#96 = ORIENTED_EDGE ( 'NONE', *, *, #145, .F. ) ;
#97 = FACE_BOUND ( 'NONE', #17, .T. ) ;
#98 = VERTEX_POINT ( 'NONE', #186 ) ;
#99 = DIRECTION ( 'NONE',  ( -1.000000000000000000, 0.000000000000000000, 0.000000000000000000 ) ) ;
#100 = STYLED_ITEM ( 'NONE', ( #61 ), #32 ) ;
#101 =( GEOMETRIC_REPRESENTATION_CONTEXT ( 3 ) GLOBAL_UNCERTAINTY_ASSIGNED_CONTEXT ( ( #94 ) ) GLOBAL_UNIT_ASSIGNED_CONTEXT ( ( #191, #171, #74 ) ) REPRESENTATION_CONTEXT ( 'NONE', 'WORKASPACE' ) );
#102 = FACE_OUTER_BOUND ( 'NONE', #172, .T. ) ;
#103 = DIRECTION ( 'NONE',  ( 1.000000000000000000, 0.000000000000000000, -0.000000000000000000 ) ) ;
#104 = DIRECTION ( 'NONE',  ( -1.000000000000000000, 0.000000000000000000, 0.000000000000000000 ) ) ;
#105 = AXIS2_PLACEMENT_3D ( 'NONE', #116, #132, #208 ) ;
#106 = CARTESIAN_POINT ( 'NONE',  ( 35.77123448728264066, -27.60600098379092415, 10.00000000000000000 ) ) ;
#107 = SURFACE_STYLE_USAGE ( .BOTH. , #170 ) ;
#108 = ORIENTED_EDGE ( 'NONE', *, *, #127, .F. ) ;
#109 = AXIS2_PLACEMENT_3D ( 'NONE', #207, #10, #23 ) ;
#110 = ORIENTED_EDGE ( 'NONE', *, *, #88, .F. ) ;
#111 = ORIENTED_EDGE ( 'NONE', *, *, #27, .F. ) ;
#112 = FACE_OUTER_BOUND ( 'NONE', #14, .T. ) ;
#113 = PLANE ( 'NONE',  #141 ) ;
#114 = DIRECTION ( 'NONE',  ( -0.000000000000000000, -0.000000000000000000, -1.000000000000000000 ) ) ;
#115 = DIRECTION ( 'NONE',  ( 0.000000000000000000, 0.000000000000000000, 1.000000000000000000 ) ) ;
#116 = CARTESIAN_POINT ( 'NONE',  ( 35.77123448728264066, -27.60600098379092415, 0.000000000000000000 ) ) ;
#117 = CYLINDRICAL_SURFACE ( 'NONE', #24, 7.500000000000000000 ) ;
#118 = CYLINDRICAL_SURFACE ( 'NONE', #31, 5.500000000000005329 ) ;
#119 = CIRCLE ( 'NONE', #176, 5.500000000000005329 ) ;
#120 = APPLICATION_PROTOCOL_DEFINITION ( 'draft international standard', 'automotive_design', 1998, #203 ) ;
#121 = UNCERTAINTY_MEASURE_WITH_UNIT (LENGTH_MEASURE( 1.000000000000000082E-05 ), #39, 'distance_accuracy_value', 'NONE');
#122 = PRODUCT_CONTEXT ( 'NONE', #179, 'mechanical' ) ;
#123 = CIRCLE ( 'NONE', #178, 5.500000000000005329 ) ;
#124 = ORIENTED_EDGE ( 'NONE', *, *, #12, .F. ) ;
#125 = ORIENTED_EDGE ( 'NONE', *, *, #181, .F. ) ;
#126 = CARTESIAN_POINT ( 'NONE',  ( 35.77123448728264066, -27.60600098379092415, 10.00000000000000000 ) ) ;
#127 = EDGE_CURVE ( 'NONE', #194, #158, #165, .T. ) ;
#128 = DIRECTION ( 'NONE',  ( 0.000000000000000000, 0.000000000000000000, 1.000000000000000000 ) ) ;
#129 = CLOSED_SHELL ( 'NONE', ( #167, #49, #84, #67, #92, #148 ) ) ;
#130 = EDGE_LOOP ( 'NONE', ( #192, #38, #96, #110 ) ) ;
#131 = DIRECTION ( 'NONE',  ( 1.000000000000000000, 0.000000000000000000, 0.000000000000000000 ) ) ;
#132 = DIRECTION ( 'NONE',  ( 0.000000000000000000, 0.000000000000000000, 1.000000000000000000 ) ) ;
#133 = FACE_BOUND ( 'NONE', #62, .T. ) ;
#134 = EDGE_CURVE ( 'NONE', #50, #154, #214, .T. ) ;
#135 = LINE ( 'NONE', #204, #64 ) ;
#136 = ORIENTED_EDGE ( 'NONE', *, *, #145, .T. ) ;
#137 = DIRECTION ( 'NONE',  ( 1.000000000000000000, 0.000000000000000000, 0.000000000000000000 ) ) ;
#138 = EDGE_CURVE ( 'NONE', #153, #98, #119, .T. ) ;
#139 = FILL_AREA_STYLE_COLOUR ( '', #19 ) ;
#140 = SURFACE_STYLE_FILL_AREA ( #213 ) ;
#141 = AXIS2_PLACEMENT_3D ( 'NONE', #184, #6, #103 ) ;
#142 = FACE_OUTER_BOUND ( 'NONE', #30, .T. ) ;
#143 = ORIENTED_EDGE ( 'NONE', *, *, #7, .F. ) ;
#144 = DIRECTION ( 'NONE',  ( -0.000000000000000000, -0.000000000000000000, -1.000000000000000000 ) ) ;
#145 = EDGE_CURVE ( 'NONE', #158, #194, #205, .T. ) ;
#146 = CARTESIAN_POINT ( 'NONE',  ( 41.27123448728264776, -27.60600098379092415, 0.000000000000000000 ) ) ;
#147 = CARTESIAN_POINT ( 'NONE',  ( 35.77123448728264066, -27.60600098379092415, 10.00000000000000000 ) ) ;
#148 = ADVANCED_FACE ( 'NONE', ( #151 ), #118, .F. ) ;
#149 = DIRECTION ( 'NONE',  ( -0.000000000000000000, -0.000000000000000000, -1.000000000000000000 ) ) ;
#150 = CIRCLE ( 'NONE', #51, 7.500000000000000000 ) ;
#151 = FACE_OUTER_BOUND ( 'NONE', #169, .T. ) ;
#152 = DIRECTION ( 'NONE',  ( -0.000000000000000000, -0.000000000000000000, -1.000000000000000000 ) ) ;
#153 = VERTEX_POINT ( 'NONE', #42 ) ;
#154 = VERTEX_POINT ( 'NONE', #73 ) ;
#155 = PRODUCT_DEFINITION ( 'UNKNOWN', '', #44, #90 ) ;
#156 = FILL_AREA_STYLE ('',( #189 ) ) ;
#157 = LINE ( 'NONE', #63, #168 ) ;
#158 = VERTEX_POINT ( 'NONE', #8 ) ;
#159 = ORIENTED_EDGE ( 'NONE', *, *, #12, .T. ) ;
#160 = ORIENTED_EDGE ( 'NONE', *, *, #174, .T. ) ;
#161 =( GEOMETRIC_REPRESENTATION_CONTEXT ( 3 ) GLOBAL_UNCERTAINTY_ASSIGNED_CONTEXT ( ( #121 ) ) GLOBAL_UNIT_ASSIGNED_CONTEXT ( ( #39, #166, #29 ) ) REPRESENTATION_CONTEXT ( 'NONE', 'WORKASPACE' ) );
#162 = DIRECTION ( 'NONE',  ( 0.000000000000000000, 0.000000000000000000, 1.000000000000000000 ) ) ;
#163 = PLANE ( 'NONE',  #9 ) ;
#164 = CARTESIAN_POINT ( 'NONE',  ( 35.77123448728264066, -27.60600098379092415, 0.000000000000000000 ) ) ;
#165 = CIRCLE ( 'NONE', #105, 5.500000000000005329 ) ;
#166 =( NAMED_UNIT ( * ) PLANE_ANGLE_UNIT ( ) SI_UNIT ( $, .RADIAN. ) );
#167 = ADVANCED_FACE ( 'NONE', ( #209 ), #66, .F. ) ;
#168 = VECTOR ( 'NONE', #201, 1000.000000000000000 ) ;
#169 = EDGE_LOOP ( 'NONE', ( #143, #160, #177, #108 ) ) ;
#170 = SURFACE_SIDE_STYLE ('',( #60 ) ) ;
#171 =( NAMED_UNIT ( * ) PLANE_ANGLE_UNIT ( ) SI_UNIT ( $, .RADIAN. ) );
#172 = EDGE_LOOP ( 'NONE', ( #125, #111, #159, #79 ) ) ;
#173 = UNCERTAINTY_MEASURE_WITH_UNIT (LENGTH_MEASURE( 1.000000000000000082E-05 ), #3, 'distance_accuracy_value', 'NONE');
#174 = EDGE_CURVE ( 'NONE', #98, #153, #123, .T. ) ;
#175 = MECHANICAL_DESIGN_GEOMETRIC_PRESENTATION_REPRESENTATION (  '', ( #196 ), #101 ) ;
#176 = AXIS2_PLACEMENT_3D ( 'NONE', #40, #162, #188 ) ;
#177 = ORIENTED_EDGE ( 'NONE', *, *, #88, .T. ) ;
#178 = AXIS2_PLACEMENT_3D ( 'NONE', #69, #91, #131 ) ;
#179 = APPLICATION_CONTEXT ( 'automotive_design' ) ;
#180 = PRODUCT_DEFINITION_SHAPE ( 'NONE', 'NONE',  #155 ) ;
#181 = EDGE_CURVE ( 'NONE', #211, #154, #135, .T. ) ;
#182 = VERTEX_POINT ( 'NONE', #70 ) ;
#183 = EDGE_LOOP ( 'NONE', ( #48, #95 ) ) ;
#184 = CARTESIAN_POINT ( 'NONE',  ( 35.77123448728264066, -27.60600098379092415, 0.000000000000000000 ) ) ;
#185 = DIRECTION ( 'NONE',  ( -0.000000000000000000, -0.000000000000000000, -1.000000000000000000 ) ) ;
#186 = CARTESIAN_POINT ( 'NONE',  ( 41.27123448728264776, -27.60600098379092415, 10.00000000000000000 ) ) ;
#187 = AXIS2_PLACEMENT_3D ( 'NONE', #16, #144, #34 ) ;
#188 = DIRECTION ( 'NONE',  ( 1.000000000000000000, 0.000000000000000000, 0.000000000000000000 ) ) ;
#189 = FILL_AREA_STYLE_COLOUR ( '', #4 ) ;
#190 = EDGE_CURVE ( 'NONE', #211, #182, #212, .T. ) ;
#191 =( LENGTH_UNIT ( ) NAMED_UNIT ( * ) SI_UNIT ( .MILLI., .METRE. ) );
#192 = ORIENTED_EDGE ( 'NONE', *, *, #138, .T. ) ;
#193 = CARTESIAN_POINT ( 'NONE',  ( 0.000000000000000000, 0.000000000000000000, 0.000000000000000000 ) ) ;
#194 = VERTEX_POINT ( 'NONE', #146 ) ;
#195 = ORIENTED_EDGE ( 'NONE', *, *, #138, .F. ) ;
#196 = STYLED_ITEM ( 'NONE', ( #45 ), #46 ) ;
#197 =( NAMED_UNIT ( * ) PLANE_ANGLE_UNIT ( ) SI_UNIT ( $, .RADIAN. ) );
#198 = SURFACE_STYLE_USAGE ( .BOTH. , #37 ) ;
#199 =( NAMED_UNIT ( * ) SI_UNIT ( $, .STERADIAN. ) SOLID_ANGLE_UNIT ( ) );
#200 = VECTOR ( 'NONE', #54, 1000.000000000000000 ) ;
#201 = DIRECTION ( 'NONE',  ( -0.000000000000000000, -0.000000000000000000, -1.000000000000000000 ) ) ;
#202 = CARTESIAN_POINT ( 'NONE',  ( 35.77123448728264066, -27.60600098379092415, 10.00000000000000000 ) ) ;
#203 = APPLICATION_CONTEXT ( 'automotive_design' ) ;
#204 = CARTESIAN_POINT ( 'NONE',  ( 43.27123448728264066, -27.60600098379092415, 10.00000000000000000 ) ) ;
#205 = CIRCLE ( 'NONE', #33, 5.500000000000005329 ) ;
#206 = EDGE_CURVE ( 'NONE', #154, #50, #20, .T. ) ;
#207 = CARTESIAN_POINT ( 'NONE',  ( 35.77123448728264066, -27.60600098379092415, 10.00000000000000000 ) ) ;
#208 = DIRECTION ( 'NONE',  ( 1.000000000000000000, 0.000000000000000000, 0.000000000000000000 ) ) ;
#209 = FACE_OUTER_BOUND ( 'NONE', #130, .T. ) ;
#210 = SHAPE_DEFINITION_REPRESENTATION ( #180, #46 ) ;
#211 = VERTEX_POINT ( 'NONE', #57 ) ;
#212 = CIRCLE ( 'NONE', #109, 7.500000000000000000 ) ;
#213 = FILL_AREA_STYLE ('',( #139 ) ) ;
#214 = CIRCLE ( 'NONE', #80, 7.500000000000000000 ) ;
ENDSEC;
END-ISO-10303-21;
