  0
SECTION
  2
HEADER
  9
$ACADVER
  1
AC1009
  9
$INSBASE
 10
0.0
 20
0.0
 30
0.0
  9
$EXTMIN
 10
0.0
 20
0.0
 30
0.0
  9
$EXTMAX
 10
0.0
 20
0.0
 30
0.0
  0
ENDSEC
  0
SECTION
  2
TABLES
  0
TABLE
  2
VPORT
 70
0
  0
ENDTAB
  0
TABLE
  2
LTYPE
 70
1
  0
LTYPE
  2
CONTINUOUS
 70
0
  3
Solid line
 72
65
 73
0
 40
0.0
  0
ENDTAB
  0
TABLE
  2
LAYER
 70
1
  0
LAYER
  2
0
 70
64
 62
7
  6
continuous
  0
ENDTAB
  0
TABLE
  2
STYLE
 70
1
  0
STYLE
  2
STANDARD
 70
0
 40
0
 41
1.0
 50
0.0
 71
0
 42
1
 3
ARIAL.TTF
 4

  0
ENDTAB
  0
TABLE
  2
VIEW
 70
0
  0
ENDTAB
  0
ENDSEC
  0
SECTION
  2
BLOCKS
  0
BLOCK
  8
0
  2
POCKET007
 70
0
 10
0.0
 20
0.0
 30
0.0
  3
POCKET007
  0
LINE
  8
0
 62
0
 10
-151.85005200000003
 20
198.67004399999996
 30
0.0
 11
-523.850052
 21
198.67004399999996
 31
0.0
  0
ARC
  8
0
 62
0
 10
-151.850052
 20
376.67004399999996
 30
0.0
 40
178.0
 50
-90.00000000000001
 51
-0.0
  0
LINE
  8
0
 62
0
 10
-523.850052
 20
198.67004399999996
 30
0.0
 11
-523.850052
 21
-101.32995600000004
 31
0.0
  0
LINE
  8
0
 62
0
 10
26.149947999999995
 20
1198.670044
 30
0.0
 11
26.149947999999995
 21
376.67004399999996
 31
0.0
  0
LINE
  8
0
 62
0
 10
-523.850052
 20
-101.32995600000001
 30
0.0
 11
51.149947999999995
 21
-101.32995600000001
 31
0.0
  0
LINE
  8
0
 62
0
 10
326.149948
 20
1198.670044
 30
0.0
 11
26.149947999999995
 21
1198.670044
 31
0.0
  0
ARC
  8
0
 62
0
 10
51.149947999999995
 20
173.670044
 30
0.0
 40
275.0
 50
-90.00000000000001
 51
-0.0
  0
LINE
  8
0
 62
0
 10
326.149948
 20
173.67004399999993
 30
0.0
 11
326.149948
 21
1198.670044
 31
0.0
  0
CIRCLE
  8
0
 62
0
 10
-498.85005200000006
 20
188.67004399999996
 30
0.0
 40
5.0
  0
CIRCLE
  8
0
 62
0
 10
-338.85005200000006
 20
188.67004399999996
 30
0.0
 40
5.0
  0
CIRCLE
  8
0
 62
0
 10
-418.85005200000006
 20
188.67004399999996
 30
0.0
 40
5.0
  0
CIRCLE
  8
0
 62
0
 10
-178.85005200000006
 20
188.67004399999996
 30
0.0
 40
5.0
  0
CIRCLE
  8
0
 62
0
 10
-258.85005200000006
 20
188.67004399999996
 30
0.0
 40
5.0
  0
CIRCLE
  8
0
 62
0
 10
32.149947999999995
 20
538.670044
 30
0.0
 40
3.0
  0
CIRCLE
  8
0
 62
0
 10
32.149947999999995
 20
432.0033773333332
 30
0.0
 40
3.0
  0
CIRCLE
  8
0
 62
0
 10
-18.85005200000005
 20
188.67004399999996
 30
0.0
 40
5.0
  0
CIRCLE
  8
0
 62
0
 10
32.149947999999995
 20
218.67004399999996
 30
0.0
 40
3.0
  0
CIRCLE
  8
0
 62
0
 10
32.149947999999995
 20
325.3367106666666
 30
0.0
 40
3.0
  0
CIRCLE
  8
0
 62
0
 10
32.149947999999995
 20
645.3367106666666
 30
0.0
 40
3.0
  0
CIRCLE
  8
0
 62
0
 10
32.149947999999995
 20
1072.0033773333332
 30
0.0
 40
3.0
  0
CIRCLE
  8
0
 62
0
 10
32.149947999999995
 20
965.3367106666666
 30
0.0
 40
3.0
  0
CIRCLE
  8
0
 62
0
 10
32.149947999999995
 20
858.670044
 30
0.0
 40
3.0
  0
CIRCLE
  8
0
 62
0
 10
32.149947999999995
 20
752.0033773333332
 30
0.0
 40
3.0
  0
CIRCLE
  8
0
 62
0
 10
303.149948
 20
843.7292426378946
 30
0.0
 40
6.0
  0
CIRCLE
  8
0
 62
0
 10
176.149948
 20
836.170044
 30
0.0
 40
66.0
  0
CIRCLE
  8
0
 62
0
 10
48.14994800000001
 20
918.670044
 30
0.0
 40
5.0
  0
CIRCLE
  8
0
 62
0
 10
304.181023
 20
255.7292426378946
 30
0.0
 40
6.0
  0
CIRCLE
  8
0
 62
0
 10
304.181023
 20
451.7292426378946
 30
0.0
 40
6.0
  0
ARC
  8
0
 62
0
 10
176.149948
 20
404.170044
 30
0.0
 40
65.99999999999999
 50
-180.0
 51
-0.0
  0
LINE
  8
0
 62
0
 10
110.14994800000001
 20
404.170044
 30
0.0
 11
110.14994800000001
 21
592.170044
 31
0.0
  0
LINE
  8
0
 62
0
 10
242.149948
 20
404.170044
 30
0.0
 11
242.149948
 21
592.170044
 31
0.0
  0
ARC
  8
0
 62
0
 10
176.149948
 20
592.170044
 30
0.0
 40
65.99999999999999
 50
-0.0
 51
-180.0
  0
CIRCLE
  8
0
 62
0
 10
302.624984
 20
647.7292426378946
 30
0.0
 40
6.0
  0
CIRCLE
  8
0
 62
0
 10
48.14994800000001
 20
970.670044
 30
0.0
 40
5.0
  0
CIRCLE
  8
0
 62
0
 10
301.14994799999994
 20
188.67004399999996
 30
0.0
 40
5.0
  0
CIRCLE
  8
0
 62
0
 10
141.14994799999994
 20
188.67004399999996
 30
0.0
 40
5.0
  0
CIRCLE
  8
0
 62
0
 10
61.149947999999995
 20
-91.32995600000001
 30
0.0
 40
5.0
  0
CIRCLE
  8
0
 62
0
 10
-18.85005200000001
 20
-91.32995600000001
 30
0.0
 40
5.0
  0
CIRCLE
  8
0
 62
0
 10
-98.850052
 20
-91.32995600000001
 30
0.0
 40
5.0
  0
CIRCLE
  8
0
 62
0
 10
-338.850052
 20
-91.32995600000001
 30
0.0
 40
5.0
  0
CIRCLE
  8
0
 62
0
 10
-178.850052
 20
-91.32995600000001
 30
0.0
 40
5.0
  0
CIRCLE
  8
0
 62
0
 10
-36.407074
 20
48.67004399999997
 30
0.0
 40
66.0
  0
ARC
  8
0
 62
0
 10
-401.4460831179588
 20
48.67004399999997
 30
0.0
 40
66.0
 50
90.0
 51
-90.0
  0
LINE
  8
0
 62
0
 10
-401.4460831179588
 20
114.67004399999996
 30
0.0
 11
-267.4460831179588
 21
114.67004399999996
 31
0.0
  0
LINE
  8
0
 62
0
 10
-401.4460831179588
 20
-17.32995600000003
 30
0.0
 11
-267.4460831179587
 21
-17.32995600000003
 31
0.0
  0
ARC
  8
0
 62
0
 10
-267.4460831179588
 20
48.67004399999997
 30
0.0
 40
66.0
 50
-89.99999999999994
 51
90.0
  0
CIRCLE
  8
0
 62
0
 10
-418.850052
 20
-91.32995600000001
 30
0.0
 40
5.0
  0
CIRCLE
  8
0
 62
0
 10
-258.850052
 20
-91.32995600000001
 30
0.0
 40
5.0
  0
CIRCLE
  8
0
 62
0
 10
-498.850052
 20
-91.32995600000001
 30
0.0
 40
5.0
  0
CIRCLE
  8
0
 62
0
 10
316.149948
 20
1126.670044
 30
0.0
 40
5.0
  0
CIRCLE
  8
0
 62
0
 10
316.149948
 20
1074.670044
 30
0.0
 40
5.0
  0
CIRCLE
  8
0
 62
0
 10
316.149948
 20
1022.670044
 30
0.0
 40
5.0
  0
CIRCLE
  8
0
 62
0
 10
48.14994800000001
 20
1126.670044
 30
0.0
 40
5.0
  0
CIRCLE
  8
0
 62
0
 10
48.14994800000001
 20
1074.670044
 30
0.0
 40
5.0
  0
CIRCLE
  8
0
 62
0
 10
48.14994800000001
 20
1022.670044
 30
0.0
 40
5.0
  0
CIRCLE
  8
0
 62
0
 10
176.149948
 20
1080.170044
 30
0.0
 40
66.0
  0
CIRCLE
  8
0
 62
0
 10
316.149948
 20
970.670044
 30
0.0
 40
5.0
  0
CIRCLE
  8
0
 62
0
 10
316.149948
 20
918.670044
 30
0.0
 40
5.0
  0
CIRCLE
  8
0
 62
0
 10
32.149947999999995
 20
1178.670044
 30
0.0
 40
3.0
  0
CIRCLE
  8
0
 62
0
 10
48.14994800000001
 20
1178.670044
 30
0.0
 40
5.0
  0
CIRCLE
  8
0
 62
0
 10
316.149948
 20
1178.670044
 30
0.0
 40
5.0
  0
ENDBLK
  0
ENDSEC
  0
SECTION
  2
ENTITIES
  0
INSERT
  2
POCKET007
  8
0
 62
0
 10
0.0
 20
0.0
 30
0.0
  0
ENDSEC
  0
EOF
