ISO-10303-21;
HEADER;

FILE_DESCRIPTION(
/* description */ ('VariCAD 2020-1.05 AP-214'),
/* implementation_level */ '2;1');

FILE_NAME(
/* name */ 'tulipe Axe ar.stp',
/* time_stamp */ '2022-02-02T21:16:07+01:00',
/* author */ (''),
/* organization */ (''),
/* preprocessor_version */ 'VariCAD 2020-1.05',
/* originating_system */ 'VariCAD 2020-1.05; kernel version (20180118)',
/* authorisation */ '');

FILE_SCHEMA(('AUTOMOTIVE_DESIGN'));
ENDSEC;

DATA;
#10=MECHANICAL_DESIGN_GEOMETRIC_PRESENTATION_REPRESENTATION('',(#145),#466);
#11=CONTEXT_DEPENDENT_SHAPE_REPRESENTATION(#13,#249);
#12=NEXT_ASSEMBLY_USAGE_OCCURRENCE('','','',#250,#251,'');
#13=(
REPRESENTATION_RELATIONSHIP('','',#264,#265)
REPRESENTATION_RELATIONSHIP_WITH_TRANSFORMATION(#14)
SHAPE_REPRESENTATION_RELATIONSHIP()
);
#14=ITEM_DEFINED_TRANSFORMATION('','',#306,#267);
#15=SHAPE_REPRESENTATION_RELATIONSHIP('','',#265,#16);
#16=ADVANCED_BREP_SHAPE_REPRESENTATION('',(#17,#305),#465);
#17=MANIFOLD_SOLID_BREP('',#18);
#18=CLOSED_SHELL('',(#33,#34,#35,#36,#37,#38,#39,#40,#41,#42,#43,#44,#45,#46,
#47));
#19=FACE_BOUND('',#71,.F.);
#20=FACE_BOUND('',#74,.F.);
#21=FACE_BOUND('',#77,.F.);
#22=PLANE('',#298);
#23=PLANE('',#300);
#24=PLANE('',#302);
#25=CYLINDRICAL_SURFACE('',#292,14.2500000000001);
#26=CYLINDRICAL_SURFACE('',#293,10.0000000000001);
#27=CYLINDRICAL_SURFACE('',#299,14.2500000000001);
#28=CYLINDRICAL_SURFACE('',#301,10.0000000000001);
#29=CONICAL_SURFACE('',#291,20.,0.182219992225302);
#30=CONICAL_SURFACE('',#294,15.5,0.291708262155329);
#31=CONICAL_SURFACE('',#297,20.,0.182219992225302);
#32=CONICAL_SURFACE('',#303,15.5,0.291708262155329);
#33=ADVANCED_FACE('',(#48),#141,.F.);
#34=ADVANCED_FACE('',(#49),#29,.T.);
#35=ADVANCED_FACE('',(#50),#25,.F.);
#36=ADVANCED_FACE('',(#51),#26,.F.);
#37=ADVANCED_FACE('',(#52),#30,.F.);
#38=ADVANCED_FACE('',(#53),#142,.T.);
#39=ADVANCED_FACE('',(#54),#143,.F.);
#40=ADVANCED_FACE('',(#55),#31,.T.);
#41=ADVANCED_FACE('',(#19,#56),#22,.T.);
#42=ADVANCED_FACE('',(#57),#27,.F.);
#43=ADVANCED_FACE('',(#20,#58),#23,.T.);
#44=ADVANCED_FACE('',(#59),#28,.F.);
#45=ADVANCED_FACE('',(#21,#60),#24,.T.);
#46=ADVANCED_FACE('',(#61),#32,.F.);
#47=ADVANCED_FACE('',(#62),#144,.T.);
#48=FACE_OUTER_BOUND('',#63,.F.);
#49=FACE_OUTER_BOUND('',#64,.F.);
#50=FACE_OUTER_BOUND('',#65,.F.);
#51=FACE_OUTER_BOUND('',#66,.F.);
#52=FACE_OUTER_BOUND('',#67,.F.);
#53=FACE_OUTER_BOUND('',#68,.F.);
#54=FACE_OUTER_BOUND('',#69,.F.);
#55=FACE_OUTER_BOUND('',#70,.F.);
#56=FACE_OUTER_BOUND('',#72,.F.);
#57=FACE_OUTER_BOUND('',#73,.F.);
#58=FACE_OUTER_BOUND('',#75,.F.);
#59=FACE_OUTER_BOUND('',#76,.F.);
#60=FACE_OUTER_BOUND('',#78,.F.);
#61=FACE_OUTER_BOUND('',#79,.F.);
#62=FACE_OUTER_BOUND('',#80,.F.);
#63=EDGE_LOOP('',(#81,#82,#83,#84));
#64=EDGE_LOOP('',(#85,#86,#87,#88));
#65=EDGE_LOOP('',(#89,#90,#91,#92));
#66=EDGE_LOOP('',(#93,#94,#95,#96));
#67=EDGE_LOOP('',(#97,#98,#99,#100));
#68=EDGE_LOOP('',(#101,#102,#103,#104));
#69=EDGE_LOOP('',(#105,#106,#107,#108));
#70=EDGE_LOOP('',(#109,#110,#111,#112));
#71=EDGE_LOOP('',(#113,#114));
#72=EDGE_LOOP('',(#115,#116));
#73=EDGE_LOOP('',(#117,#118,#119,#120));
#74=EDGE_LOOP('',(#121,#122));
#75=EDGE_LOOP('',(#123,#124));
#76=EDGE_LOOP('',(#125,#126,#127,#128));
#77=EDGE_LOOP('',(#129,#130));
#78=EDGE_LOOP('',(#131,#132));
#79=EDGE_LOOP('',(#133,#134,#135,#136));
#80=EDGE_LOOP('',(#137,#138,#139,#140));
#81=ORIENTED_EDGE('',*,*,#169,.F.);
#82=ORIENTED_EDGE('',*,*,#178,.T.);
#83=ORIENTED_EDGE('',*,*,#177,.T.);
#84=ORIENTED_EDGE('',*,*,#179,.T.);
#85=ORIENTED_EDGE('',*,*,#169,.T.);
#86=ORIENTED_EDGE('',*,*,#181,.F.);
#87=ORIENTED_EDGE('',*,*,#170,.T.);
#88=ORIENTED_EDGE('',*,*,#180,.T.);
#89=ORIENTED_EDGE('',*,*,#171,.F.);
#90=ORIENTED_EDGE('',*,*,#183,.F.);
#91=ORIENTED_EDGE('',*,*,#172,.T.);
#92=ORIENTED_EDGE('',*,*,#182,.T.);
#93=ORIENTED_EDGE('',*,*,#173,.F.);
#94=ORIENTED_EDGE('',*,*,#185,.F.);
#95=ORIENTED_EDGE('',*,*,#174,.F.);
#96=ORIENTED_EDGE('',*,*,#184,.T.);
#97=ORIENTED_EDGE('',*,*,#175,.T.);
#98=ORIENTED_EDGE('',*,*,#187,.F.);
#99=ORIENTED_EDGE('',*,*,#176,.F.);
#100=ORIENTED_EDGE('',*,*,#186,.T.);
#101=ORIENTED_EDGE('',*,*,#176,.T.);
#102=ORIENTED_EDGE('',*,*,#189,.F.);
#103=ORIENTED_EDGE('',*,*,#177,.F.);
#104=ORIENTED_EDGE('',*,*,#188,.F.);
#105=ORIENTED_EDGE('',*,*,#178,.F.);
#106=ORIENTED_EDGE('',*,*,#190,.F.);
#107=ORIENTED_EDGE('',*,*,#179,.F.);
#108=ORIENTED_EDGE('',*,*,#198,.T.);
#109=ORIENTED_EDGE('',*,*,#180,.F.);
#110=ORIENTED_EDGE('',*,*,#191,.T.);
#111=ORIENTED_EDGE('',*,*,#181,.T.);
#112=ORIENTED_EDGE('',*,*,#190,.T.);
#113=ORIENTED_EDGE('',*,*,#192,.T.);
#114=ORIENTED_EDGE('',*,*,#171,.T.);
#115=ORIENTED_EDGE('',*,*,#191,.F.);
#116=ORIENTED_EDGE('',*,*,#170,.F.);
#117=ORIENTED_EDGE('',*,*,#182,.F.);
#118=ORIENTED_EDGE('',*,*,#193,.T.);
#119=ORIENTED_EDGE('',*,*,#183,.T.);
#120=ORIENTED_EDGE('',*,*,#192,.F.);
#121=ORIENTED_EDGE('',*,*,#194,.T.);
#122=ORIENTED_EDGE('',*,*,#173,.T.);
#123=ORIENTED_EDGE('',*,*,#193,.F.);
#124=ORIENTED_EDGE('',*,*,#172,.F.);
#125=ORIENTED_EDGE('',*,*,#184,.F.);
#126=ORIENTED_EDGE('',*,*,#195,.F.);
#127=ORIENTED_EDGE('',*,*,#185,.T.);
#128=ORIENTED_EDGE('',*,*,#194,.F.);
#129=ORIENTED_EDGE('',*,*,#195,.T.);
#130=ORIENTED_EDGE('',*,*,#174,.T.);
#131=ORIENTED_EDGE('',*,*,#196,.F.);
#132=ORIENTED_EDGE('',*,*,#175,.F.);
#133=ORIENTED_EDGE('',*,*,#186,.F.);
#134=ORIENTED_EDGE('',*,*,#197,.F.);
#135=ORIENTED_EDGE('',*,*,#187,.T.);
#136=ORIENTED_EDGE('',*,*,#196,.T.);
#137=ORIENTED_EDGE('',*,*,#188,.T.);
#138=ORIENTED_EDGE('',*,*,#198,.F.);
#139=ORIENTED_EDGE('',*,*,#189,.T.);
#140=ORIENTED_EDGE('',*,*,#197,.T.);
#141=TOROIDAL_SURFACE('',#290,34.053720397145,9.99999999999999);
#142=TOROIDAL_SURFACE('',#295,23.8773319247029,1.50765616646161);
#143=TOROIDAL_SURFACE('',#296,34.053720397145,9.99999999999999);
#144=TOROIDAL_SURFACE('',#304,23.8773319247029,1.50765616646161);
#145=STYLED_ITEM('',(#146),#17);
#146=PRESENTATION_STYLE_ASSIGNMENT((#147));
#147=SURFACE_STYLE_USAGE(.BOTH.,#148);
#148=SURFACE_SIDE_STYLE('',(#149));
#149=SURFACE_STYLE_FILL_AREA(#150);
#150=FILL_AREA_STYLE('',(#151));
#151=FILL_AREA_STYLE_COLOUR('',#152);
#152=COLOUR_RGB('Colour',0.784313725490196,0.784313725490196,0.862745098039216);
#153=LINE('',#428,#161);
#154=LINE('',#429,#162);
#155=LINE('',#430,#163);
#156=LINE('',#431,#164);
#157=LINE('',#432,#165);
#158=LINE('',#433,#166);
#159=LINE('',#434,#167);
#160=LINE('',#435,#168);
#161=VECTOR('',#333,24.4464317552419);
#162=VECTOR('',#334,24.4464317552419);
#163=VECTOR('',#335,1.49999999999994);
#164=VECTOR('',#336,1.49999999999994);
#165=VECTOR('',#337,2.50000000000023);
#166=VECTOR('',#338,2.50000000000023);
#167=VECTOR('',#339,24.2248616515566);
#168=VECTOR('',#340,24.2248616515566);
#169=EDGE_CURVE('',#238,#237,#199,.T.);
#170=EDGE_CURVE('',#236,#235,#200,.T.);
#171=EDGE_CURVE('',#234,#233,#201,.T.);
#172=EDGE_CURVE('',#232,#231,#202,.T.);
#173=EDGE_CURVE('',#230,#229,#203,.T.);
#174=EDGE_CURVE('',#228,#227,#204,.T.);
#175=EDGE_CURVE('',#226,#225,#205,.T.);
#176=EDGE_CURVE('',#224,#223,#206,.T.);
#177=EDGE_CURVE('',#222,#221,#207,.T.);
#178=EDGE_CURVE('',#238,#222,#208,.T.);
#179=EDGE_CURVE('',#221,#237,#209,.T.);
#180=EDGE_CURVE('',#235,#238,#153,.T.);
#181=EDGE_CURVE('',#236,#237,#154,.T.);
#182=EDGE_CURVE('',#231,#233,#155,.T.);
#183=EDGE_CURVE('',#232,#234,#156,.T.);
#184=EDGE_CURVE('',#228,#229,#157,.T.);
#185=EDGE_CURVE('',#227,#230,#158,.T.);
#186=EDGE_CURVE('',#224,#226,#159,.T.);
#187=EDGE_CURVE('',#223,#225,#160,.T.);
#188=EDGE_CURVE('',#224,#222,#210,.T.);
#189=EDGE_CURVE('',#221,#223,#211,.T.);
#190=EDGE_CURVE('',#237,#238,#212,.T.);
#191=EDGE_CURVE('',#235,#236,#213,.T.);
#192=EDGE_CURVE('',#233,#234,#214,.T.);
#193=EDGE_CURVE('',#231,#232,#215,.T.);
#194=EDGE_CURVE('',#229,#230,#216,.T.);
#195=EDGE_CURVE('',#227,#228,#217,.T.);
#196=EDGE_CURVE('',#225,#226,#218,.T.);
#197=EDGE_CURVE('',#223,#224,#219,.T.);
#198=EDGE_CURVE('',#221,#222,#220,.T.);
#199=CIRCLE('',#268,24.4300174915316);
#200=CIRCLE('',#269,20.);
#201=CIRCLE('',#270,14.2500000000002);
#202=CIRCLE('',#271,14.25);
#203=CIRCLE('',#272,10.0000000000002);
#204=CIRCLE('',#273,10.);
#205=CIRCLE('',#274,15.5);
#206=CIRCLE('',#275,22.4667974106975);
#207=CIRCLE('',#276,25.2878981183124);
#208=CIRCLE('',#277,9.99999999999999);
#209=CIRCLE('',#278,9.99999999999999);
#210=CIRCLE('',#279,1.50765616646161);
#211=CIRCLE('',#280,1.50765616646161);
#212=CIRCLE('',#281,24.4300174915316);
#213=CIRCLE('',#282,20.);
#214=CIRCLE('',#283,14.2500000000002);
#215=CIRCLE('',#284,14.25);
#216=CIRCLE('',#285,10.0000000000002);
#217=CIRCLE('',#286,10.);
#218=CIRCLE('',#287,15.5);
#219=CIRCLE('',#288,22.4667974106975);
#220=CIRCLE('',#289,25.2878981183124);
#221=VERTEX_POINT('',#399);
#222=VERTEX_POINT('',#400);
#223=VERTEX_POINT('',#401);
#224=VERTEX_POINT('',#402);
#225=VERTEX_POINT('',#403);
#226=VERTEX_POINT('',#404);
#227=VERTEX_POINT('',#405);
#228=VERTEX_POINT('',#406);
#229=VERTEX_POINT('',#407);
#230=VERTEX_POINT('',#408);
#231=VERTEX_POINT('',#409);
#232=VERTEX_POINT('',#410);
#233=VERTEX_POINT('',#411);
#234=VERTEX_POINT('',#412);
#235=VERTEX_POINT('',#413);
#236=VERTEX_POINT('',#414);
#237=VERTEX_POINT('',#415);
#238=VERTEX_POINT('',#416);
#239=PRODUCT_CATEGORY_RELATIONSHIP('','',#243,#241);
#240=PRODUCT_CATEGORY_RELATIONSHIP('','',#244,#242);
#241=PRODUCT_RELATED_PRODUCT_CATEGORY('detail','',(#256));
#242=PRODUCT_RELATED_PRODUCT_CATEGORY('detail','',(#257));
#243=PRODUCT_CATEGORY('part','');
#244=PRODUCT_CATEGORY('part','');
#245=SHAPE_DEFINITION_REPRESENTATION(#247,#264);
#246=SHAPE_DEFINITION_REPRESENTATION(#248,#265);
#247=PRODUCT_DEFINITION_SHAPE('','Shape',#250);
#248=PRODUCT_DEFINITION_SHAPE('','Shape',#251);
#249=PRODUCT_DEFINITION_SHAPE('','',#12);
#250=PRODUCT_DEFINITION('','',#252,#254);
#251=PRODUCT_DEFINITION('','',#253,#255);
#252=PRODUCT_DEFINITION_FORMATION('','',#256);
#253=PRODUCT_DEFINITION_FORMATION('','',#257);
#254=PRODUCT_DEFINITION_CONTEXT('part definition',#262,'');
#255=PRODUCT_DEFINITION_CONTEXT('part definition',#263,'');
#256=PRODUCT('tulipe Axe ar','tulipe Axe ar','not specified',(#258));
#257=PRODUCT('','','not specified',(#259));
#258=PRODUCT_CONTEXT('',#262,'mechanical');
#259=PRODUCT_CONTEXT('',#263,'mechanical');
#260=APPLICATION_PROTOCOL_DEFINITION('Draft International Standard',
'automotive_design',1997,#262);
#261=APPLICATION_PROTOCOL_DEFINITION('Draft International Standard',
'automotive_design',1997,#263);
#262=APPLICATION_CONTEXT('automotive design');
#263=APPLICATION_CONTEXT('automotive design');
#264=SHAPE_REPRESENTATION('tulipe Axe ar',(#266,#306),#464);
#265=SHAPE_REPRESENTATION('',(#267),#465);
#266=AXIS2_PLACEMENT_3D('',#397,#307,#308);
#267=AXIS2_PLACEMENT_3D('',#398,#309,#310);
#268=AXIS2_PLACEMENT_3D('',#417,#311,#312);
#269=AXIS2_PLACEMENT_3D('',#418,#313,#314);
#270=AXIS2_PLACEMENT_3D('',#419,#315,#316);
#271=AXIS2_PLACEMENT_3D('',#420,#317,#318);
#272=AXIS2_PLACEMENT_3D('',#421,#319,#320);
#273=AXIS2_PLACEMENT_3D('',#422,#321,#322);
#274=AXIS2_PLACEMENT_3D('',#423,#323,#324);
#275=AXIS2_PLACEMENT_3D('',#424,#325,#326);
#276=AXIS2_PLACEMENT_3D('',#425,#327,#328);
#277=AXIS2_PLACEMENT_3D('',#426,#329,#330);
#278=AXIS2_PLACEMENT_3D('',#427,#331,#332);
#279=AXIS2_PLACEMENT_3D('',#436,#341,#342);
#280=AXIS2_PLACEMENT_3D('',#437,#343,#344);
#281=AXIS2_PLACEMENT_3D('',#438,#345,#346);
#282=AXIS2_PLACEMENT_3D('',#439,#347,#348);
#283=AXIS2_PLACEMENT_3D('',#440,#349,#350);
#284=AXIS2_PLACEMENT_3D('',#441,#351,#352);
#285=AXIS2_PLACEMENT_3D('',#442,#353,#354);
#286=AXIS2_PLACEMENT_3D('',#443,#355,#356);
#287=AXIS2_PLACEMENT_3D('',#444,#357,#358);
#288=AXIS2_PLACEMENT_3D('',#445,#359,#360);
#289=AXIS2_PLACEMENT_3D('',#446,#361,#362);
#290=AXIS2_PLACEMENT_3D('',#447,#363,#364);
#291=AXIS2_PLACEMENT_3D('',#448,#366,#365);
#292=AXIS2_PLACEMENT_3D('',#449,#367,#368);
#293=AXIS2_PLACEMENT_3D('',#450,#369,#370);
#294=AXIS2_PLACEMENT_3D('',#451,#372,#371);
#295=AXIS2_PLACEMENT_3D('',#452,#373,#374);
#296=AXIS2_PLACEMENT_3D('',#453,#375,#376);
#297=AXIS2_PLACEMENT_3D('',#454,#378,#377);
#298=AXIS2_PLACEMENT_3D('',#455,#379,#380);
#299=AXIS2_PLACEMENT_3D('',#456,#381,#382);
#300=AXIS2_PLACEMENT_3D('',#457,#383,#384);
#301=AXIS2_PLACEMENT_3D('',#458,#385,#386);
#302=AXIS2_PLACEMENT_3D('',#459,#387,#388);
#303=AXIS2_PLACEMENT_3D('',#460,#390,#389);
#304=AXIS2_PLACEMENT_3D('',#461,#391,#392);
#305=AXIS2_PLACEMENT_3D('',#462,#393,#394);
#306=AXIS2_PLACEMENT_3D('',#463,#395,#396);
#307=DIRECTION('',(0.,0.,1.));
#308=DIRECTION('',(1.,0.,0.));
#309=DIRECTION('',(0.,0.,1.));
#310=DIRECTION('',(1.,0.,0.));
#311=DIRECTION('',(1.,0.,0.));
#312=DIRECTION('',(0.,0.,-1.));
#313=DIRECTION('',(-1.,0.,0.));
#314=DIRECTION('',(0.,0.,1.));
#315=DIRECTION('',(-1.,0.,0.));
#316=DIRECTION('',(0.,0.,1.));
#317=DIRECTION('',(-1.,0.,0.));
#318=DIRECTION('',(0.,0.,1.));
#319=DIRECTION('',(-1.,0.,0.));
#320=DIRECTION('',(0.,0.,1.));
#321=DIRECTION('',(1.,0.,0.));
#322=DIRECTION('',(0.,0.,-1.));
#323=DIRECTION('',(1.,0.,0.));
#324=DIRECTION('',(0.,0.,-1.));
#325=DIRECTION('',(1.,0.,0.));
#326=DIRECTION('',(0.,0.,-1.));
#327=DIRECTION('',(1.,0.,0.));
#328=DIRECTION('',(0.,0.,-1.));
#329=DIRECTION('',(0.,1.,0.));
#330=DIRECTION('',(0.271741465081959,0.,0.962370290561336));
#331=DIRECTION('',(0.,1.,0.));
#332=DIRECTION('',(0.481252114550395,0.,-0.876582227883256));
#333=DIRECTION('',(0.983443824483824,0.,-0.181213255819295));
#334=DIRECTION('',(0.983443824483824,0.,0.181213255819296));
#335=DIRECTION('',(-1.,0.,0.));
#336=DIRECTION('',(-1.,0.,0.));
#337=DIRECTION('',(-1.,0.,0.));
#338=DIRECTION('',(-1.,0.,0.));
#339=DIRECTION('',(-0.957753996231958,0.,0.287588738829799));
#340=DIRECTION('',(-0.957753996231958,0.,-0.287588738829799));
#341=DIRECTION('',(0.,1.,0.));
#342=DIRECTION('',(0.353112064677855,0.,0.935581033250965));
#343=DIRECTION('',(0.,1.,0.));
#344=DIRECTION('',(-0.353056386449355,0.,0.935602045737034));
#345=DIRECTION('',(1.,0.,0.));
#346=DIRECTION('',(0.,0.,1.));
#347=DIRECTION('',(-1.,0.,0.));
#348=DIRECTION('',(0.,0.,-1.));
#349=DIRECTION('',(-1.,0.,0.));
#350=DIRECTION('',(0.,0.,-1.));
#351=DIRECTION('',(-1.,0.,0.));
#352=DIRECTION('',(0.,0.,-1.));
#353=DIRECTION('',(-1.,0.,0.));
#354=DIRECTION('',(0.,0.,-1.));
#355=DIRECTION('',(1.,0.,0.));
#356=DIRECTION('',(0.,0.,1.));
#357=DIRECTION('',(1.,0.,0.));
#358=DIRECTION('',(0.,0.,1.));
#359=DIRECTION('',(1.,0.,0.));
#360=DIRECTION('',(0.,0.,1.));
#361=DIRECTION('',(1.,0.,0.));
#362=DIRECTION('',(0.,0.,1.));
#363=DIRECTION('',(1.,0.,0.));
#364=DIRECTION('',(0.,0.,1.));
#365=DIRECTION('',(0.,0.,-1.));
#366=DIRECTION('',(1.,0.,0.));
#367=DIRECTION('',(1.,0.,0.));
#368=DIRECTION('',(0.,0.,-1.));
#369=DIRECTION('',(1.,0.,0.));
#370=DIRECTION('',(0.,0.,-1.));
#371=DIRECTION('',(0.,0.,-1.));
#372=DIRECTION('',(1.,0.,0.));
#373=DIRECTION('',(1.,0.,0.));
#374=DIRECTION('',(0.,0.,1.));
#375=DIRECTION('',(1.,0.,0.));
#376=DIRECTION('',(0.,0.,1.));
#377=DIRECTION('',(0.,0.,1.));
#378=DIRECTION('',(1.,0.,0.));
#379=DIRECTION('',(-1.,0.,0.));
#380=DIRECTION('',(0.,1.,0.));
#381=DIRECTION('',(1.,0.,0.));
#382=DIRECTION('',(0.,0.,1.));
#383=DIRECTION('',(-1.,0.,0.));
#384=DIRECTION('',(0.,1.,0.));
#385=DIRECTION('',(1.,0.,0.));
#386=DIRECTION('',(0.,0.,1.));
#387=DIRECTION('',(1.,0.,0.));
#388=DIRECTION('',(0.,-1.,0.));
#389=DIRECTION('',(0.,0.,1.));
#390=DIRECTION('',(1.,0.,0.));
#391=DIRECTION('',(1.,0.,0.));
#392=DIRECTION('',(0.,0.,1.));
#393=DIRECTION('',(0.,0.,1.));
#394=DIRECTION('',(1.,0.,0.));
#395=DIRECTION('',(0.,0.,1.));
#396=DIRECTION('',(1.,0.,0.));
#397=CARTESIAN_POINT('',(0.,0.,0.));
#398=CARTESIAN_POINT('',(0.,0.,0.));
#399=CARTESIAN_POINT('',(134.170286436364,0.,25.2878981183124));
#400=CARTESIAN_POINT('',(134.170286436364,0.,-25.2878981183124));
#401=CARTESIAN_POINT('',(135.234945656267,0.,22.4667974106975));
#402=CARTESIAN_POINT('',(135.234945656267,0.,-22.4667974106975));
#403=CARTESIAN_POINT('',(112.033487601322,0.,15.5));
#404=CARTESIAN_POINT('',(112.033487601322,0.,-15.5));
#405=CARTESIAN_POINT('',(112.033487601322,0.,10.));
#406=CARTESIAN_POINT('',(112.033487601322,0.,-10.0000000000001));
#407=CARTESIAN_POINT('',(109.533487601322,0.,-10.0000000000001));
#408=CARTESIAN_POINT('',(109.533487601322,0.,10.0000000000002));
#409=CARTESIAN_POINT('',(109.533487601322,0.,-14.2500000000001));
#410=CARTESIAN_POINT('',(109.533487601322,0.,14.25));
#411=CARTESIAN_POINT('',(108.033487601322,0.,-14.2500000000001));
#412=CARTESIAN_POINT('',(108.033487601322,0.,14.2500000000002));
#413=CARTESIAN_POINT('',(108.033487601322,0.,-20.));
#414=CARTESIAN_POINT('',(108.033487601322,0.,20.));
#415=CARTESIAN_POINT('',(132.07517994168,0.,24.4300174915316));
#416=CARTESIAN_POINT('',(132.07517994168,0.,-24.4300174915316));
#417=CARTESIAN_POINT('',(132.07517994168,0.,0.));
#418=CARTESIAN_POINT('',(108.033487601322,0.,0.));
#419=CARTESIAN_POINT('',(108.033487601322,0.,0.));
#420=CARTESIAN_POINT('',(109.533487601322,0.,0.));
#421=CARTESIAN_POINT('',(109.533487601322,0.,0.));
#422=CARTESIAN_POINT('',(112.033487601322,0.,0.));
#423=CARTESIAN_POINT('',(112.033487601322,0.,0.));
#424=CARTESIAN_POINT('',(135.234945656267,0.,0.));
#425=CARTESIAN_POINT('',(134.170286436364,0.,0.));
#426=CARTESIAN_POINT('',(129.35776529086,0.,-34.053720397145));
#427=CARTESIAN_POINT('',(129.35776529086,0.,34.053720397145));
#428=CARTESIAN_POINT('',(108.033487601322,0.,-20.));
#429=CARTESIAN_POINT('',(108.033487601322,0.,20.));
#430=CARTESIAN_POINT('',(109.533487601322,0.,-14.2500000000002));
#431=CARTESIAN_POINT('',(109.533487601322,0.,14.25));
#432=CARTESIAN_POINT('',(112.033487601322,0.,-10.0000000000002));
#433=CARTESIAN_POINT('',(112.033487601322,0.,10.));
#434=CARTESIAN_POINT('',(135.234945656267,0.,-22.4667974106975));
#435=CARTESIAN_POINT('',(135.234945656267,0.,22.4667974106975));
#436=CARTESIAN_POINT('',(134.702574074503,0.,-23.8773319247028));
#437=CARTESIAN_POINT('',(134.702574074503,0.,23.8773319247029));
#438=CARTESIAN_POINT('',(132.07517994168,0.,0.));
#439=CARTESIAN_POINT('',(108.033487601322,0.,0.));
#440=CARTESIAN_POINT('',(108.033487601322,0.,0.));
#441=CARTESIAN_POINT('',(109.533487601322,0.,0.));
#442=CARTESIAN_POINT('',(109.533487601322,0.,0.));
#443=CARTESIAN_POINT('',(112.033487601322,0.,0.));
#444=CARTESIAN_POINT('',(112.033487601322,0.,0.));
#445=CARTESIAN_POINT('',(135.234945656267,0.,0.));
#446=CARTESIAN_POINT('',(134.170286436364,0.,0.));
#447=CARTESIAN_POINT('',(129.35776529086,0.,0.));
#448=CARTESIAN_POINT('',(108.033487601322,0.,0.));
#449=CARTESIAN_POINT('',(109.533487601322,0.,0.));
#450=CARTESIAN_POINT('',(112.033487601322,0.,0.));
#451=CARTESIAN_POINT('',(112.033487601322,0.,0.));
#452=CARTESIAN_POINT('',(134.702574074503,0.,0.));
#453=CARTESIAN_POINT('',(129.35776529086,0.,0.));
#454=CARTESIAN_POINT('',(108.033487601322,0.,0.));
#455=CARTESIAN_POINT('',(108.033487601322,-20.3999999999999,20.4));
#456=CARTESIAN_POINT('',(109.533487601322,0.,0.));
#457=CARTESIAN_POINT('',(109.533487601322,-14.535,14.535));
#458=CARTESIAN_POINT('',(112.033487601322,0.,0.));
#459=CARTESIAN_POINT('',(112.033487601322,15.81,15.81));
#460=CARTESIAN_POINT('',(112.033487601322,0.,0.));
#461=CARTESIAN_POINT('',(134.702574074503,0.,0.));
#462=CARTESIAN_POINT('',(0.,0.,0.));
#463=CARTESIAN_POINT('',(0.,0.,0.));
#464=(
GEOMETRIC_REPRESENTATION_CONTEXT(3)
GLOBAL_UNCERTAINTY_ASSIGNED_CONTEXT((#467))
GLOBAL_UNIT_ASSIGNED_CONTEXT((#476,#473,#470))
REPRESENTATION_CONTEXT('','')
);
#465=(
GEOMETRIC_REPRESENTATION_CONTEXT(3)
GLOBAL_UNCERTAINTY_ASSIGNED_CONTEXT((#468))
GLOBAL_UNIT_ASSIGNED_CONTEXT((#477,#474,#471))
REPRESENTATION_CONTEXT('','')
);
#466=(
GEOMETRIC_REPRESENTATION_CONTEXT(3)
GLOBAL_UNCERTAINTY_ASSIGNED_CONTEXT((#469))
GLOBAL_UNIT_ASSIGNED_CONTEXT((#478,#475,#472))
REPRESENTATION_CONTEXT('','')
);
#467=UNCERTAINTY_MEASURE_WITH_UNIT(LENGTH_MEASURE(0.001),#476,'TOL_CRV',
'CONFUSED CURVE UNCERTAINTY');
#468=UNCERTAINTY_MEASURE_WITH_UNIT(LENGTH_MEASURE(0.001),#477,'TOL_CRV',
'CONFUSED CURVE UNCERTAINTY');
#469=UNCERTAINTY_MEASURE_WITH_UNIT(LENGTH_MEASURE(0.001),#478,'TOL_CRV',
'CONFUSED CURVE UNCERTAINTY');
#470=(
SI_UNIT($,.STERADIAN.)
SOLID_ANGLE_UNIT()
NAMED_UNIT(*)
);
#471=(
SI_UNIT($,.STERADIAN.)
SOLID_ANGLE_UNIT()
NAMED_UNIT(*)
);
#472=(
SI_UNIT($,.STERADIAN.)
SOLID_ANGLE_UNIT()
NAMED_UNIT(*)
);
#473=(
PLANE_ANGLE_UNIT()
NAMED_UNIT(*)
SI_UNIT($,.RADIAN.)
);
#474=(
PLANE_ANGLE_UNIT()
NAMED_UNIT(*)
SI_UNIT($,.RADIAN.)
);
#475=(
PLANE_ANGLE_UNIT()
NAMED_UNIT(*)
SI_UNIT($,.RADIAN.)
);
#476=(
LENGTH_UNIT()
NAMED_UNIT(*)
SI_UNIT(.MILLI.,.METRE.)
);
#477=(
LENGTH_UNIT()
NAMED_UNIT(*)
SI_UNIT(.MILLI.,.METRE.)
);
#478=(
LENGTH_UNIT()
NAMED_UNIT(*)
SI_UNIT(.MILLI.,.METRE.)
);
ENDSEC;
END-ISO-10303-21;
