ISO-10303-21;
HEADER;
/* Generated by software containing ST-Developer
 * from STEP Tools, Inc. (www.steptools.com) 
 */

FILE_DESCRIPTION(
/* description */ (''),
/* implementation_level */ '2;1');

FILE_NAME(
/* name */ 
'D:\\perso\\CNC\\AXE Y\\pi\X\E8ce en aluminium\\Support c\X\F4t\X\E9 G
auche.stp',
/* time_stamp */ '2022-01-19T13:00:47+01:00',
/* author */ ('boby'),
/* organization */ (''),
/* preprocessor_version */ 'ST-DEVELOPER v16.5',
/* originating_system */ 'Autodesk Inventor 2017',
/* authorisation */ '');

FILE_SCHEMA (('AUTOMOTIVE_DESIGN { 1 0 10303 214 3 1 1 }'));
ENDSEC;

DATA;
#10=MECHANICAL_DESIGN_GEOMETRIC_PRESENTATION_REPRESENTATION('',(#13),#698);
#11=SHAPE_REPRESENTATION_RELATIONSHIP('SRR','None',#707,#12);
#12=ADVANCED_BREP_SHAPE_REPRESENTATION('',(#14),#697);
#13=STYLED_ITEM('',(#716),#14);
#14=MANIFOLD_SOLID_BREP('Solide1',#412);
#15=LINE('',#654,#34);
#16=LINE('',#656,#35);
#17=LINE('',#658,#36);
#18=LINE('',#659,#37);
#19=LINE('',#664,#38);
#20=LINE('',#668,#39);
#21=LINE('',#670,#40);
#22=LINE('',#671,#41);
#23=LINE('',#674,#42);
#24=LINE('',#676,#43);
#25=LINE('',#677,#44);
#26=LINE('',#680,#45);
#27=LINE('',#682,#46);
#28=LINE('',#683,#47);
#29=LINE('',#686,#48);
#30=LINE('',#688,#49);
#31=LINE('',#689,#50);
#32=LINE('',#691,#51);
#33=LINE('',#692,#52);
#34=VECTOR('',#549,10.);
#35=VECTOR('',#550,10.);
#36=VECTOR('',#551,10.);
#37=VECTOR('',#552,10.);
#38=VECTOR('',#557,10.);
#39=VECTOR('',#562,10.);
#40=VECTOR('',#563,10.);
#41=VECTOR('',#564,10.);
#42=VECTOR('',#567,10.);
#43=VECTOR('',#568,10.);
#44=VECTOR('',#569,10.);
#45=VECTOR('',#572,10.);
#46=VECTOR('',#573,10.);
#47=VECTOR('',#574,10.);
#48=VECTOR('',#577,10.);
#49=VECTOR('',#578,10.);
#50=VECTOR('',#579,10.);
#51=VECTOR('',#582,10.);
#52=VECTOR('',#583,10.);
#53=PLANE('',#423);
#54=PLANE('',#427);
#55=PLANE('',#458);
#56=PLANE('',#462);
#57=PLANE('',#463);
#58=PLANE('',#464);
#59=PLANE('',#465);
#60=PLANE('',#466);
#61=PLANE('',#467);
#62=PLANE('',#468);
#63=FACE_BOUND('',#121,.T.);
#64=FACE_BOUND('',#124,.T.);
#65=FACE_BOUND('',#127,.T.);
#66=FACE_BOUND('',#129,.T.);
#67=FACE_BOUND('',#131,.T.);
#68=FACE_BOUND('',#133,.T.);
#69=FACE_BOUND('',#135,.T.);
#70=FACE_BOUND('',#137,.T.);
#71=FACE_BOUND('',#139,.T.);
#72=FACE_BOUND('',#141,.T.);
#73=FACE_BOUND('',#143,.T.);
#74=FACE_BOUND('',#145,.T.);
#75=FACE_BOUND('',#150,.T.);
#76=FACE_BOUND('',#151,.T.);
#77=FACE_BOUND('',#156,.T.);
#78=FACE_BOUND('',#157,.T.);
#79=FACE_BOUND('',#158,.T.);
#80=FACE_BOUND('',#159,.T.);
#81=FACE_BOUND('',#160,.T.);
#82=FACE_BOUND('',#161,.T.);
#83=FACE_BOUND('',#162,.T.);
#84=FACE_BOUND('',#163,.T.);
#85=FACE_BOUND('',#164,.T.);
#86=FACE_BOUND('',#165,.T.);
#87=FACE_BOUND('',#167,.T.);
#88=FACE_BOUND('',#168,.T.);
#89=FACE_BOUND('',#169,.T.);
#90=FACE_BOUND('',#170,.T.);
#91=FACE_BOUND('',#171,.T.);
#92=FACE_BOUND('',#172,.T.);
#93=FACE_BOUND('',#173,.T.);
#94=FACE_BOUND('',#174,.T.);
#95=FACE_BOUND('',#175,.T.);
#96=FACE_BOUND('',#176,.T.);
#97=FACE_OUTER_BOUND('',#120,.T.);
#98=FACE_OUTER_BOUND('',#122,.T.);
#99=FACE_OUTER_BOUND('',#123,.T.);
#100=FACE_OUTER_BOUND('',#125,.T.);
#101=FACE_OUTER_BOUND('',#126,.T.);
#102=FACE_OUTER_BOUND('',#128,.T.);
#103=FACE_OUTER_BOUND('',#130,.T.);
#104=FACE_OUTER_BOUND('',#132,.T.);
#105=FACE_OUTER_BOUND('',#134,.T.);
#106=FACE_OUTER_BOUND('',#136,.T.);
#107=FACE_OUTER_BOUND('',#138,.T.);
#108=FACE_OUTER_BOUND('',#140,.T.);
#109=FACE_OUTER_BOUND('',#142,.T.);
#110=FACE_OUTER_BOUND('',#144,.T.);
#111=FACE_OUTER_BOUND('',#146,.T.);
#112=FACE_OUTER_BOUND('',#147,.T.);
#113=FACE_OUTER_BOUND('',#148,.T.);
#114=FACE_OUTER_BOUND('',#149,.T.);
#115=FACE_OUTER_BOUND('',#152,.T.);
#116=FACE_OUTER_BOUND('',#153,.T.);
#117=FACE_OUTER_BOUND('',#154,.T.);
#118=FACE_OUTER_BOUND('',#155,.T.);
#119=FACE_OUTER_BOUND('',#166,.T.);
#120=EDGE_LOOP('',(#286));
#121=EDGE_LOOP('',(#287));
#122=EDGE_LOOP('',(#288));
#123=EDGE_LOOP('',(#289));
#124=EDGE_LOOP('',(#290));
#125=EDGE_LOOP('',(#291));
#126=EDGE_LOOP('',(#292));
#127=EDGE_LOOP('',(#293));
#128=EDGE_LOOP('',(#294));
#129=EDGE_LOOP('',(#295));
#130=EDGE_LOOP('',(#296));
#131=EDGE_LOOP('',(#297));
#132=EDGE_LOOP('',(#298));
#133=EDGE_LOOP('',(#299));
#134=EDGE_LOOP('',(#300));
#135=EDGE_LOOP('',(#301));
#136=EDGE_LOOP('',(#302));
#137=EDGE_LOOP('',(#303));
#138=EDGE_LOOP('',(#304));
#139=EDGE_LOOP('',(#305));
#140=EDGE_LOOP('',(#306));
#141=EDGE_LOOP('',(#307));
#142=EDGE_LOOP('',(#308));
#143=EDGE_LOOP('',(#309));
#144=EDGE_LOOP('',(#310));
#145=EDGE_LOOP('',(#311));
#146=EDGE_LOOP('',(#312,#313,#314,#315));
#147=EDGE_LOOP('',(#316,#317,#318,#319));
#148=EDGE_LOOP('',(#320,#321,#322,#323));
#149=EDGE_LOOP('',(#324,#325,#326,#327));
#150=EDGE_LOOP('',(#328));
#151=EDGE_LOOP('',(#329));
#152=EDGE_LOOP('',(#330,#331,#332,#333));
#153=EDGE_LOOP('',(#334,#335,#336,#337));
#154=EDGE_LOOP('',(#338,#339,#340,#341));
#155=EDGE_LOOP('',(#342,#343,#344,#345,#346,#347,#348));
#156=EDGE_LOOP('',(#349));
#157=EDGE_LOOP('',(#350));
#158=EDGE_LOOP('',(#351));
#159=EDGE_LOOP('',(#352));
#160=EDGE_LOOP('',(#353));
#161=EDGE_LOOP('',(#354));
#162=EDGE_LOOP('',(#355));
#163=EDGE_LOOP('',(#356));
#164=EDGE_LOOP('',(#357));
#165=EDGE_LOOP('',(#358));
#166=EDGE_LOOP('',(#359,#360,#361,#362,#363,#364,#365));
#167=EDGE_LOOP('',(#366));
#168=EDGE_LOOP('',(#367));
#169=EDGE_LOOP('',(#368));
#170=EDGE_LOOP('',(#369));
#171=EDGE_LOOP('',(#370));
#172=EDGE_LOOP('',(#371));
#173=EDGE_LOOP('',(#372));
#174=EDGE_LOOP('',(#373));
#175=EDGE_LOOP('',(#374));
#176=EDGE_LOOP('',(#375));
#177=CIRCLE('',#421,4.);
#178=CIRCLE('',#422,4.);
#179=CIRCLE('',#425,4.);
#180=CIRCLE('',#426,4.);
#181=CIRCLE('',#429,2.5);
#182=CIRCLE('',#430,2.5);
#183=CIRCLE('',#432,2.5);
#184=CIRCLE('',#433,2.5);
#185=CIRCLE('',#435,2.5);
#186=CIRCLE('',#436,2.5);
#187=CIRCLE('',#438,2.5);
#188=CIRCLE('',#439,2.5);
#189=CIRCLE('',#441,11.);
#190=CIRCLE('',#442,11.);
#191=CIRCLE('',#444,4.);
#192=CIRCLE('',#445,4.);
#193=CIRCLE('',#447,4.);
#194=CIRCLE('',#448,4.);
#195=CIRCLE('',#450,4.);
#196=CIRCLE('',#451,4.);
#197=CIRCLE('',#453,4.);
#198=CIRCLE('',#454,4.);
#199=CIRCLE('',#456,4.);
#200=CIRCLE('',#457,4.);
#201=CIRCLE('',#460,20.);
#202=CIRCLE('',#461,20.);
#203=VERTEX_POINT('',#590);
#204=VERTEX_POINT('',#592);
#205=VERTEX_POINT('',#596);
#206=VERTEX_POINT('',#598);
#207=VERTEX_POINT('',#602);
#208=VERTEX_POINT('',#604);
#209=VERTEX_POINT('',#607);
#210=VERTEX_POINT('',#609);
#211=VERTEX_POINT('',#612);
#212=VERTEX_POINT('',#614);
#213=VERTEX_POINT('',#617);
#214=VERTEX_POINT('',#619);
#215=VERTEX_POINT('',#622);
#216=VERTEX_POINT('',#624);
#217=VERTEX_POINT('',#627);
#218=VERTEX_POINT('',#629);
#219=VERTEX_POINT('',#632);
#220=VERTEX_POINT('',#634);
#221=VERTEX_POINT('',#637);
#222=VERTEX_POINT('',#639);
#223=VERTEX_POINT('',#642);
#224=VERTEX_POINT('',#644);
#225=VERTEX_POINT('',#647);
#226=VERTEX_POINT('',#649);
#227=VERTEX_POINT('',#652);
#228=VERTEX_POINT('',#653);
#229=VERTEX_POINT('',#655);
#230=VERTEX_POINT('',#657);
#231=VERTEX_POINT('',#661);
#232=VERTEX_POINT('',#663);
#233=VERTEX_POINT('',#667);
#234=VERTEX_POINT('',#669);
#235=VERTEX_POINT('',#673);
#236=VERTEX_POINT('',#675);
#237=VERTEX_POINT('',#679);
#238=VERTEX_POINT('',#681);
#239=VERTEX_POINT('',#685);
#240=VERTEX_POINT('',#687);
#241=EDGE_CURVE('',#203,#203,#177,.T.);
#242=EDGE_CURVE('',#204,#204,#178,.T.);
#243=EDGE_CURVE('',#205,#205,#179,.T.);
#244=EDGE_CURVE('',#206,#206,#180,.T.);
#245=EDGE_CURVE('',#207,#207,#181,.T.);
#246=EDGE_CURVE('',#208,#208,#182,.T.);
#247=EDGE_CURVE('',#209,#209,#183,.T.);
#248=EDGE_CURVE('',#210,#210,#184,.T.);
#249=EDGE_CURVE('',#211,#211,#185,.T.);
#250=EDGE_CURVE('',#212,#212,#186,.T.);
#251=EDGE_CURVE('',#213,#213,#187,.T.);
#252=EDGE_CURVE('',#214,#214,#188,.T.);
#253=EDGE_CURVE('',#215,#215,#189,.T.);
#254=EDGE_CURVE('',#216,#216,#190,.T.);
#255=EDGE_CURVE('',#217,#217,#191,.T.);
#256=EDGE_CURVE('',#218,#218,#192,.T.);
#257=EDGE_CURVE('',#219,#219,#193,.T.);
#258=EDGE_CURVE('',#220,#220,#194,.T.);
#259=EDGE_CURVE('',#221,#221,#195,.T.);
#260=EDGE_CURVE('',#222,#222,#196,.T.);
#261=EDGE_CURVE('',#223,#223,#197,.T.);
#262=EDGE_CURVE('',#224,#224,#198,.T.);
#263=EDGE_CURVE('',#225,#225,#199,.T.);
#264=EDGE_CURVE('',#226,#226,#200,.T.);
#265=EDGE_CURVE('',#227,#228,#15,.T.);
#266=EDGE_CURVE('',#227,#229,#16,.T.);
#267=EDGE_CURVE('',#230,#229,#17,.T.);
#268=EDGE_CURVE('',#228,#230,#18,.T.);
#269=EDGE_CURVE('',#231,#227,#201,.T.);
#270=EDGE_CURVE('',#231,#232,#19,.T.);
#271=EDGE_CURVE('',#229,#232,#202,.T.);
#272=EDGE_CURVE('',#233,#231,#20,.T.);
#273=EDGE_CURVE('',#234,#233,#21,.T.);
#274=EDGE_CURVE('',#232,#234,#22,.T.);
#275=EDGE_CURVE('',#230,#235,#23,.T.);
#276=EDGE_CURVE('',#235,#236,#24,.T.);
#277=EDGE_CURVE('',#228,#236,#25,.T.);
#278=EDGE_CURVE('',#237,#233,#26,.T.);
#279=EDGE_CURVE('',#238,#237,#27,.T.);
#280=EDGE_CURVE('',#238,#234,#28,.T.);
#281=EDGE_CURVE('',#239,#238,#29,.T.);
#282=EDGE_CURVE('',#240,#237,#30,.T.);
#283=EDGE_CURVE('',#239,#240,#31,.T.);
#284=EDGE_CURVE('',#235,#239,#32,.T.);
#285=EDGE_CURVE('',#236,#240,#33,.T.);
#286=ORIENTED_EDGE('',*,*,#241,.F.);
#287=ORIENTED_EDGE('',*,*,#242,.F.);
#288=ORIENTED_EDGE('',*,*,#242,.T.);
#289=ORIENTED_EDGE('',*,*,#243,.F.);
#290=ORIENTED_EDGE('',*,*,#244,.F.);
#291=ORIENTED_EDGE('',*,*,#244,.T.);
#292=ORIENTED_EDGE('',*,*,#245,.F.);
#293=ORIENTED_EDGE('',*,*,#246,.F.);
#294=ORIENTED_EDGE('',*,*,#247,.F.);
#295=ORIENTED_EDGE('',*,*,#248,.F.);
#296=ORIENTED_EDGE('',*,*,#249,.F.);
#297=ORIENTED_EDGE('',*,*,#250,.F.);
#298=ORIENTED_EDGE('',*,*,#251,.F.);
#299=ORIENTED_EDGE('',*,*,#252,.F.);
#300=ORIENTED_EDGE('',*,*,#253,.F.);
#301=ORIENTED_EDGE('',*,*,#254,.F.);
#302=ORIENTED_EDGE('',*,*,#255,.F.);
#303=ORIENTED_EDGE('',*,*,#256,.F.);
#304=ORIENTED_EDGE('',*,*,#257,.F.);
#305=ORIENTED_EDGE('',*,*,#258,.F.);
#306=ORIENTED_EDGE('',*,*,#259,.F.);
#307=ORIENTED_EDGE('',*,*,#260,.F.);
#308=ORIENTED_EDGE('',*,*,#261,.F.);
#309=ORIENTED_EDGE('',*,*,#262,.F.);
#310=ORIENTED_EDGE('',*,*,#263,.F.);
#311=ORIENTED_EDGE('',*,*,#264,.F.);
#312=ORIENTED_EDGE('',*,*,#265,.F.);
#313=ORIENTED_EDGE('',*,*,#266,.T.);
#314=ORIENTED_EDGE('',*,*,#267,.F.);
#315=ORIENTED_EDGE('',*,*,#268,.F.);
#316=ORIENTED_EDGE('',*,*,#269,.F.);
#317=ORIENTED_EDGE('',*,*,#270,.T.);
#318=ORIENTED_EDGE('',*,*,#271,.F.);
#319=ORIENTED_EDGE('',*,*,#266,.F.);
#320=ORIENTED_EDGE('',*,*,#272,.F.);
#321=ORIENTED_EDGE('',*,*,#273,.F.);
#322=ORIENTED_EDGE('',*,*,#274,.F.);
#323=ORIENTED_EDGE('',*,*,#270,.F.);
#324=ORIENTED_EDGE('',*,*,#268,.T.);
#325=ORIENTED_EDGE('',*,*,#275,.T.);
#326=ORIENTED_EDGE('',*,*,#276,.T.);
#327=ORIENTED_EDGE('',*,*,#277,.F.);
#328=ORIENTED_EDGE('',*,*,#241,.T.);
#329=ORIENTED_EDGE('',*,*,#243,.T.);
#330=ORIENTED_EDGE('',*,*,#273,.T.);
#331=ORIENTED_EDGE('',*,*,#278,.F.);
#332=ORIENTED_EDGE('',*,*,#279,.F.);
#333=ORIENTED_EDGE('',*,*,#280,.T.);
#334=ORIENTED_EDGE('',*,*,#281,.T.);
#335=ORIENTED_EDGE('',*,*,#279,.T.);
#336=ORIENTED_EDGE('',*,*,#282,.F.);
#337=ORIENTED_EDGE('',*,*,#283,.F.);
#338=ORIENTED_EDGE('',*,*,#284,.T.);
#339=ORIENTED_EDGE('',*,*,#283,.T.);
#340=ORIENTED_EDGE('',*,*,#285,.F.);
#341=ORIENTED_EDGE('',*,*,#276,.F.);
#342=ORIENTED_EDGE('',*,*,#265,.T.);
#343=ORIENTED_EDGE('',*,*,#277,.T.);
#344=ORIENTED_EDGE('',*,*,#285,.T.);
#345=ORIENTED_EDGE('',*,*,#282,.T.);
#346=ORIENTED_EDGE('',*,*,#278,.T.);
#347=ORIENTED_EDGE('',*,*,#272,.T.);
#348=ORIENTED_EDGE('',*,*,#269,.T.);
#349=ORIENTED_EDGE('',*,*,#246,.T.);
#350=ORIENTED_EDGE('',*,*,#248,.T.);
#351=ORIENTED_EDGE('',*,*,#250,.T.);
#352=ORIENTED_EDGE('',*,*,#252,.T.);
#353=ORIENTED_EDGE('',*,*,#254,.T.);
#354=ORIENTED_EDGE('',*,*,#256,.T.);
#355=ORIENTED_EDGE('',*,*,#258,.T.);
#356=ORIENTED_EDGE('',*,*,#260,.T.);
#357=ORIENTED_EDGE('',*,*,#262,.T.);
#358=ORIENTED_EDGE('',*,*,#264,.T.);
#359=ORIENTED_EDGE('',*,*,#274,.T.);
#360=ORIENTED_EDGE('',*,*,#280,.F.);
#361=ORIENTED_EDGE('',*,*,#281,.F.);
#362=ORIENTED_EDGE('',*,*,#284,.F.);
#363=ORIENTED_EDGE('',*,*,#275,.F.);
#364=ORIENTED_EDGE('',*,*,#267,.T.);
#365=ORIENTED_EDGE('',*,*,#271,.T.);
#366=ORIENTED_EDGE('',*,*,#245,.T.);
#367=ORIENTED_EDGE('',*,*,#247,.T.);
#368=ORIENTED_EDGE('',*,*,#249,.T.);
#369=ORIENTED_EDGE('',*,*,#251,.T.);
#370=ORIENTED_EDGE('',*,*,#253,.T.);
#371=ORIENTED_EDGE('',*,*,#255,.T.);
#372=ORIENTED_EDGE('',*,*,#257,.T.);
#373=ORIENTED_EDGE('',*,*,#259,.T.);
#374=ORIENTED_EDGE('',*,*,#261,.T.);
#375=ORIENTED_EDGE('',*,*,#263,.T.);
#376=CYLINDRICAL_SURFACE('',#420,4.);
#377=CYLINDRICAL_SURFACE('',#424,4.);
#378=CYLINDRICAL_SURFACE('',#428,2.5);
#379=CYLINDRICAL_SURFACE('',#431,2.5);
#380=CYLINDRICAL_SURFACE('',#434,2.5);
#381=CYLINDRICAL_SURFACE('',#437,2.5);
#382=CYLINDRICAL_SURFACE('',#440,11.);
#383=CYLINDRICAL_SURFACE('',#443,4.);
#384=CYLINDRICAL_SURFACE('',#446,4.);
#385=CYLINDRICAL_SURFACE('',#449,4.);
#386=CYLINDRICAL_SURFACE('',#452,4.);
#387=CYLINDRICAL_SURFACE('',#455,4.);
#388=CYLINDRICAL_SURFACE('',#459,20.);
#389=ADVANCED_FACE('',(#97,#63),#376,.F.);
#390=ADVANCED_FACE('',(#98),#53,.T.);
#391=ADVANCED_FACE('',(#99,#64),#377,.F.);
#392=ADVANCED_FACE('',(#100),#54,.T.);
#393=ADVANCED_FACE('',(#101,#65),#378,.F.);
#394=ADVANCED_FACE('',(#102,#66),#379,.F.);
#395=ADVANCED_FACE('',(#103,#67),#380,.F.);
#396=ADVANCED_FACE('',(#104,#68),#381,.F.);
#397=ADVANCED_FACE('',(#105,#69),#382,.F.);
#398=ADVANCED_FACE('',(#106,#70),#383,.F.);
#399=ADVANCED_FACE('',(#107,#71),#384,.F.);
#400=ADVANCED_FACE('',(#108,#72),#385,.F.);
#401=ADVANCED_FACE('',(#109,#73),#386,.F.);
#402=ADVANCED_FACE('',(#110,#74),#387,.F.);
#403=ADVANCED_FACE('',(#111),#55,.F.);
#404=ADVANCED_FACE('',(#112),#388,.F.);
#405=ADVANCED_FACE('',(#113),#56,.F.);
#406=ADVANCED_FACE('',(#114,#75,#76),#57,.T.);
#407=ADVANCED_FACE('',(#115),#58,.T.);
#408=ADVANCED_FACE('',(#116),#59,.T.);
#409=ADVANCED_FACE('',(#117),#60,.T.);
#410=ADVANCED_FACE('',(#118,#77,#78,#79,#80,#81,#82,#83,#84,#85,#86),#61,
 .T.);
#411=ADVANCED_FACE('',(#119,#87,#88,#89,#90,#91,#92,#93,#94,#95,#96),#62,
 .F.);
#412=CLOSED_SHELL('',(#389,#390,#391,#392,#393,#394,#395,#396,#397,#398,
#399,#400,#401,#402,#403,#404,#405,#406,#407,#408,#409,#410,#411));
#413=DATE_TIME_ROLE('creation_date');
#414=APPLIED_DATE_AND_TIME_ASSIGNMENT(#415,#413,(#709));
#415=DATE_AND_TIME(#416,#417);
#416=CALENDAR_DATE(2022,16,1);
#417=LOCAL_TIME(15,1,35.,#418);
#418=COORDINATED_UNIVERSAL_TIME_OFFSET(0,0,.BEHIND.);
#419=AXIS2_PLACEMENT_3D('placement',#588,#469,#470);
#420=AXIS2_PLACEMENT_3D('',#589,#471,#472);
#421=AXIS2_PLACEMENT_3D('',#591,#473,#474);
#422=AXIS2_PLACEMENT_3D('',#593,#475,#476);
#423=AXIS2_PLACEMENT_3D('',#594,#477,#478);
#424=AXIS2_PLACEMENT_3D('',#595,#479,#480);
#425=AXIS2_PLACEMENT_3D('',#597,#481,#482);
#426=AXIS2_PLACEMENT_3D('',#599,#483,#484);
#427=AXIS2_PLACEMENT_3D('',#600,#485,#486);
#428=AXIS2_PLACEMENT_3D('',#601,#487,#488);
#429=AXIS2_PLACEMENT_3D('',#603,#489,#490);
#430=AXIS2_PLACEMENT_3D('',#605,#491,#492);
#431=AXIS2_PLACEMENT_3D('',#606,#493,#494);
#432=AXIS2_PLACEMENT_3D('',#608,#495,#496);
#433=AXIS2_PLACEMENT_3D('',#610,#497,#498);
#434=AXIS2_PLACEMENT_3D('',#611,#499,#500);
#435=AXIS2_PLACEMENT_3D('',#613,#501,#502);
#436=AXIS2_PLACEMENT_3D('',#615,#503,#504);
#437=AXIS2_PLACEMENT_3D('',#616,#505,#506);
#438=AXIS2_PLACEMENT_3D('',#618,#507,#508);
#439=AXIS2_PLACEMENT_3D('',#620,#509,#510);
#440=AXIS2_PLACEMENT_3D('',#621,#511,#512);
#441=AXIS2_PLACEMENT_3D('',#623,#513,#514);
#442=AXIS2_PLACEMENT_3D('',#625,#515,#516);
#443=AXIS2_PLACEMENT_3D('',#626,#517,#518);
#444=AXIS2_PLACEMENT_3D('',#628,#519,#520);
#445=AXIS2_PLACEMENT_3D('',#630,#521,#522);
#446=AXIS2_PLACEMENT_3D('',#631,#523,#524);
#447=AXIS2_PLACEMENT_3D('',#633,#525,#526);
#448=AXIS2_PLACEMENT_3D('',#635,#527,#528);
#449=AXIS2_PLACEMENT_3D('',#636,#529,#530);
#450=AXIS2_PLACEMENT_3D('',#638,#531,#532);
#451=AXIS2_PLACEMENT_3D('',#640,#533,#534);
#452=AXIS2_PLACEMENT_3D('',#641,#535,#536);
#453=AXIS2_PLACEMENT_3D('',#643,#537,#538);
#454=AXIS2_PLACEMENT_3D('',#645,#539,#540);
#455=AXIS2_PLACEMENT_3D('',#646,#541,#542);
#456=AXIS2_PLACEMENT_3D('',#648,#543,#544);
#457=AXIS2_PLACEMENT_3D('',#650,#545,#546);
#458=AXIS2_PLACEMENT_3D('',#651,#547,#548);
#459=AXIS2_PLACEMENT_3D('',#660,#553,#554);
#460=AXIS2_PLACEMENT_3D('',#662,#555,#556);
#461=AXIS2_PLACEMENT_3D('',#665,#558,#559);
#462=AXIS2_PLACEMENT_3D('',#666,#560,#561);
#463=AXIS2_PLACEMENT_3D('',#672,#565,#566);
#464=AXIS2_PLACEMENT_3D('',#678,#570,#571);
#465=AXIS2_PLACEMENT_3D('',#684,#575,#576);
#466=AXIS2_PLACEMENT_3D('',#690,#580,#581);
#467=AXIS2_PLACEMENT_3D('',#693,#584,#585);
#468=AXIS2_PLACEMENT_3D('',#694,#586,#587);
#469=DIRECTION('axis',(0.,0.,1.));
#470=DIRECTION('refdir',(1.,0.,0.));
#471=DIRECTION('center_axis',(0.,-1.,0.));
#472=DIRECTION('ref_axis',(1.,0.,0.));
#473=DIRECTION('center_axis',(0.,1.,0.));
#474=DIRECTION('ref_axis',(1.,0.,0.));
#475=DIRECTION('center_axis',(0.,-1.,0.));
#476=DIRECTION('ref_axis',(1.,0.,0.));
#477=DIRECTION('center_axis',(0.,-1.,0.));
#478=DIRECTION('ref_axis',(1.,0.,0.));
#479=DIRECTION('center_axis',(0.,-1.,0.));
#480=DIRECTION('ref_axis',(1.,0.,0.));
#481=DIRECTION('center_axis',(0.,1.,0.));
#482=DIRECTION('ref_axis',(1.,0.,0.));
#483=DIRECTION('center_axis',(0.,-1.,0.));
#484=DIRECTION('ref_axis',(1.,0.,0.));
#485=DIRECTION('center_axis',(0.,-1.,0.));
#486=DIRECTION('ref_axis',(1.,0.,0.));
#487=DIRECTION('center_axis',(0.,0.,1.));
#488=DIRECTION('ref_axis',(1.,0.,0.));
#489=DIRECTION('center_axis',(0.,0.,1.));
#490=DIRECTION('ref_axis',(1.,0.,0.));
#491=DIRECTION('center_axis',(0.,0.,-1.));
#492=DIRECTION('ref_axis',(1.,0.,0.));
#493=DIRECTION('center_axis',(0.,0.,1.));
#494=DIRECTION('ref_axis',(1.,0.,0.));
#495=DIRECTION('center_axis',(0.,0.,1.));
#496=DIRECTION('ref_axis',(1.,0.,0.));
#497=DIRECTION('center_axis',(0.,0.,-1.));
#498=DIRECTION('ref_axis',(1.,0.,0.));
#499=DIRECTION('center_axis',(0.,0.,1.));
#500=DIRECTION('ref_axis',(1.,0.,0.));
#501=DIRECTION('center_axis',(0.,0.,1.));
#502=DIRECTION('ref_axis',(1.,0.,0.));
#503=DIRECTION('center_axis',(0.,0.,-1.));
#504=DIRECTION('ref_axis',(1.,0.,0.));
#505=DIRECTION('center_axis',(0.,0.,1.));
#506=DIRECTION('ref_axis',(1.,0.,0.));
#507=DIRECTION('center_axis',(0.,0.,1.));
#508=DIRECTION('ref_axis',(1.,0.,0.));
#509=DIRECTION('center_axis',(0.,0.,-1.));
#510=DIRECTION('ref_axis',(1.,0.,0.));
#511=DIRECTION('center_axis',(0.,0.,1.));
#512=DIRECTION('ref_axis',(1.,0.,0.));
#513=DIRECTION('center_axis',(0.,0.,1.));
#514=DIRECTION('ref_axis',(1.,0.,0.));
#515=DIRECTION('center_axis',(0.,0.,-1.));
#516=DIRECTION('ref_axis',(1.,0.,0.));
#517=DIRECTION('center_axis',(0.,0.,1.));
#518=DIRECTION('ref_axis',(1.,0.,0.));
#519=DIRECTION('center_axis',(0.,0.,1.));
#520=DIRECTION('ref_axis',(1.,0.,0.));
#521=DIRECTION('center_axis',(0.,0.,-1.));
#522=DIRECTION('ref_axis',(1.,0.,0.));
#523=DIRECTION('center_axis',(0.,0.,1.));
#524=DIRECTION('ref_axis',(1.,0.,0.));
#525=DIRECTION('center_axis',(0.,0.,1.));
#526=DIRECTION('ref_axis',(1.,0.,0.));
#527=DIRECTION('center_axis',(0.,0.,-1.));
#528=DIRECTION('ref_axis',(1.,0.,0.));
#529=DIRECTION('center_axis',(0.,0.,1.));
#530=DIRECTION('ref_axis',(1.,0.,0.));
#531=DIRECTION('center_axis',(0.,0.,1.));
#532=DIRECTION('ref_axis',(1.,0.,0.));
#533=DIRECTION('center_axis',(0.,0.,-1.));
#534=DIRECTION('ref_axis',(1.,0.,0.));
#535=DIRECTION('center_axis',(0.,0.,1.));
#536=DIRECTION('ref_axis',(1.,0.,0.));
#537=DIRECTION('center_axis',(0.,0.,1.));
#538=DIRECTION('ref_axis',(1.,0.,0.));
#539=DIRECTION('center_axis',(0.,0.,-1.));
#540=DIRECTION('ref_axis',(1.,0.,0.));
#541=DIRECTION('center_axis',(0.,0.,1.));
#542=DIRECTION('ref_axis',(1.,0.,0.));
#543=DIRECTION('center_axis',(0.,0.,1.));
#544=DIRECTION('ref_axis',(1.,0.,0.));
#545=DIRECTION('center_axis',(0.,0.,-1.));
#546=DIRECTION('ref_axis',(1.,0.,0.));
#547=DIRECTION('center_axis',(1.,0.,0.));
#548=DIRECTION('ref_axis',(0.,-1.,0.));
#549=DIRECTION('',(0.,-1.,0.));
#550=DIRECTION('',(0.,0.,-1.));
#551=DIRECTION('',(0.,1.,0.));
#552=DIRECTION('',(0.,0.,-1.));
#553=DIRECTION('center_axis',(0.,0.,-1.));
#554=DIRECTION('ref_axis',(1.,0.,0.));
#555=DIRECTION('center_axis',(0.,0.,-1.));
#556=DIRECTION('ref_axis',(1.,0.,0.));
#557=DIRECTION('',(0.,0.,-1.));
#558=DIRECTION('center_axis',(0.,0.,1.));
#559=DIRECTION('ref_axis',(1.,0.,0.));
#560=DIRECTION('center_axis',(-2.96059473233375E-16,1.,0.));
#561=DIRECTION('ref_axis',(1.,0.,0.));
#562=DIRECTION('',(1.,2.96059473233375E-16,0.));
#563=DIRECTION('',(0.,0.,1.));
#564=DIRECTION('',(-1.,-2.96059473233375E-16,0.));
#565=DIRECTION('center_axis',(0.,-1.,0.));
#566=DIRECTION('ref_axis',(1.,0.,0.));
#567=DIRECTION('',(1.,0.,0.));
#568=DIRECTION('',(0.,0.,1.));
#569=DIRECTION('',(1.,0.,0.));
#570=DIRECTION('center_axis',(-1.,0.,0.));
#571=DIRECTION('ref_axis',(0.,-1.,0.));
#572=DIRECTION('',(0.,-1.,0.));
#573=DIRECTION('',(0.,0.,1.));
#574=DIRECTION('',(0.,-1.,0.));
#575=DIRECTION('center_axis',(0.,1.,0.));
#576=DIRECTION('ref_axis',(-1.,0.,0.));
#577=DIRECTION('',(-1.,0.,0.));
#578=DIRECTION('',(-1.,0.,0.));
#579=DIRECTION('',(0.,0.,1.));
#580=DIRECTION('center_axis',(1.,0.,0.));
#581=DIRECTION('ref_axis',(0.,1.,0.));
#582=DIRECTION('',(0.,1.,0.));
#583=DIRECTION('',(0.,1.,0.));
#584=DIRECTION('center_axis',(0.,0.,1.));
#585=DIRECTION('ref_axis',(1.,0.,0.));
#586=DIRECTION('center_axis',(0.,0.,1.));
#587=DIRECTION('ref_axis',(1.,0.,0.));
#588=CARTESIAN_POINT('',(0.,0.,0.));
#589=CARTESIAN_POINT('Origin',(60.,10.,7.5));
#590=CARTESIAN_POINT('',(64.,0.,7.5));
#591=CARTESIAN_POINT('Origin',(60.,0.,7.5));
#592=CARTESIAN_POINT('',(64.,20.,7.5));
#593=CARTESIAN_POINT('Origin',(60.,20.,7.5));
#594=CARTESIAN_POINT('Origin',(60.,20.,7.5));
#595=CARTESIAN_POINT('Origin',(140.,10.,7.5));
#596=CARTESIAN_POINT('',(144.,0.,7.5));
#597=CARTESIAN_POINT('Origin',(140.,0.,7.5));
#598=CARTESIAN_POINT('',(144.,20.,7.5));
#599=CARTESIAN_POINT('Origin',(140.,20.,7.5));
#600=CARTESIAN_POINT('Origin',(140.,20.,7.5));
#601=CARTESIAN_POINT('Origin',(55.,140.,-231.475150877325));
#602=CARTESIAN_POINT('',(52.5,140.,0.));
#603=CARTESIAN_POINT('Origin',(55.,140.,0.));
#604=CARTESIAN_POINT('',(57.5,140.,15.));
#605=CARTESIAN_POINT('Origin',(55.,140.,15.));
#606=CARTESIAN_POINT('Origin',(55.,100.,-231.475150877325));
#607=CARTESIAN_POINT('',(52.5,100.,0.));
#608=CARTESIAN_POINT('Origin',(55.,100.,0.));
#609=CARTESIAN_POINT('',(57.5,100.,15.));
#610=CARTESIAN_POINT('Origin',(55.,100.,15.));
#611=CARTESIAN_POINT('Origin',(70.,120.,-231.475150877325));
#612=CARTESIAN_POINT('',(67.5,120.,0.));
#613=CARTESIAN_POINT('Origin',(70.,120.,0.));
#614=CARTESIAN_POINT('',(72.5,120.,15.));
#615=CARTESIAN_POINT('Origin',(70.,120.,15.));
#616=CARTESIAN_POINT('Origin',(40.,120.,-231.475150877325));
#617=CARTESIAN_POINT('',(37.5,120.,0.));
#618=CARTESIAN_POINT('Origin',(40.,120.,0.));
#619=CARTESIAN_POINT('',(42.5,120.,15.));
#620=CARTESIAN_POINT('Origin',(40.,120.,15.));
#621=CARTESIAN_POINT('Origin',(55.,120.,-231.475150877325));
#622=CARTESIAN_POINT('',(44.,120.,0.));
#623=CARTESIAN_POINT('Origin',(55.,120.,0.));
#624=CARTESIAN_POINT('',(66.,120.,15.));
#625=CARTESIAN_POINT('Origin',(55.,120.,15.));
#626=CARTESIAN_POINT('Origin',(15.,90.,-231.475150877325));
#627=CARTESIAN_POINT('',(11.,90.,0.));
#628=CARTESIAN_POINT('Origin',(15.,90.,0.));
#629=CARTESIAN_POINT('',(19.,90.,15.));
#630=CARTESIAN_POINT('Origin',(15.,90.,15.));
#631=CARTESIAN_POINT('Origin',(15.,150.,-231.475150877325));
#632=CARTESIAN_POINT('',(11.,150.,0.));
#633=CARTESIAN_POINT('Origin',(15.,150.,0.));
#634=CARTESIAN_POINT('',(19.,150.,15.));
#635=CARTESIAN_POINT('Origin',(15.,150.,15.));
#636=CARTESIAN_POINT('Origin',(15.,180.,-231.475150877325));
#637=CARTESIAN_POINT('',(11.,180.,0.));
#638=CARTESIAN_POINT('Origin',(15.,180.,0.));
#639=CARTESIAN_POINT('',(19.,180.,15.));
#640=CARTESIAN_POINT('Origin',(15.,180.,15.));
#641=CARTESIAN_POINT('Origin',(15.,120.,-231.475150877325));
#642=CARTESIAN_POINT('',(11.,120.,0.));
#643=CARTESIAN_POINT('Origin',(15.,120.,0.));
#644=CARTESIAN_POINT('',(19.,120.,15.));
#645=CARTESIAN_POINT('Origin',(15.,120.,15.));
#646=CARTESIAN_POINT('Origin',(15.,60.,-231.475150877325));
#647=CARTESIAN_POINT('',(11.,60.,0.));
#648=CARTESIAN_POINT('Origin',(15.,60.,0.));
#649=CARTESIAN_POINT('',(19.,60.,15.));
#650=CARTESIAN_POINT('Origin',(15.,60.,15.));
#651=CARTESIAN_POINT('Origin',(50.,25.,15.));
#652=CARTESIAN_POINT('',(50.,25.,15.));
#653=CARTESIAN_POINT('',(50.,0.,15.));
#654=CARTESIAN_POINT('',(50.,61.25,15.));
#655=CARTESIAN_POINT('',(50.,25.,0.));
#656=CARTESIAN_POINT('',(50.,25.,15.));
#657=CARTESIAN_POINT('',(50.,0.,0.));
#658=CARTESIAN_POINT('',(50.,61.25,0.));
#659=CARTESIAN_POINT('',(50.,0.,7.5));
#660=CARTESIAN_POINT('Origin',(30.,25.,15.));
#661=CARTESIAN_POINT('',(30.,45.,15.));
#662=CARTESIAN_POINT('Origin',(30.,25.,15.));
#663=CARTESIAN_POINT('',(30.,45.,0.));
#664=CARTESIAN_POINT('',(30.,45.,15.));
#665=CARTESIAN_POINT('Origin',(30.,25.,0.));
#666=CARTESIAN_POINT('Origin',(0.,45.,15.));
#667=CARTESIAN_POINT('',(0.,45.,15.));
#668=CARTESIAN_POINT('',(37.5,45.,15.));
#669=CARTESIAN_POINT('',(0.,45.,0.));
#670=CARTESIAN_POINT('',(0.,45.,7.5));
#671=CARTESIAN_POINT('',(37.5,45.,0.));
#672=CARTESIAN_POINT('Origin',(0.,0.,0.));
#673=CARTESIAN_POINT('',(150.,0.,0.));
#674=CARTESIAN_POINT('',(0.,0.,0.));
#675=CARTESIAN_POINT('',(150.,0.,15.));
#676=CARTESIAN_POINT('',(150.,0.,0.));
#677=CARTESIAN_POINT('',(0.,0.,15.));
#678=CARTESIAN_POINT('Origin',(0.,195.,0.));
#679=CARTESIAN_POINT('',(0.,195.,15.));
#680=CARTESIAN_POINT('',(0.,195.,15.));
#681=CARTESIAN_POINT('',(0.,195.,0.));
#682=CARTESIAN_POINT('',(0.,195.,0.));
#683=CARTESIAN_POINT('',(0.,195.,0.));
#684=CARTESIAN_POINT('Origin',(150.,195.,0.));
#685=CARTESIAN_POINT('',(150.,195.,0.));
#686=CARTESIAN_POINT('',(150.,195.,0.));
#687=CARTESIAN_POINT('',(150.,195.,15.));
#688=CARTESIAN_POINT('',(150.,195.,15.));
#689=CARTESIAN_POINT('',(150.,195.,0.));
#690=CARTESIAN_POINT('Origin',(150.,0.,0.));
#691=CARTESIAN_POINT('',(150.,0.,0.));
#692=CARTESIAN_POINT('',(150.,0.,15.));
#693=CARTESIAN_POINT('Origin',(75.,97.5,15.));
#694=CARTESIAN_POINT('Origin',(75.,97.5,0.));
#695=UNCERTAINTY_MEASURE_WITH_UNIT(LENGTH_MEASURE(0.01),#699,
'DISTANCE_ACCURACY_VALUE',
'Maximum model space distance between geometric entities at asserted c
onnectivities');
#696=UNCERTAINTY_MEASURE_WITH_UNIT(LENGTH_MEASURE(1.E-6),#699,
'DISTANCE_ACCURACY_VALUE',
'Maximum model space distance between geometric entities at asserted c
onnectivities');
#697=(
GEOMETRIC_REPRESENTATION_CONTEXT(3)
GLOBAL_UNCERTAINTY_ASSIGNED_CONTEXT((#695))
GLOBAL_UNIT_ASSIGNED_CONTEXT((#699,#702,#700))
REPRESENTATION_CONTEXT('','3D')
);
#698=(
GEOMETRIC_REPRESENTATION_CONTEXT(3)
GLOBAL_UNCERTAINTY_ASSIGNED_CONTEXT((#696))
GLOBAL_UNIT_ASSIGNED_CONTEXT((#699,#702,#700))
REPRESENTATION_CONTEXT('','3D')
);
#699=(
LENGTH_UNIT()
NAMED_UNIT(*)
SI_UNIT(.MILLI.,.METRE.)
);
#700=(
NAMED_UNIT(*)
SI_UNIT($,.STERADIAN.)
SOLID_ANGLE_UNIT()
);
#701=DIMENSIONAL_EXPONENTS(0.,0.,0.,0.,0.,0.,0.);
#702=(
CONVERSION_BASED_UNIT('degree',#704)
NAMED_UNIT(#701)
PLANE_ANGLE_UNIT()
);
#703=(
NAMED_UNIT(*)
PLANE_ANGLE_UNIT()
SI_UNIT($,.RADIAN.)
);
#704=PLANE_ANGLE_MEASURE_WITH_UNIT(PLANE_ANGLE_MEASURE(0.01745329252),#703);
#705=SHAPE_DEFINITION_REPRESENTATION(#706,#707);
#706=PRODUCT_DEFINITION_SHAPE('',$,#709);
#707=SHAPE_REPRESENTATION('',(#419),#697);
#708=PRODUCT_DEFINITION_CONTEXT('part definition',#713,'design');
#709=PRODUCT_DEFINITION('Support c\X\F4t\X\E9 Gauche',
'Support c\X\F4t\X\E9 Gauche',#710,#708);
#710=PRODUCT_DEFINITION_FORMATION('',$,#715);
#711=PRODUCT_RELATED_PRODUCT_CATEGORY('Support c\X\F4t\X\E9 Gauche',
'Support c\X\F4t\X\E9 Gauche',(#715));
#712=APPLICATION_PROTOCOL_DEFINITION('international standard',
'automotive_design',2009,#713);
#713=APPLICATION_CONTEXT(
'Core Data for Automotive Mechanical Design Process');
#714=PRODUCT_CONTEXT('part definition',#713,'mechanical');
#715=PRODUCT('Support c\X\F4t\X\E9 Gauche','Support c\X\F4t\X\E9 Gauch
e',$,(#714));
#716=PRESENTATION_STYLE_ASSIGNMENT((#717));
#717=SURFACE_STYLE_USAGE(.BOTH.,#718);
#718=SURFACE_SIDE_STYLE('',(#719));
#719=SURFACE_STYLE_FILL_AREA(#720);
#720=FILL_AREA_STYLE('',(#721));
#721=FILL_AREA_STYLE_COLOUR('',#722);
#722=COLOUR_RGB('',0.749019607843137,0.749019607843137,0.749019607843137);
ENDSEC;
END-ISO-10303-21;
