ISO-10303-21;
HEADER;
/* Generated by software containing ST-Developer
 * from STEP Tools, Inc. (www.steptools.com) 
 */

FILE_DESCRIPTION(
/* description */ (''),
/* implementation_level */ '2;1');

FILE_NAME(
/* name */ 'C:/Users/Yoann/Downloads/Matchfit Hardware v12.step',
/* time_stamp */ '2022-01-17T19:07:16+01:00',
/* author */ (''),
/* organization */ (''),
/* preprocessor_version */ 'ST-DEVELOPER v18.1',
/* originating_system */ 'Autodesk Translation Framework v10.10.0.1391',

/* authorisation */ '');

FILE_SCHEMA (('AUTOMOTIVE_DESIGN { 1 0 10303 214 3 1 1 }'));
ENDSEC;

DATA;
#10=MECHANICAL_DESIGN_GEOMETRIC_PRESENTATION_REPRESENTATION('',(#17),#236);
#11=ITEM_DEFINED_TRANSFORMATION($,$,#148,#158);
#12=(
REPRESENTATION_RELATIONSHIP($,$,#247,#246)
REPRESENTATION_RELATIONSHIP_WITH_TRANSFORMATION(#11)
SHAPE_REPRESENTATION_RELATIONSHIP()
);
#13=CONTEXT_DEPENDENT_SHAPE_REPRESENTATION(#12,#245);
#14=NEXT_ASSEMBLY_USAGE_OCCURRENCE('M8 Dovetail Male Inox:1',
'M8 Dovetail Male Inox:1','M8 Dovetail Male Inox:1',#249,#250,
'M8 Dovetail Male Inox:1');
#15=SHAPE_REPRESENTATION_RELATIONSHIP('SRR','None',#247,#16);
#16=ADVANCED_BREP_SHAPE_REPRESENTATION('',(#18),#235);
#17=STYLED_ITEM('',(#260),#18);
#18=MANIFOLD_SOLID_BREP('Body1',#134);
#19=FACE_BOUND('',#38,.T.);
#20=FACE_BOUND('',#41,.T.);
#21=PLANE('',#152);
#22=PLANE('',#153);
#23=PLANE('',#154);
#24=PLANE('',#155);
#25=PLANE('',#156);
#26=PLANE('',#157);
#27=FACE_OUTER_BOUND('',#34,.T.);
#28=FACE_OUTER_BOUND('',#35,.T.);
#29=FACE_OUTER_BOUND('',#36,.T.);
#30=FACE_OUTER_BOUND('',#37,.T.);
#31=FACE_OUTER_BOUND('',#39,.T.);
#32=FACE_OUTER_BOUND('',#40,.T.);
#33=FACE_OUTER_BOUND('',#42,.T.);
#34=EDGE_LOOP('',(#96,#97,#98,#99));
#35=EDGE_LOOP('',(#100,#101,#102,#103));
#36=EDGE_LOOP('',(#104,#105,#106,#107));
#37=EDGE_LOOP('',(#108,#109,#110,#111));
#38=EDGE_LOOP('',(#112));
#39=EDGE_LOOP('',(#113,#114,#115,#116));
#40=EDGE_LOOP('',(#117,#118,#119,#120));
#41=EDGE_LOOP('',(#121));
#42=EDGE_LOOP('',(#122,#123,#124,#125));
#43=LINE('',#202,#56);
#44=LINE('',#207,#57);
#45=LINE('',#209,#58);
#46=LINE('',#211,#59);
#47=LINE('',#212,#60);
#48=LINE('',#215,#61);
#49=LINE('',#217,#62);
#50=LINE('',#218,#63);
#51=LINE('',#221,#64);
#52=LINE('',#222,#65);
#53=LINE('',#225,#66);
#54=LINE('',#226,#67);
#55=LINE('',#228,#68);
#56=VECTOR('',#167,3.39);
#57=VECTOR('',#172,10.);
#58=VECTOR('',#173,10.);
#59=VECTOR('',#174,10.);
#60=VECTOR('',#175,10.);
#61=VECTOR('',#178,10.);
#62=VECTOR('',#179,10.);
#63=VECTOR('',#180,10.);
#64=VECTOR('',#183,10.);
#65=VECTOR('',#184,10.);
#66=VECTOR('',#187,10.);
#67=VECTOR('',#188,10.);
#68=VECTOR('',#191,10.);
#69=CIRCLE('',#150,3.38975);
#70=CIRCLE('',#151,3.38975);
#71=VERTEX_POINT('',#199);
#72=VERTEX_POINT('',#201);
#73=VERTEX_POINT('',#205);
#74=VERTEX_POINT('',#206);
#75=VERTEX_POINT('',#208);
#76=VERTEX_POINT('',#210);
#77=VERTEX_POINT('',#214);
#78=VERTEX_POINT('',#216);
#79=VERTEX_POINT('',#220);
#80=VERTEX_POINT('',#224);
#81=EDGE_CURVE('',#71,#71,#69,.T.);
#82=EDGE_CURVE('',#71,#72,#43,.T.);
#83=EDGE_CURVE('',#72,#72,#70,.T.);
#84=EDGE_CURVE('',#73,#74,#44,.T.);
#85=EDGE_CURVE('',#74,#75,#45,.T.);
#86=EDGE_CURVE('',#75,#76,#46,.T.);
#87=EDGE_CURVE('',#76,#73,#47,.T.);
#88=EDGE_CURVE('',#74,#77,#48,.T.);
#89=EDGE_CURVE('',#78,#77,#49,.T.);
#90=EDGE_CURVE('',#75,#78,#50,.T.);
#91=EDGE_CURVE('',#79,#78,#51,.T.);
#92=EDGE_CURVE('',#76,#79,#52,.T.);
#93=EDGE_CURVE('',#80,#79,#53,.T.);
#94=EDGE_CURVE('',#73,#80,#54,.T.);
#95=EDGE_CURVE('',#77,#80,#55,.T.);
#96=ORIENTED_EDGE('',*,*,#81,.F.);
#97=ORIENTED_EDGE('',*,*,#82,.T.);
#98=ORIENTED_EDGE('',*,*,#83,.F.);
#99=ORIENTED_EDGE('',*,*,#82,.F.);
#100=ORIENTED_EDGE('',*,*,#84,.T.);
#101=ORIENTED_EDGE('',*,*,#85,.T.);
#102=ORIENTED_EDGE('',*,*,#86,.T.);
#103=ORIENTED_EDGE('',*,*,#87,.T.);
#104=ORIENTED_EDGE('',*,*,#88,.T.);
#105=ORIENTED_EDGE('',*,*,#89,.F.);
#106=ORIENTED_EDGE('',*,*,#90,.F.);
#107=ORIENTED_EDGE('',*,*,#85,.F.);
#108=ORIENTED_EDGE('',*,*,#90,.T.);
#109=ORIENTED_EDGE('',*,*,#91,.F.);
#110=ORIENTED_EDGE('',*,*,#92,.F.);
#111=ORIENTED_EDGE('',*,*,#86,.F.);
#112=ORIENTED_EDGE('',*,*,#81,.T.);
#113=ORIENTED_EDGE('',*,*,#92,.T.);
#114=ORIENTED_EDGE('',*,*,#93,.F.);
#115=ORIENTED_EDGE('',*,*,#94,.F.);
#116=ORIENTED_EDGE('',*,*,#87,.F.);
#117=ORIENTED_EDGE('',*,*,#94,.T.);
#118=ORIENTED_EDGE('',*,*,#95,.F.);
#119=ORIENTED_EDGE('',*,*,#88,.F.);
#120=ORIENTED_EDGE('',*,*,#84,.F.);
#121=ORIENTED_EDGE('',*,*,#83,.T.);
#122=ORIENTED_EDGE('',*,*,#95,.T.);
#123=ORIENTED_EDGE('',*,*,#93,.T.);
#124=ORIENTED_EDGE('',*,*,#91,.T.);
#125=ORIENTED_EDGE('',*,*,#89,.T.);
#126=CYLINDRICAL_SURFACE('',#149,3.38975);
#127=ADVANCED_FACE('',(#27),#126,.F.);
#128=ADVANCED_FACE('',(#28),#21,.T.);
#129=ADVANCED_FACE('',(#29),#22,.T.);
#130=ADVANCED_FACE('',(#30,#19),#23,.T.);
#131=ADVANCED_FACE('',(#31),#24,.T.);
#132=ADVANCED_FACE('',(#32,#20),#25,.T.);
#133=ADVANCED_FACE('',(#33),#26,.T.);
#134=CLOSED_SHELL('',(#127,#128,#129,#130,#131,#132,#133));
#135=DERIVED_UNIT_ELEMENT(#137,1.);
#136=DERIVED_UNIT_ELEMENT(#238,-3.);
#137=(
MASS_UNIT()
NAMED_UNIT(*)
SI_UNIT(.KILO.,.GRAM.)
);
#138=DERIVED_UNIT((#135,#136));
#139=MEASURE_REPRESENTATION_ITEM('density measure',
POSITIVE_RATIO_MEASURE(7850.),#138);
#140=PROPERTY_DEFINITION_REPRESENTATION(#145,#142);
#141=PROPERTY_DEFINITION_REPRESENTATION(#146,#143);
#142=REPRESENTATION('material name',(#144),#235);
#143=REPRESENTATION('density',(#139),#235);
#144=DESCRIPTIVE_REPRESENTATION_ITEM('Steel','Steel');
#145=PROPERTY_DEFINITION('material property','material name',#250);
#146=PROPERTY_DEFINITION('material property','density of part',#250);
#147=AXIS2_PLACEMENT_3D('placement',#196,#159,#160);
#148=AXIS2_PLACEMENT_3D('placement',#197,#161,#162);
#149=AXIS2_PLACEMENT_3D('',#198,#163,#164);
#150=AXIS2_PLACEMENT_3D('',#200,#165,#166);
#151=AXIS2_PLACEMENT_3D('',#203,#168,#169);
#152=AXIS2_PLACEMENT_3D('',#204,#170,#171);
#153=AXIS2_PLACEMENT_3D('',#213,#176,#177);
#154=AXIS2_PLACEMENT_3D('',#219,#181,#182);
#155=AXIS2_PLACEMENT_3D('',#223,#185,#186);
#156=AXIS2_PLACEMENT_3D('',#227,#189,#190);
#157=AXIS2_PLACEMENT_3D('',#229,#192,#193);
#158=AXIS2_PLACEMENT_3D('',#230,#194,#195);
#159=DIRECTION('axis',(0.,0.,1.));
#160=DIRECTION('refdir',(1.,0.,0.));
#161=DIRECTION('axis',(0.,0.,1.));
#162=DIRECTION('refdir',(1.,0.,0.));
#163=DIRECTION('center_axis',(0.,0.,-1.));
#164=DIRECTION('ref_axis',(1.,0.,0.));
#165=DIRECTION('center_axis',(0.,0.,-1.));
#166=DIRECTION('ref_axis',(1.,0.,0.));
#167=DIRECTION('',(0.,0.,-1.));
#168=DIRECTION('center_axis',(0.,-1.86610463746229E-17,1.));
#169=DIRECTION('ref_axis',(1.,0.,0.));
#170=DIRECTION('center_axis',(-1.,0.,0.));
#171=DIRECTION('ref_axis',(0.,0.,1.));
#172=DIRECTION('',(0.,-1.,-1.86610463746229E-17));
#173=DIRECTION('',(0.,0.241921895599663,0.970295726275998));
#174=DIRECTION('',(0.,1.,0.));
#175=DIRECTION('',(0.,0.241921895599663,-0.970295726275998));
#176=DIRECTION('center_axis',(0.,-0.970295726275998,0.241921895599663));
#177=DIRECTION('ref_axis',(0.,-0.241921895599663,-0.970295726275998));
#178=DIRECTION('',(1.,0.,0.));
#179=DIRECTION('',(0.,-0.241921895599663,-0.970295726275998));
#180=DIRECTION('',(1.,0.,0.));
#181=DIRECTION('center_axis',(0.,0.,1.));
#182=DIRECTION('ref_axis',(0.,-1.,0.));
#183=DIRECTION('',(0.,-1.,0.));
#184=DIRECTION('',(1.,0.,0.));
#185=DIRECTION('center_axis',(0.,0.970295726275998,0.241921895599663));
#186=DIRECTION('ref_axis',(0.,-0.241921895599663,0.970295726275998));
#187=DIRECTION('',(0.,-0.241921895599663,0.970295726275998));
#188=DIRECTION('',(1.,0.,0.));
#189=DIRECTION('center_axis',(0.,1.86610463746229E-17,-1.));
#190=DIRECTION('ref_axis',(0.,1.,1.86610463746229E-17));
#191=DIRECTION('',(0.,1.,1.86610463746229E-17));
#192=DIRECTION('center_axis',(1.,0.,0.));
#193=DIRECTION('ref_axis',(0.,0.,-1.));
#194=DIRECTION('',(0.,0.,1.));
#195=DIRECTION('',(1.,0.,0.));
#196=CARTESIAN_POINT('',(0.,0.,0.));
#197=CARTESIAN_POINT('',(0.,0.,0.));
#198=CARTESIAN_POINT('Origin',(0.,0.,3.60970284018234));
#199=CARTESIAN_POINT('',(-3.38975,4.15124648740974E-16,8.02156186707186));
#200=CARTESIAN_POINT('Origin',(0.,0.,8.02156186707186));
#201=CARTESIAN_POINT('',(-3.38975,-4.15124648740974E-16,-7.74666032140437E-33));
#202=CARTESIAN_POINT('',(-3.38975,4.15124648740974E-16,3.60970284018234));
#203=CARTESIAN_POINT('Origin',(0.,0.,0.));
#204=CARTESIAN_POINT('Origin',(-22.,0.,4.01078093353593));
#205=CARTESIAN_POINT('',(-22.,9.1,1.69815522009069E-16));
#206=CARTESIAN_POINT('',(-22.,-9.1,0.));
#207=CARTESIAN_POINT('',(-22.,0.,0.));
#208=CARTESIAN_POINT('',(-22.,-7.1,8.02156186707186));
#209=CARTESIAN_POINT('',(-22.,-9.1,0.));
#210=CARTESIAN_POINT('',(-22.,7.1,8.02156186707186));
#211=CARTESIAN_POINT('',(-22.,-7.48453689991674E-17,8.02156186707186));
#212=CARTESIAN_POINT('',(-22.,9.1,1.69815522009069E-16));
#213=CARTESIAN_POINT('Origin',(0.,-7.1,8.02156186707186));
#214=CARTESIAN_POINT('',(22.,-9.1,0.));
#215=CARTESIAN_POINT('',(0.,-9.1,0.));
#216=CARTESIAN_POINT('',(22.,-7.1,8.02156186707186));
#217=CARTESIAN_POINT('',(22.,-9.1,0.));
#218=CARTESIAN_POINT('',(0.,-7.1,8.02156186707186));
#219=CARTESIAN_POINT('Origin',(0.,7.1,8.02156186707186));
#220=CARTESIAN_POINT('',(22.,7.1,8.02156186707186));
#221=CARTESIAN_POINT('',(22.,-7.48453689991674E-17,8.02156186707186));
#222=CARTESIAN_POINT('',(0.,7.1,8.02156186707186));
#223=CARTESIAN_POINT('Origin',(0.,9.1,1.69815522009069E-16));
#224=CARTESIAN_POINT('',(22.,9.1,1.69815522009069E-16));
#225=CARTESIAN_POINT('',(22.,9.1,1.69815522009069E-16));
#226=CARTESIAN_POINT('',(0.,9.1,1.69815522009069E-16));
#227=CARTESIAN_POINT('Origin',(0.,-9.1,-1.69815522009069E-16));
#228=CARTESIAN_POINT('',(22.,0.,0.));
#229=CARTESIAN_POINT('Origin',(22.,0.,4.01078093353593));
#230=CARTESIAN_POINT('',(0.,0.,0.));
#231=UNCERTAINTY_MEASURE_WITH_UNIT(LENGTH_MEASURE(0.01),#237,
'DISTANCE_ACCURACY_VALUE',
'Maximum model space distance between geometric entities at asserted c
onnectivities');
#232=UNCERTAINTY_MEASURE_WITH_UNIT(LENGTH_MEASURE(0.01),#237,
'DISTANCE_ACCURACY_VALUE',
'Maximum model space distance between geometric entities at asserted c
onnectivities');
#233=UNCERTAINTY_MEASURE_WITH_UNIT(LENGTH_MEASURE(0.01),#237,
'DISTANCE_ACCURACY_VALUE',
'Maximum model space distance between geometric entities at asserted c
onnectivities');
#234=(
GEOMETRIC_REPRESENTATION_CONTEXT(3)
GLOBAL_UNCERTAINTY_ASSIGNED_CONTEXT((#231))
GLOBAL_UNIT_ASSIGNED_CONTEXT((#237,#239,#240))
REPRESENTATION_CONTEXT('','3D')
);
#235=(
GEOMETRIC_REPRESENTATION_CONTEXT(3)
GLOBAL_UNCERTAINTY_ASSIGNED_CONTEXT((#232))
GLOBAL_UNIT_ASSIGNED_CONTEXT((#237,#239,#240))
REPRESENTATION_CONTEXT('','3D')
);
#236=(
GEOMETRIC_REPRESENTATION_CONTEXT(3)
GLOBAL_UNCERTAINTY_ASSIGNED_CONTEXT((#233))
GLOBAL_UNIT_ASSIGNED_CONTEXT((#237,#239,#240))
REPRESENTATION_CONTEXT('','3D')
);
#237=(
LENGTH_UNIT()
NAMED_UNIT(*)
SI_UNIT(.MILLI.,.METRE.)
);
#238=(
LENGTH_UNIT()
NAMED_UNIT(*)
SI_UNIT($,.METRE.)
);
#239=(
NAMED_UNIT(*)
PLANE_ANGLE_UNIT()
SI_UNIT($,.RADIAN.)
);
#240=(
NAMED_UNIT(*)
SI_UNIT($,.STERADIAN.)
SOLID_ANGLE_UNIT()
);
#241=SHAPE_DEFINITION_REPRESENTATION(#243,#246);
#242=SHAPE_DEFINITION_REPRESENTATION(#244,#247);
#243=PRODUCT_DEFINITION_SHAPE('',$,#249);
#244=PRODUCT_DEFINITION_SHAPE('',$,#250);
#245=PRODUCT_DEFINITION_SHAPE($,$,#14);
#246=SHAPE_REPRESENTATION('',(#147,#158),#234);
#247=SHAPE_REPRESENTATION('',(#148),#235);
#248=PRODUCT_DEFINITION_CONTEXT('part definition',#256,'design');
#249=PRODUCT_DEFINITION('Matchfit Hardware','Matchfit Hardware v12',#251,
#248);
#250=PRODUCT_DEFINITION('M8 Dovetail Male Inox','M8 Dovetail Male Inox',
#252,#248);
#251=PRODUCT_DEFINITION_FORMATION('',$,#258);
#252=PRODUCT_DEFINITION_FORMATION('',$,#259);
#253=PRODUCT_RELATED_PRODUCT_CATEGORY('Matchfit Hardware v12',
'Matchfit Hardware v12',(#258));
#254=PRODUCT_RELATED_PRODUCT_CATEGORY('M8 Dovetail Male Inox',
'M8 Dovetail Male Inox',(#259));
#255=APPLICATION_PROTOCOL_DEFINITION('international standard',
'automotive_design',2009,#256);
#256=APPLICATION_CONTEXT(
'Core Data for Automotive Mechanical Design Process');
#257=PRODUCT_CONTEXT('part definition',#256,'mechanical');
#258=PRODUCT('Matchfit Hardware','Matchfit Hardware v12',$,(#257));
#259=PRODUCT('M8 Dovetail Male Inox','M8 Dovetail Male Inox',$,(#257));
#260=PRESENTATION_STYLE_ASSIGNMENT((#261));
#261=SURFACE_STYLE_USAGE(.BOTH.,#262);
#262=SURFACE_SIDE_STYLE('',(#263));
#263=SURFACE_STYLE_FILL_AREA(#264);
#264=FILL_AREA_STYLE('Steel - Satin',(#265));
#265=FILL_AREA_STYLE_COLOUR('Steel - Satin',#266);
#266=COLOUR_RGB('Steel - Satin',0.627450980392157,0.627450980392157,0.627450980392157);
ENDSEC;
END-ISO-10303-21;
