ISO-10303-21;
HEADER;
FILE_DESCRIPTION((''),'2;1');
FILE_NAME('CAME','2019-10-23T',('ygill'),(''),
'CREO PARAMETRIC BY PTC INC, 2016260','CREO PARAMETRIC BY PTC INC, 2016260','');
FILE_SCHEMA(('CONFIG_CONTROL_DESIGN'));
ENDSEC;
DATA;
#2=CARTESIAN_POINT('',(0.E0,0.E0,0.E0));
#3=DIRECTION('',(0.E0,0.E0,1.E0));
#4=DIRECTION('',(1.E0,0.E0,0.E0));
#5=AXIS2_PLACEMENT_3D('',#2,#3,#4);
#7=CARTESIAN_POINT('',(0.E0,0.E0,0.E0));
#8=DIRECTION('',(0.E0,0.E0,1.E0));
#9=DIRECTION('',(-1.E0,0.E0,0.E0));
#10=AXIS2_PLACEMENT_3D('',#7,#8,#9);
#12=CARTESIAN_POINT('',(1.152412124415E1,1.874018755376E1,0.E0));
#13=DIRECTION('',(0.E0,0.E0,-1.E0));
#14=DIRECTION('',(-9.975640502598E-1,6.975647374412E-2,0.E0));
#15=AXIS2_PLACEMENT_3D('',#12,#13,#14);
#17=DIRECTION('',(-6.975647374412E-2,-9.975640502598E-1,0.E0));
#18=VECTOR('',#17,4.505545031200E-1);
#19=CARTESIAN_POINT('',(8.531429093367E0,1.894945697500E1,0.E0));
#20=LINE('',#19,#18);
#21=CARTESIAN_POINT('',(0.E0,1.85E1,0.E0));
#22=DIRECTION('',(0.E0,0.E0,-1.E0));
#23=DIRECTION('',(1.E0,0.E0,0.E0));
#24=AXIS2_PLACEMENT_3D('',#21,#22,#23);
#26=DIRECTION('',(6.975647374413E-2,-9.975640502598E-1,0.E0));
#27=VECTOR('',#26,1.032650935085E0);
#28=CARTESIAN_POINT('',(-8.551328515049E0,1.893720542248E1,0.E0));
#29=LINE('',#28,#27);
#30=CARTESIAN_POINT('',(-1.154402066583E1,1.872793600125E1,0.E0));
#31=DIRECTION('',(0.E0,0.E0,-1.E0));
#32=DIRECTION('',(-5.247282120831E-1,8.512698182387E-1,0.E0));
#33=AXIS2_PLACEMENT_3D('',#30,#31,#32);
#35=CARTESIAN_POINT('',(0.E0,0.E0,0.E0));
#36=DIRECTION('',(0.E0,0.E0,1.E0));
#37=DIRECTION('',(-5.247282120831E-1,8.512698182387E-1,0.E0));
#38=AXIS2_PLACEMENT_3D('',#35,#36,#37);
#40=CARTESIAN_POINT('',(1.165300602017E1,1.563513513514E1,0.E0));
#41=DIRECTION('',(0.E0,0.E0,1.E0));
#42=DIRECTION('',(5.975900523163E-1,8.018018018018E-1,0.E0));
#43=AXIS2_PLACEMENT_3D('',#40,#41,#42);
#45=DIRECTION('',(0.E0,0.E0,-1.E0));
#46=VECTOR('',#45,4.E1);
#47=CARTESIAN_POINT('',(4.E0,0.E0,4.E1));
#48=LINE('',#47,#46);
#49=DIRECTION('',(0.E0,0.E0,-1.E0));
#50=VECTOR('',#49,4.E1);
#51=CARTESIAN_POINT('',(-4.E0,0.E0,4.E1));
#52=LINE('',#51,#50);
#53=CARTESIAN_POINT('',(0.E0,0.E0,4.E1));
#54=DIRECTION('',(0.E0,0.E0,1.E0));
#55=DIRECTION('',(1.E0,0.E0,0.E0));
#56=AXIS2_PLACEMENT_3D('',#53,#54,#55);
#58=CARTESIAN_POINT('',(0.E0,0.E0,4.E1));
#59=DIRECTION('',(0.E0,0.E0,1.E0));
#60=DIRECTION('',(-1.E0,0.E0,0.E0));
#61=AXIS2_PLACEMENT_3D('',#58,#59,#60);
#63=CARTESIAN_POINT('',(0.E0,0.E0,4.E1));
#64=DIRECTION('',(0.E0,0.E0,1.E0));
#65=DIRECTION('',(-3.003092158115E-1,9.538419024653E-1,0.E0));
#66=AXIS2_PLACEMENT_3D('',#63,#64,#65);
#68=CARTESIAN_POINT('',(-7.357575787383E0,2.336912661040E1,4.E1));
#69=DIRECTION('',(0.E0,0.E0,1.E0));
#70=DIRECTION('',(9.975640502598E-1,6.975647374413E-2,0.E0));
#71=AXIS2_PLACEMENT_3D('',#68,#69,#70);
#73=DIRECTION('',(-6.975647374412E-2,9.975640502598E-1,0.E0));
#74=VECTOR('',#73,5.370504204932E0);
#75=CARTESIAN_POINT('',(-6.484166326689E0,1.804658292066E1,4.E1));
#76=LINE('',#75,#74);
#77=CARTESIAN_POINT('',(0.E0,1.85E1,4.E1));
#78=DIRECTION('',(0.E0,0.E0,-1.E0));
#79=DIRECTION('',(9.710838350140E-1,-2.387387387387E-1,0.E0));
#80=AXIS2_PLACEMENT_3D('',#77,#78,#79);
#82=CARTESIAN_POINT('',(1.165300602017E1,1.563513513514E1,4.E1));
#83=DIRECTION('',(0.E0,0.E0,1.E0));
#84=DIRECTION('',(5.975900523163E-1,8.018018018018E-1,0.E0));
#85=AXIS2_PLACEMENT_3D('',#82,#83,#84);
#87=DIRECTION('',(0.E0,0.E0,-1.E0));
#88=VECTOR('',#87,3.E0);
#89=CARTESIAN_POINT('',(-1.311820530208E1,2.128174545597E1,3.E0));
#90=LINE('',#89,#88);
#91=CARTESIAN_POINT('',(-7.507730395289E0,2.384604756163E1,4.183479484985E0));
#92=CARTESIAN_POINT('',(-7.895966646671E0,2.372381459629E1,3.787662416961E0));
#93=CARTESIAN_POINT('',(-8.282199980218E0,2.359179788452E1,3.393160908114E0));
#94=CARTESIAN_POINT('',(-8.666392270560E0,2.344981119354E1,3.E0));
#96=DIRECTION('',(0.E0,0.E0,-1.E0));
#97=VECTOR('',#96,3.581652051501E1);
#98=CARTESIAN_POINT('',(-7.507730395289E0,2.384604756163E1,4.E1));
#99=LINE('',#98,#97);
#100=DIRECTION('',(0.E0,0.E0,1.E0));
#101=VECTOR('',#100,4.E1);
#102=CARTESIAN_POINT('',(1.493975130791E1,2.004504504505E1,0.E0));
#103=LINE('',#102,#101);
#104=CARTESIAN_POINT('',(-1.154402066583E1,1.872793600125E1,3.E0));
#105=DIRECTION('',(0.E0,0.E0,1.E0));
#106=DIRECTION('',(9.975640502598E-1,6.975647374413E-2,0.E0));
#107=AXIS2_PLACEMENT_3D('',#104,#105,#106);
#109=DIRECTION('',(0.E0,0.E0,-1.E0));
#110=VECTOR('',#109,3.E0);
#111=CARTESIAN_POINT('',(-8.551328515049E0,1.893720542248E1,3.E0));
#112=LINE('',#111,#110);
#113=DIRECTION('',(0.E0,0.E0,1.E0));
#114=VECTOR('',#113,3.E0);
#115=CARTESIAN_POINT('',(-8.479294427209E0,1.790706997317E1,0.E0));
#116=LINE('',#115,#114);
#117=DIRECTION('',(0.E0,0.E0,1.E0));
#118=VECTOR('',#117,3.E0);
#119=CARTESIAN_POINT('',(8.5E0,1.85E1,0.E0));
#120=LINE('',#119,#118);
#121=DIRECTION('',(0.E0,0.E0,1.E0));
#122=VECTOR('',#121,3.E0);
#123=CARTESIAN_POINT('',(8.531429093367E0,1.894945697500E1,0.E0));
#124=LINE('',#123,#122);
#125=DIRECTION('',(0.E0,0.E0,1.E0));
#126=VECTOR('',#125,3.E0);
#127=CARTESIAN_POINT('',(9.098977777211E0,2.050616579960E1,0.E0));
#128=LINE('',#127,#126);
#129=CARTESIAN_POINT('',(1.152412124415E1,1.874018755376E1,3.E0));
#130=DIRECTION('',(0.E0,0.E0,1.E0));
#131=DIRECTION('',(-8.083811556453E-1,5.886594152798E-1,0.E0));
#132=AXIS2_PLACEMENT_3D('',#129,#130,#131);
#134=CARTESIAN_POINT('',(0.E0,1.85E1,4.8E0));
#135=DIRECTION('',(0.E0,0.E0,-1.E0));
#136=DIRECTION('',(9.710838350140E-1,-2.387387387387E-1,0.E0));
#137=AXIS2_PLACEMENT_3D('',#134,#135,#136);
#139=DIRECTION('',(0.E0,0.E0,1.E0));
#140=VECTOR('',#139,3.52E1);
#141=CARTESIAN_POINT('',(6.312044927591E0,1.694819819820E1,4.8E0));
#142=LINE('',#141,#140);
#143=DIRECTION('',(0.E0,0.E0,-1.E0));
#144=VECTOR('',#143,3.52E1);
#145=CARTESIAN_POINT('',(-6.858793762253E0,2.340400484727E1,4.E1));
#146=LINE('',#145,#144);
#147=DIRECTION('',(-6.975647383567E-2,9.975640502534E-1,-9.177246688650E-11));
#148=VECTOR('',#147,5.370504168269E0);
#149=CARTESIAN_POINT('',(-6.484166328755E0,1.804658295727E1,4.800000000493E0));
#150=LINE('',#149,#148);
#151=DIRECTION('',(5.868712082041E-11,-1.039990215173E-9,1.E0));
#152=VECTOR('',#151,3.519999999951E1);
#153=CARTESIAN_POINT('',(-6.484166328755E0,1.804658295727E1,4.800000000493E0));
#154=LINE('',#153,#152);
#155=CARTESIAN_POINT('',(-7.507730395289E0,2.384604756163E1,4.183479484985E0));
#156=CARTESIAN_POINT('',(-7.421210758765E0,2.387328755196E1,4.271688529693E0));
#157=CARTESIAN_POINT('',(-7.274863073163E0,2.387504773499E1,4.417802503849E0));
#158=CARTESIAN_POINT('',(-7.091313749301E0,2.380663763282E1,4.596132663288E0));
#159=CARTESIAN_POINT('',(-6.965912880093E0,2.369520029625E1,4.713454586638E0));
#160=CARTESIAN_POINT('',(-6.889601841088E0,2.355862783637E1,4.780052922576E0));
#161=CARTESIAN_POINT('',(-6.863206720770E0,2.346711309423E1,4.8E0));
#162=CARTESIAN_POINT('',(-6.858793762253E0,2.340400484727E1,4.8E0));
#164=DIRECTION('',(-7.053843053125E-1,-4.932526552216E-2,-7.071067811865E-1));
#165=VECTOR('',#164,2.545584411782E0);
#166=CARTESIAN_POINT('',(-6.484166328755E0,1.804658295727E1,4.800000000493E0));
#167=LINE('',#166,#165);
#168=DIRECTION('',(-6.975647408156E-2,-9.975640502362E-1,3.382541580253E-10));
#169=VECTOR('',#168,2.177327203937E0);
#170=CARTESIAN_POINT('',(8.431664289385E0,2.009304467364E1,3.E0));
#171=LINE('',#170,#169);
#172=CARTESIAN_POINT('',(0.E0,1.85E1,3.E0));
#173=DIRECTION('',(0.E0,0.E0,-1.E0));
#174=DIRECTION('',(9.975640502598E-1,-6.975647374412E-2,0.E0));
#175=AXIS2_PLACEMENT_3D('',#172,#173,#174);
#177=DIRECTION('',(-6.975647389516E-2,9.975640502493E-1,-1.514054868670E-10));
#178=VECTOR('',#177,5.542290604708E0);
#179=CARTESIAN_POINT('',(-8.279781620674E0,1.792102133025E1,3.000000000839E0));
#180=LINE('',#179,#178);
#181=CARTESIAN_POINT('',(0.E0,0.E0,3.E0));
#182=DIRECTION('',(0.E0,0.E0,1.E0));
#183=DIRECTION('',(-3.466556908224E-1,9.379924477417E-1,0.E0));
#184=AXIS2_PLACEMENT_3D('',#181,#182,#183);
#186=DIRECTION('',(-6.975647374413E-2,9.975640502598E-1,0.E0));
#187=VECTOR('',#186,1.032650935085E0);
#188=CARTESIAN_POINT('',(-8.479294427209E0,1.790706997317E1,3.E0));
#189=LINE('',#188,#187);
#190=CARTESIAN_POINT('',(0.E0,1.85E1,3.E0));
#191=DIRECTION('',(0.E0,0.E0,-1.E0));
#192=DIRECTION('',(1.E0,0.E0,0.E0));
#193=AXIS2_PLACEMENT_3D('',#190,#191,#192);
#195=DIRECTION('',(-6.975647374412E-2,-9.975640502598E-1,0.E0));
#196=VECTOR('',#195,4.505545031200E-1);
#197=CARTESIAN_POINT('',(8.531429093367E0,1.894945697500E1,3.E0));
#198=LINE('',#197,#196);
#199=CARTESIAN_POINT('',(1.165300602017E1,1.563513513514E1,3.E0));
#200=DIRECTION('',(0.E0,0.E0,1.E0));
#201=DIRECTION('',(-4.643687714467E-1,8.856419389940E-1,0.E0));
#202=AXIS2_PLACEMENT_3D('',#199,#200,#201);
#204=CARTESIAN_POINT('',(8.431664289385E0,2.009304467364E1,3.E0));
#205=CARTESIAN_POINT('',(8.085581010504E0,1.984296052569E1,3.327795249107E0));
#206=CARTESIAN_POINT('',(7.445296746836E0,1.925894259213E1,3.925780780842E0));
#207=CARTESIAN_POINT('',(6.922238364349E0,1.848546989694E1,4.393610291643E0));
#208=CARTESIAN_POINT('',(6.702420908441E0,1.803132107357E1,4.581212462804E0));
#210=DIRECTION('',(7.053843065273E-1,-4.932524814993E-2,-7.071067811865E-1));
#211=VECTOR('',#210,2.236172108849E0);
#212=CARTESIAN_POINT('',(6.702420908441E0,1.803132107357E1,4.581212462804E0));
#213=LINE('',#212,#211);
#214=CARTESIAN_POINT('',(6.702420908441E0,1.803132107357E1,4.581212462804E0));
#215=CARTESIAN_POINT('',(6.642680619020E0,1.790789601601E1,4.632197531095E0));
#216=CARTESIAN_POINT('',(6.534962374134E0,1.766159074123E1,4.715115356507E0));
#217=CARTESIAN_POINT('',(6.407580019217E0,1.730310017631E1,4.785124887346E0));
#218=CARTESIAN_POINT('',(6.340901685495E0,1.706557475501E1,4.8E0));
#219=CARTESIAN_POINT('',(6.312044927591E0,1.694819819820E1,4.8E0));
#221=CARTESIAN_POINT('',(4.E0,0.E0,0.E0));
#222=CARTESIAN_POINT('',(-4.E0,0.E0,0.E0));
#223=VERTEX_POINT('',#221);
#224=VERTEX_POINT('',#222);
#225=CARTESIAN_POINT('',(4.E0,0.E0,4.E1));
#226=CARTESIAN_POINT('',(-4.E0,0.E0,4.E1));
#227=VERTEX_POINT('',#225);
#228=VERTEX_POINT('',#226);
#229=CARTESIAN_POINT('',(8.5E0,1.85E1,3.E0));
#230=CARTESIAN_POINT('',(-8.479294427209E0,1.790706997317E1,3.E0));
#231=VERTEX_POINT('',#229);
#232=VERTEX_POINT('',#230);
#233=CARTESIAN_POINT('',(8.5E0,1.85E1,0.E0));
#234=CARTESIAN_POINT('',(-8.479294427209E0,1.790706997317E1,0.E0));
#235=VERTEX_POINT('',#233);
#236=VERTEX_POINT('',#234);
#237=CARTESIAN_POINT('',(-8.279781620674E0,1.792102133025E1,3.000000000839E0));
#238=CARTESIAN_POINT('',(-8.666392270560E0,2.344981119354E1,3.E0));
#239=VERTEX_POINT('',#237);
#240=VERTEX_POINT('',#238);
#241=CARTESIAN_POINT('',(8.279781617157E0,1.792102126792E1,3.E0));
#242=VERTEX_POINT('',#241);
#243=CARTESIAN_POINT('',(-6.484166328755E0,1.804658295727E1,4.800000000493E0));
#244=CARTESIAN_POINT('',(-6.484166326689E0,1.804658292066E1,4.E1));
#245=VERTEX_POINT('',#243);
#246=VERTEX_POINT('',#244);
#247=CARTESIAN_POINT('',(-7.507730395289E0,2.384604756163E1,4.E1));
#248=CARTESIAN_POINT('',(-7.507730395289E0,2.384604756163E1,4.183479484985E0));
#249=VERTEX_POINT('',#247);
#250=VERTEX_POINT('',#248);
#251=VERTEX_POINT('',#162);
#252=CARTESIAN_POINT('',(-6.858793762253E0,2.340400484727E1,4.E1));
#253=VERTEX_POINT('',#252);
#254=CARTESIAN_POINT('',(-1.311820530208E1,2.128174545597E1,0.E0));
#255=CARTESIAN_POINT('',(-8.551328515049E0,1.893720542248E1,0.E0));
#256=VERTEX_POINT('',#254);
#257=VERTEX_POINT('',#255);
#258=CARTESIAN_POINT('',(-8.551328515049E0,1.893720542248E1,3.E0));
#259=VERTEX_POINT('',#258);
#260=CARTESIAN_POINT('',(-1.311820530208E1,2.128174545597E1,3.E0));
#261=VERTEX_POINT('',#260);
#262=CARTESIAN_POINT('',(8.531429093367E0,1.894945697500E1,0.E0));
#263=CARTESIAN_POINT('',(8.531429093367E0,1.894945697500E1,3.E0));
#264=VERTEX_POINT('',#262);
#265=VERTEX_POINT('',#263);
#266=CARTESIAN_POINT('',(8.431664289385E0,2.009304467364E1,3.E0));
#267=VERTEX_POINT('',#266);
#268=CARTESIAN_POINT('',(9.098977777211E0,2.050616579960E1,0.E0));
#269=VERTEX_POINT('',#268);
#270=CARTESIAN_POINT('',(1.493975130791E1,2.004504504505E1,0.E0));
#271=VERTEX_POINT('',#270);
#272=CARTESIAN_POINT('',(9.098977777211E0,2.050616579960E1,3.E0));
#273=VERTEX_POINT('',#272);
#274=CARTESIAN_POINT('',(1.493975130791E1,2.004504504505E1,4.E1));
#275=VERTEX_POINT('',#274);
#276=CARTESIAN_POINT('',(6.312044927591E0,1.694819819820E1,4.E1));
#277=VERTEX_POINT('',#276);
#278=CARTESIAN_POINT('',(6.312044927591E0,1.694819819820E1,4.8E0));
#279=VERTEX_POINT('',#278);
#280=CARTESIAN_POINT('',(6.702420908441E0,1.803132107357E1,4.581212462804E0));
#281=VERTEX_POINT('',#280);
#282=CARTESIAN_POINT('',(0.E0,0.E0,0.E0));
#283=DIRECTION('',(0.E0,0.E0,1.E0));
#284=DIRECTION('',(1.E0,0.E0,0.E0));
#285=AXIS2_PLACEMENT_3D('',#282,#283,#284);
#286=PLANE('',#285);
#288=ORIENTED_EDGE('',*,*,#287,.F.);
#290=ORIENTED_EDGE('',*,*,#289,.T.);
#292=ORIENTED_EDGE('',*,*,#291,.T.);
#294=ORIENTED_EDGE('',*,*,#293,.F.);
#296=ORIENTED_EDGE('',*,*,#295,.F.);
#298=ORIENTED_EDGE('',*,*,#297,.T.);
#300=ORIENTED_EDGE('',*,*,#299,.T.);
#301=EDGE_LOOP('',(#288,#290,#292,#294,#296,#298,#300));
#302=FACE_OUTER_BOUND('',#301,.F.);
#304=ORIENTED_EDGE('',*,*,#303,.F.);
#306=ORIENTED_EDGE('',*,*,#305,.F.);
#307=EDGE_LOOP('',(#304,#306));
#308=FACE_BOUND('',#307,.F.);
#309=ADVANCED_FACE('',(#302,#308),#286,.F.);
#310=CARTESIAN_POINT('',(0.E0,0.E0,4.E1));
#311=DIRECTION('',(0.E0,0.E0,1.E0));
#312=DIRECTION('',(1.E0,0.E0,0.E0));
#313=AXIS2_PLACEMENT_3D('',#310,#311,#312);
#314=CYLINDRICAL_SURFACE('',#313,4.E0);
#315=ORIENTED_EDGE('',*,*,#303,.T.);
#317=ORIENTED_EDGE('',*,*,#316,.F.);
#319=ORIENTED_EDGE('',*,*,#318,.F.);
#321=ORIENTED_EDGE('',*,*,#320,.T.);
#322=EDGE_LOOP('',(#315,#317,#319,#321));
#323=FACE_OUTER_BOUND('',#322,.F.);
#324=ADVANCED_FACE('',(#323),#314,.F.);
#325=CARTESIAN_POINT('',(0.E0,0.E0,4.E1));
#326=DIRECTION('',(0.E0,0.E0,1.E0));
#327=DIRECTION('',(1.E0,0.E0,0.E0));
#328=AXIS2_PLACEMENT_3D('',#325,#326,#327);
#329=CYLINDRICAL_SURFACE('',#328,4.E0);
#330=ORIENTED_EDGE('',*,*,#305,.T.);
#331=ORIENTED_EDGE('',*,*,#320,.F.);
#333=ORIENTED_EDGE('',*,*,#332,.F.);
#334=ORIENTED_EDGE('',*,*,#316,.T.);
#335=EDGE_LOOP('',(#330,#331,#333,#334));
#336=FACE_OUTER_BOUND('',#335,.F.);
#337=ADVANCED_FACE('',(#336),#329,.F.);
#338=CARTESIAN_POINT('',(0.E0,0.E0,4.E1));
#339=DIRECTION('',(0.E0,0.E0,1.E0));
#340=DIRECTION('',(1.E0,0.E0,0.E0));
#341=AXIS2_PLACEMENT_3D('',#338,#339,#340);
#342=PLANE('',#341);
#344=ORIENTED_EDGE('',*,*,#343,.F.);
#346=ORIENTED_EDGE('',*,*,#345,.F.);
#348=ORIENTED_EDGE('',*,*,#347,.F.);
#350=ORIENTED_EDGE('',*,*,#349,.F.);
#352=ORIENTED_EDGE('',*,*,#351,.F.);
#353=EDGE_LOOP('',(#344,#346,#348,#350,#352));
#354=FACE_OUTER_BOUND('',#353,.F.);
#355=ORIENTED_EDGE('',*,*,#318,.T.);
#356=ORIENTED_EDGE('',*,*,#332,.T.);
#357=EDGE_LOOP('',(#355,#356));
#358=FACE_BOUND('',#357,.F.);
#359=ADVANCED_FACE('',(#354,#358),#342,.T.);
#360=CARTESIAN_POINT('',(0.E0,0.E0,0.E0));
#361=DIRECTION('',(0.E0,0.E0,1.E0));
#362=DIRECTION('',(1.E0,0.E0,0.E0));
#363=AXIS2_PLACEMENT_3D('',#360,#361,#362);
#364=CYLINDRICAL_SURFACE('',#363,2.5E1);
#365=ORIENTED_EDGE('',*,*,#297,.F.);
#367=ORIENTED_EDGE('',*,*,#366,.F.);
#369=ORIENTED_EDGE('',*,*,#368,.F.);
#371=ORIENTED_EDGE('',*,*,#370,.F.);
#373=ORIENTED_EDGE('',*,*,#372,.F.);
#374=ORIENTED_EDGE('',*,*,#343,.T.);
#376=ORIENTED_EDGE('',*,*,#375,.F.);
#377=EDGE_LOOP('',(#365,#367,#369,#371,#373,#374,#376));
#378=FACE_OUTER_BOUND('',#377,.F.);
#379=ADVANCED_FACE('',(#378),#364,.T.);
#380=CARTESIAN_POINT('',(-1.154402066583E1,1.872793600125E1,9.2144E1));
#381=DIRECTION('',(0.E0,0.E0,-1.E0));
#382=DIRECTION('',(-5.247282120831E-1,8.512698182387E-1,0.E0));
#383=AXIS2_PLACEMENT_3D('',#380,#381,#382);
#384=CYLINDRICAL_SURFACE('',#383,3.E0);
#385=ORIENTED_EDGE('',*,*,#295,.T.);
#387=ORIENTED_EDGE('',*,*,#386,.F.);
#389=ORIENTED_EDGE('',*,*,#388,.T.);
#390=ORIENTED_EDGE('',*,*,#366,.T.);
#391=EDGE_LOOP('',(#385,#387,#389,#390));
#392=FACE_OUTER_BOUND('',#391,.F.);
#393=ADVANCED_FACE('',(#392),#384,.T.);
#394=CARTESIAN_POINT('',(-8.479294427209E0,1.790706997317E1,0.E0));
#395=DIRECTION('',(-9.975640502598E-1,-6.975647374413E-2,0.E0));
#396=DIRECTION('',(-6.975647374413E-2,9.975640502598E-1,0.E0));
#397=AXIS2_PLACEMENT_3D('',#394,#395,#396);
#398=PLANE('',#397);
#399=ORIENTED_EDGE('',*,*,#386,.T.);
#400=ORIENTED_EDGE('',*,*,#293,.T.);
#402=ORIENTED_EDGE('',*,*,#401,.T.);
#404=ORIENTED_EDGE('',*,*,#403,.T.);
#405=EDGE_LOOP('',(#399,#400,#402,#404));
#406=FACE_OUTER_BOUND('',#405,.F.);
#407=ADVANCED_FACE('',(#406),#398,.F.);
#408=CARTESIAN_POINT('',(0.E0,1.85E1,0.E0));
#409=DIRECTION('',(0.E0,0.E0,-1.E0));
#410=DIRECTION('',(0.E0,1.E0,0.E0));
#411=AXIS2_PLACEMENT_3D('',#408,#409,#410);
#412=CYLINDRICAL_SURFACE('',#411,8.5E0);
#413=ORIENTED_EDGE('',*,*,#291,.F.);
#415=ORIENTED_EDGE('',*,*,#414,.T.);
#417=ORIENTED_EDGE('',*,*,#416,.T.);
#418=ORIENTED_EDGE('',*,*,#401,.F.);
#419=EDGE_LOOP('',(#413,#415,#417,#418));
#420=FACE_OUTER_BOUND('',#419,.F.);
#421=ADVANCED_FACE('',(#420),#412,.F.);
#422=CARTESIAN_POINT('',(8.954524277633E0,2.5E1,0.E0));
#423=DIRECTION('',(9.975640502598E-1,-6.975647374412E-2,0.E0));
#424=DIRECTION('',(-6.975647374412E-2,-9.975640502598E-1,0.E0));
#425=AXIS2_PLACEMENT_3D('',#422,#423,#424);
#426=PLANE('',#425);
#428=ORIENTED_EDGE('',*,*,#427,.T.);
#430=ORIENTED_EDGE('',*,*,#429,.T.);
#431=ORIENTED_EDGE('',*,*,#414,.F.);
#432=ORIENTED_EDGE('',*,*,#289,.F.);
#433=EDGE_LOOP('',(#428,#430,#431,#432));
#434=FACE_OUTER_BOUND('',#433,.F.);
#435=ADVANCED_FACE('',(#434),#426,.F.);
#436=CARTESIAN_POINT('',(1.152412124415E1,1.874018755376E1,-5.2144E1));
#437=DIRECTION('',(0.E0,0.E0,1.E0));
#438=DIRECTION('',(5.238236929158E-1,8.518267069892E-1,0.E0));
#439=AXIS2_PLACEMENT_3D('',#436,#437,#438);
#440=CYLINDRICAL_SURFACE('',#439,3.E0);
#441=ORIENTED_EDGE('',*,*,#287,.T.);
#443=ORIENTED_EDGE('',*,*,#442,.T.);
#445=ORIENTED_EDGE('',*,*,#444,.T.);
#446=ORIENTED_EDGE('',*,*,#427,.F.);
#447=EDGE_LOOP('',(#441,#443,#445,#446));
#448=FACE_OUTER_BOUND('',#447,.F.);
#449=ADVANCED_FACE('',(#448),#440,.T.);
#450=CARTESIAN_POINT('',(1.165300602017E1,1.563513513514E1,4.E1));
#451=DIRECTION('',(0.E0,0.E0,1.E0));
#452=DIRECTION('',(1.E0,0.E0,0.E0));
#453=AXIS2_PLACEMENT_3D('',#450,#451,#452);
#454=CYLINDRICAL_SURFACE('',#453,5.5E0);
#455=ORIENTED_EDGE('',*,*,#299,.F.);
#456=ORIENTED_EDGE('',*,*,#375,.T.);
#457=ORIENTED_EDGE('',*,*,#351,.T.);
#459=ORIENTED_EDGE('',*,*,#458,.F.);
#461=ORIENTED_EDGE('',*,*,#460,.F.);
#463=ORIENTED_EDGE('',*,*,#462,.F.);
#465=ORIENTED_EDGE('',*,*,#464,.F.);
#466=ORIENTED_EDGE('',*,*,#442,.F.);
#467=EDGE_LOOP('',(#455,#456,#457,#459,#461,#463,#465,#466));
#468=FACE_OUTER_BOUND('',#467,.F.);
#469=ADVANCED_FACE('',(#468),#454,.T.);
#470=CARTESIAN_POINT('',(0.E0,1.85E1,0.E0));
#471=DIRECTION('',(0.E0,0.E0,1.E0));
#472=DIRECTION('',(1.E0,0.E0,0.E0));
#473=AXIS2_PLACEMENT_3D('',#470,#471,#472);
#474=CYLINDRICAL_SURFACE('',#473,6.5E0);
#475=ORIENTED_EDGE('',*,*,#349,.T.);
#477=ORIENTED_EDGE('',*,*,#476,.F.);
#479=ORIENTED_EDGE('',*,*,#478,.F.);
#480=ORIENTED_EDGE('',*,*,#458,.T.);
#481=EDGE_LOOP('',(#475,#477,#479,#480));
#482=FACE_OUTER_BOUND('',#481,.F.);
#483=ADVANCED_FACE('',(#482),#474,.F.);
#484=CARTESIAN_POINT('',(-6.484166326689E0,1.804658292066E1,0.E0));
#485=DIRECTION('',(9.975640502598E-1,6.975647374412E-2,0.E0));
#486=DIRECTION('',(-6.975647374412E-2,9.975640502598E-1,0.E0));
#487=AXIS2_PLACEMENT_3D('',#484,#485,#486);
#488=PLANE('',#487);
#490=ORIENTED_EDGE('',*,*,#489,.T.);
#492=ORIENTED_EDGE('',*,*,#491,.F.);
#493=ORIENTED_EDGE('',*,*,#476,.T.);
#494=ORIENTED_EDGE('',*,*,#347,.T.);
#495=EDGE_LOOP('',(#490,#492,#493,#494));
#496=FACE_OUTER_BOUND('',#495,.F.);
#497=ADVANCED_FACE('',(#496),#488,.T.);
#498=CARTESIAN_POINT('',(-7.357575787383E0,2.336912661040E1,9.2144E1));
#499=DIRECTION('',(0.E0,0.E0,-1.E0));
#500=DIRECTION('',(-3.003092158115E-1,9.538419024653E-1,0.E0));
#501=AXIS2_PLACEMENT_3D('',#498,#499,#500);
#502=CYLINDRICAL_SURFACE('',#501,5.E-1);
#503=ORIENTED_EDGE('',*,*,#372,.T.);
#505=ORIENTED_EDGE('',*,*,#504,.T.);
#506=ORIENTED_EDGE('',*,*,#489,.F.);
#507=ORIENTED_EDGE('',*,*,#345,.T.);
#508=EDGE_LOOP('',(#503,#505,#506,#507));
#509=FACE_OUTER_BOUND('',#508,.F.);
#510=ADVANCED_FACE('',(#509),#502,.T.);
#511=CARTESIAN_POINT('',(-7.575279298625E0,2.074819705710E1,3.9E0));
#512=DIRECTION('',(7.053843046066E-1,4.932527561613E-2,-7.071067811865E-1));
#513=DIRECTION('',(-7.053843046066E-1,-4.932527561613E-2,-7.071067811865E-1));
#514=AXIS2_PLACEMENT_3D('',#511,#512,#513);
#515=PLANE('',#514);
#516=ORIENTED_EDGE('',*,*,#504,.F.);
#517=ORIENTED_EDGE('',*,*,#370,.T.);
#519=ORIENTED_EDGE('',*,*,#518,.F.);
#521=ORIENTED_EDGE('',*,*,#520,.F.);
#522=ORIENTED_EDGE('',*,*,#491,.T.);
#523=EDGE_LOOP('',(#516,#517,#519,#521,#522));
#524=FACE_OUTER_BOUND('',#523,.F.);
#525=ADVANCED_FACE('',(#524),#515,.T.);
#526=CARTESIAN_POINT('',(0.E0,0.E0,3.E0));
#527=DIRECTION('',(0.E0,0.E0,-1.E0));
#528=DIRECTION('',(0.E0,1.E0,0.E0));
#529=AXIS2_PLACEMENT_3D('',#526,#527,#528);
#530=PLANE('',#529);
#532=ORIENTED_EDGE('',*,*,#531,.T.);
#534=ORIENTED_EDGE('',*,*,#533,.T.);
#535=ORIENTED_EDGE('',*,*,#518,.T.);
#536=ORIENTED_EDGE('',*,*,#368,.T.);
#537=ORIENTED_EDGE('',*,*,#388,.F.);
#538=ORIENTED_EDGE('',*,*,#403,.F.);
#539=ORIENTED_EDGE('',*,*,#416,.F.);
#540=ORIENTED_EDGE('',*,*,#429,.F.);
#541=ORIENTED_EDGE('',*,*,#444,.F.);
#542=ORIENTED_EDGE('',*,*,#464,.T.);
#543=EDGE_LOOP('',(#532,#534,#535,#536,#537,#538,#539,#540,#541,#542));
#544=FACE_OUTER_BOUND('',#543,.F.);
#545=ADVANCED_FACE('',(#544),#530,.T.);
#546=CARTESIAN_POINT('',(7.575279298625E0,2.074819705710E1,3.9E0));
#547=DIRECTION('',(-7.053843046066E-1,4.932527561613E-2,-7.071067811865E-1));
#548=DIRECTION('',(7.053843046066E-1,-4.932527561613E-2,-7.071067811865E-1));
#549=AXIS2_PLACEMENT_3D('',#546,#547,#548);
#550=PLANE('',#549);
#551=ORIENTED_EDGE('',*,*,#531,.F.);
#552=ORIENTED_EDGE('',*,*,#462,.T.);
#554=ORIENTED_EDGE('',*,*,#553,.T.);
#555=EDGE_LOOP('',(#551,#552,#554));
#556=FACE_OUTER_BOUND('',#555,.F.);
#557=ADVANCED_FACE('',(#556),#550,.T.);
#558=CARTESIAN_POINT('',(0.E0,1.85E1,3.900000000865E0));
#559=DIRECTION('',(0.E0,0.E0,-1.E0));
#560=DIRECTION('',(0.E0,-1.E0,0.E0));
#561=AXIS2_PLACEMENT_3D('',#558,#559,#560);
#562=CONICAL_SURFACE('',#561,7.399999999135E0,4.5E1);
#563=ORIENTED_EDGE('',*,*,#478,.T.);
#564=ORIENTED_EDGE('',*,*,#520,.T.);
#565=ORIENTED_EDGE('',*,*,#533,.F.);
#566=ORIENTED_EDGE('',*,*,#553,.F.);
#567=ORIENTED_EDGE('',*,*,#460,.T.);
#568=EDGE_LOOP('',(#563,#564,#565,#566,#567));
#569=FACE_OUTER_BOUND('',#568,.F.);
#570=ADVANCED_FACE('',(#569),#562,.F.);
#571=CLOSED_SHELL('',(#309,#324,#337,#359,#379,#393,#407,#421,#435,#449,#469,
#483,#497,#510,#525,#545,#557,#570));
#572=MANIFOLD_SOLID_BREP('',#571);
#574=DIMENSIONAL_EXPONENTS(0.E0,0.E0,0.E0,0.E0,0.E0,0.E0,0.E0);
#576=PLANE_ANGLE_MEASURE_WITH_UNIT(PLANE_ANGLE_MEASURE(1.745329251994E-2),#575);
#577=(CONVERSION_BASED_UNIT('DEGREE',#576)NAMED_UNIT(*)PLANE_ANGLE_UNIT());
#579=UNCERTAINTY_MEASURE_WITH_UNIT(LENGTH_MEASURE(8.066916831712E-3),#573,
'closure',
'Maximum model space distance between geometric entities at asserted connectivities');
#580=(GEOMETRIC_REPRESENTATION_CONTEXT(3)GLOBAL_UNCERTAINTY_ASSIGNED_CONTEXT((
#579))GLOBAL_UNIT_ASSIGNED_CONTEXT((#573,#577,#578))REPRESENTATION_CONTEXT
('ID1','3'));
#582=APPLICATION_CONTEXT(
'CONFIGURATION CONTROLLED 3D DESIGNS OF MECHANICAL PARTS AND ASSEMBLIES');
#583=APPLICATION_PROTOCOL_DEFINITION('international standard',
'config_control_design',1994,#582);
#584=DESIGN_CONTEXT('',#582,'design');
#585=MECHANICAL_CONTEXT('',#582,'mechanical');
#586=PRODUCT('CAME','CAME','NOT SPECIFIED',(#585));
#587=PRODUCT_DEFINITION_FORMATION_WITH_SPECIFIED_SOURCE('10','LAST_VERSION',
#586,.MADE.);
#591=PRODUCT_CATEGORY('part','');
#592=PRODUCT_RELATED_PRODUCT_CATEGORY('detail','',(#586));
#593=PRODUCT_CATEGORY_RELATIONSHIP('','',#591,#592);
#594=SECURITY_CLASSIFICATION_LEVEL('unclassified');
#595=SECURITY_CLASSIFICATION('','',#594);
#596=CC_DESIGN_SECURITY_CLASSIFICATION(#595,(#587));
#597=APPROVAL_STATUS('approved');
#598=APPROVAL(#597,'');
#599=CC_DESIGN_APPROVAL(#598,(#595,#587,#588));
#600=CALENDAR_DATE(119,23,10);
#601=COORDINATED_UNIVERSAL_TIME_OFFSET(2,0,.AHEAD.);
#602=LOCAL_TIME(12,57,3.4E1,#601);
#603=DATE_AND_TIME(#600,#602);
#604=APPROVAL_DATE_TIME(#603,#598);
#605=DATE_TIME_ROLE('creation_date');
#606=CC_DESIGN_DATE_AND_TIME_ASSIGNMENT(#603,#605,(#588));
#607=DATE_TIME_ROLE('classification_date');
#608=CC_DESIGN_DATE_AND_TIME_ASSIGNMENT(#603,#607,(#595));
#609=PERSON('UNSPECIFIED','UNSPECIFIED',$,$,$,$);
#610=ORGANIZATION('UNSPECIFIED','UNSPECIFIED','UNSPECIFIED');
#611=PERSON_AND_ORGANIZATION(#609,#610);
#612=APPROVAL_ROLE('approver');
#613=APPROVAL_PERSON_ORGANIZATION(#611,#598,#612);
#614=PERSON_AND_ORGANIZATION_ROLE('creator');
#615=CC_DESIGN_PERSON_AND_ORGANIZATION_ASSIGNMENT(#611,#614,(#587,#588));
#616=PERSON_AND_ORGANIZATION_ROLE('design_supplier');
#617=CC_DESIGN_PERSON_AND_ORGANIZATION_ASSIGNMENT(#611,#616,(#587));
#618=PERSON_AND_ORGANIZATION_ROLE('classification_officer');
#619=CC_DESIGN_PERSON_AND_ORGANIZATION_ASSIGNMENT(#611,#618,(#595));
#620=PERSON_AND_ORGANIZATION_ROLE('design_owner');
#621=CC_DESIGN_PERSON_AND_ORGANIZATION_ASSIGNMENT(#611,#620,(#586));
#6=CIRCLE('',#5,4.E0);
#11=CIRCLE('',#10,4.E0);
#16=CIRCLE('',#15,3.E0);
#25=CIRCLE('',#24,8.5E0);
#34=CIRCLE('',#33,3.E0);
#39=CIRCLE('',#38,2.5E1);
#44=CIRCLE('',#43,5.5E0);
#57=CIRCLE('',#56,4.E0);
#62=CIRCLE('',#61,4.E0);
#67=CIRCLE('',#66,2.5E1);
#72=CIRCLE('',#71,5.E-1);
#81=CIRCLE('',#80,6.5E0);
#86=CIRCLE('',#85,5.5E0);
#95=B_SPLINE_CURVE_WITH_KNOTS('',3,(#91,#92,#93,#94),.UNSPECIFIED.,.F.,.F.,(4,
4),(0.E0,1.E0),.UNSPECIFIED.);
#108=CIRCLE('',#107,3.E0);
#133=CIRCLE('',#132,3.E0);
#138=CIRCLE('',#137,6.5E0);
#163=B_SPLINE_CURVE_WITH_KNOTS('',3,(#155,#156,#157,#158,#159,#160,#161,#162),
.UNSPECIFIED.,.F.,.F.,(4,1,1,1,1,4),(0.E0,2.5E-1,5.E-1,7.5E-1,8.75E-1,1.E0),
.UNSPECIFIED.);
#176=CIRCLE('',#175,8.3E0);
#185=CIRCLE('',#184,2.5E1);
#194=CIRCLE('',#193,8.5E0);
#203=CIRCLE('',#202,5.5E0);
#209=B_SPLINE_CURVE_WITH_KNOTS('',3,(#204,#205,#206,#207,#208),.UNSPECIFIED.,
.F.,.F.,(4,1,4),(0.E0,5.E-1,1.E0),.UNSPECIFIED.);
#220=B_SPLINE_CURVE_WITH_KNOTS('',3,(#214,#215,#216,#217,#218,#219),
.UNSPECIFIED.,.F.,.F.,(4,1,1,4),(0.E0,3.333333333333E-1,6.666666666667E-1,1.E0),
.UNSPECIFIED.);
#287=EDGE_CURVE('',#264,#269,#16,.T.);
#289=EDGE_CURVE('',#264,#235,#20,.T.);
#291=EDGE_CURVE('',#235,#236,#25,.T.);
#293=EDGE_CURVE('',#257,#236,#29,.T.);
#295=EDGE_CURVE('',#256,#257,#34,.T.);
#297=EDGE_CURVE('',#256,#271,#39,.T.);
#299=EDGE_CURVE('',#271,#269,#44,.T.);
#303=EDGE_CURVE('',#223,#224,#6,.T.);
#305=EDGE_CURVE('',#224,#223,#11,.T.);
#316=EDGE_CURVE('',#228,#224,#52,.T.);
#318=EDGE_CURVE('',#227,#228,#57,.T.);
#320=EDGE_CURVE('',#227,#223,#48,.T.);
#332=EDGE_CURVE('',#228,#227,#62,.T.);
#343=EDGE_CURVE('',#249,#275,#67,.T.);
#345=EDGE_CURVE('',#253,#249,#72,.T.);
#347=EDGE_CURVE('',#246,#253,#76,.T.);
#349=EDGE_CURVE('',#277,#246,#81,.T.);
#351=EDGE_CURVE('',#275,#277,#86,.T.);
#366=EDGE_CURVE('',#261,#256,#90,.T.);
#368=EDGE_CURVE('',#240,#261,#185,.T.);
#370=EDGE_CURVE('',#250,#240,#95,.T.);
#372=EDGE_CURVE('',#249,#250,#99,.T.);
#375=EDGE_CURVE('',#271,#275,#103,.T.);
#386=EDGE_CURVE('',#259,#257,#112,.T.);
#388=EDGE_CURVE('',#259,#261,#108,.T.);
#401=EDGE_CURVE('',#236,#232,#116,.T.);
#403=EDGE_CURVE('',#232,#259,#189,.T.);
#414=EDGE_CURVE('',#235,#231,#120,.T.);
#416=EDGE_CURVE('',#231,#232,#194,.T.);
#427=EDGE_CURVE('',#264,#265,#124,.T.);
#429=EDGE_CURVE('',#265,#231,#198,.T.);
#442=EDGE_CURVE('',#269,#273,#128,.T.);
#444=EDGE_CURVE('',#273,#265,#133,.T.);
#458=EDGE_CURVE('',#279,#277,#142,.T.);
#460=EDGE_CURVE('',#281,#279,#220,.T.);
#462=EDGE_CURVE('',#267,#281,#209,.T.);
#464=EDGE_CURVE('',#273,#267,#203,.T.);
#476=EDGE_CURVE('',#245,#246,#154,.T.);
#478=EDGE_CURVE('',#279,#245,#138,.T.);
#489=EDGE_CURVE('',#253,#251,#146,.T.);
#491=EDGE_CURVE('',#245,#251,#150,.T.);
#504=EDGE_CURVE('',#250,#251,#163,.T.);
#518=EDGE_CURVE('',#239,#240,#180,.T.);
#520=EDGE_CURVE('',#245,#239,#167,.T.);
#531=EDGE_CURVE('',#267,#242,#171,.T.);
#533=EDGE_CURVE('',#242,#239,#176,.T.);
#553=EDGE_CURVE('',#281,#242,#213,.T.);
#573=(LENGTH_UNIT()NAMED_UNIT(*)SI_UNIT(.MILLI.,.METRE.));
#575=(NAMED_UNIT(*)PLANE_ANGLE_UNIT()SI_UNIT($,.RADIAN.));
#578=(NAMED_UNIT(*)SI_UNIT($,.STERADIAN.)SOLID_ANGLE_UNIT());
#581=ADVANCED_BREP_SHAPE_REPRESENTATION('',(#572),#580);
#588=PRODUCT_DEFINITION('design','',#587,#584);
#589=PRODUCT_DEFINITION_SHAPE('','SHAPE FOR CAME.',#588);
#590=SHAPE_DEFINITION_REPRESENTATION(#589,#581);
ENDSEC;
END-ISO-10303-21;
