ISO-10303-21;
HEADER;
FILE_DESCRIPTION (( 'STEP AP214' ),
    '1' );
FILE_NAME ('Rouleau operculeuse.STEP',
    '2021-11-03T10:07:02',
    ( '' ),
    ( '' ),
    'SwSTEP 2.0',
    'SolidWorks 2014',
    '' );
FILE_SCHEMA (( 'AUTOMOTIVE_DESIGN' ));
ENDSEC;

DATA;
#1 = APPLICATION_PROTOCOL_DEFINITION ( 'draft international standard', 'automotive_design', 1998, #39 ) ;
#2 = VECTOR ( 'NONE', #16, 1000.000000000000000 ) ;
#3 = DIRECTION ( 'NONE',  ( 1.000000000000000000, 0.0000000000000000000, -0.0000000000000000000 ) ) ;
#4 = PRODUCT_DEFINITION_FORMATION_WITH_SPECIFIED_SOURCE ( 'ANY', '', #288, .NOT_KNOWN. ) ;
#5 = CARTESIAN_POINT ( 'NONE',  ( 15.00000000000000200, 1.836970198721030000E-015, 310.0000000000000000 ) ) ;
#6 = CIRCLE ( 'NONE', #336, 15.00000000000000200 ) ;
#7 = CARTESIAN_POINT ( 'NONE',  ( -15.00000000000000200, 0.0000000000000000000, 0.0000000000000000000 ) ) ;
#8 = VERTEX_POINT ( 'NONE', #5 ) ;
#9 =( GEOMETRIC_REPRESENTATION_CONTEXT ( 3 ) GLOBAL_UNCERTAINTY_ASSIGNED_CONTEXT ( ( #15 ) ) GLOBAL_UNIT_ASSIGNED_CONTEXT ( ( #152, #184, #265 ) ) REPRESENTATION_CONTEXT ( 'NONE', 'WORKASPACE' ) );
#10 = ORIENTED_EDGE ( 'NONE', *, *, #186, .F. ) ;
#11 = FACE_BOUND ( 'NONE', #176, .T. ) ;
#12 = ORIENTED_EDGE ( 'NONE', *, *, #246, .F. ) ;
#13 = VERTEX_POINT ( 'NONE', #269 ) ;
#14 = EDGE_CURVE ( 'NONE', #20, #143, #205, .T. ) ;
#15 = UNCERTAINTY_MEASURE_WITH_UNIT (LENGTH_MEASURE( 1.000000000000000100E-005 ), #152, 'distance_accuracy_value', 'NONE');
#16 = DIRECTION ( 'NONE',  ( -0.0000000000000000000, -0.0000000000000000000, 1.000000000000000000 ) ) ;
#17 = VECTOR ( 'NONE', #196, 1000.000000000000000 ) ;
#18 = DIRECTION ( 'NONE',  ( -0.0000000000000000000, -0.0000000000000000000, -1.000000000000000000 ) ) ;
#19 = AXIS2_PLACEMENT_3D ( 'NONE', #337, #84, #118 ) ;
#20 = VERTEX_POINT ( 'NONE', #96 ) ;
#21 = DIRECTION ( 'NONE',  ( 1.000000000000000000, 0.0000000000000000000, 0.0000000000000000000 ) ) ;
#22 = ADVANCED_FACE ( 'NONE', ( #350 ), #132, .T. ) ;
#23 = CARTESIAN_POINT ( 'NONE',  ( -10.00000000000000000, 0.0000000000000000000, 298.0000000000000000 ) ) ;
#24 = SURFACE_STYLE_FILL_AREA ( #187 ) ;
#25 = FACE_OUTER_BOUND ( 'NONE', #277, .T. ) ;
#26 = PLANE ( 'NONE',  #361 ) ;
#27 = ADVANCED_FACE ( 'NONE', ( #110, #275 ), #94, .T. ) ;
#28 = UNCERTAINTY_MEASURE_WITH_UNIT (LENGTH_MEASURE( 1.000000000000000100E-005 ), #203, 'distance_accuracy_value', 'NONE');
#29 = ORIENTED_EDGE ( 'NONE', *, *, #123, .F. ) ;
#30 = AXIS2_PLACEMENT_3D ( 'NONE', #142, #199, #371 ) ;
#31 = CARTESIAN_POINT ( 'NONE',  ( -11.00000000000000000, 1.347111479062088400E-015, 310.0000000000000000 ) ) ;
#32 = ORIENTED_EDGE ( 'NONE', *, *, #296, .T. ) ;
#33 = DIRECTION ( 'NONE',  ( -1.000000000000000000, 0.0000000000000000000, 0.0000000000000000000 ) ) ;
#34 = DIRECTION ( 'NONE',  ( 1.000000000000000000, 0.0000000000000000000, 0.0000000000000000000 ) ) ;
#35 = FILL_AREA_STYLE ('',( #149 ) ) ;
#36 = EDGE_LOOP ( 'NONE', ( #150, #328 ) ) ;
#37 = DIRECTION ( 'NONE',  ( -0.0000000000000000000, -0.0000000000000000000, -1.000000000000000000 ) ) ;
#38 = AXIS2_PLACEMENT_3D ( 'NONE', #311, #171, #111 ) ;
#39 = APPLICATION_CONTEXT ( 'automotive_design' ) ;
#40 = ORIENTED_EDGE ( 'NONE', *, *, #266, .T. ) ;
#41 = PRODUCT_DEFINITION_CONTEXT ( 'detailed design', #177, 'design' ) ;
#42 = ORIENTED_EDGE ( 'NONE', *, *, #191, .F. ) ;
#43 = PRODUCT_DEFINITION_SHAPE ( 'NONE', 'NONE',  #71 ) ;
#44 = ORIENTED_EDGE ( 'NONE', *, *, #86, .F. ) ;
#45 = DIRECTION ( 'NONE',  ( 1.000000000000000000, 0.0000000000000000000, 0.0000000000000000000 ) ) ;
#46 = FACE_OUTER_BOUND ( 'NONE', #164, .T. ) ;
#47 = ORIENTED_EDGE ( 'NONE', *, *, #136, .T. ) ;
#48 = DIRECTION ( 'NONE',  ( -1.000000000000000000, 0.0000000000000000000, 0.0000000000000000000 ) ) ;
#49 = STYLED_ITEM ( 'NONE', ( #365 ), #60 ) ;
#50 = ORIENTED_EDGE ( 'NONE', *, *, #340, .F. ) ;
#51 = CARTESIAN_POINT ( 'NONE',  ( -15.00000000000000200, 0.0000000000000000000, 310.0000000000000000 ) ) ;
#52 = CARTESIAN_POINT ( 'NONE',  ( 0.0000000000000000000, 0.0000000000000000000, 7.000000000000000000 ) ) ;
#53 = CARTESIAN_POINT ( 'NONE',  ( -10.00000000000000000, 0.0000000000000000000, 310.0000000000000000 ) ) ;
#54 = ADVANCED_FACE ( 'NONE', ( #198 ), #122, .F. ) ;
#55 = CARTESIAN_POINT ( 'NONE',  ( 0.0000000000000000000, 0.0000000000000000000, 298.0000000000000000 ) ) ;
#56 = ADVANCED_FACE ( 'NONE', ( #46 ), #100, .F. ) ;
#57 = DIRECTION ( 'NONE',  ( 0.0000000000000000000, 0.0000000000000000000, 1.000000000000000000 ) ) ;
#58 = CARTESIAN_POINT ( 'NONE',  ( -13.00000000000000200, 0.0000000000000000000, 0.0000000000000000000 ) ) ;
#59 = ORIENTED_EDGE ( 'NONE', *, *, #104, .T. ) ;
#60 = MANIFOLD_SOLID_BREP ( 'Enlèv. mat.-Extru.2', #271 ) ;
#61 = AXIS2_PLACEMENT_3D ( 'NONE', #114, #181, #179 ) ;
#62 = ORIENTED_EDGE ( 'NONE', *, *, #324, .T. ) ;
#63 = CARTESIAN_POINT ( 'NONE',  ( 0.0000000000000000000, 0.0000000000000000000, 0.0000000000000000000 ) ) ;
#64 = VERTEX_POINT ( 'NONE', #7 ) ;
#65 = FACE_OUTER_BOUND ( 'NONE', #312, .T. ) ;
#66 = DIRECTION ( 'NONE',  ( 0.0000000000000000000, 0.0000000000000000000, -1.000000000000000000 ) ) ;
#67 = CARTESIAN_POINT ( 'NONE',  ( 0.0000000000000000000, 0.0000000000000000000, 298.0000000000000000 ) ) ;
#68 = LINE ( 'NONE', #135, #173 ) ;
#69 = AXIS2_PLACEMENT_3D ( 'NONE', #286, #175, #373 ) ;
#70 = ORIENTED_EDGE ( 'NONE', *, *, #262, .F. ) ;
#71 = PRODUCT_DEFINITION ( 'UNKNOWN', '', #4, #41 ) ;
#72 = ORIENTED_EDGE ( 'NONE', *, *, #248, .T. ) ;
#73 = FACE_BOUND ( 'NONE', #98, .T. ) ;
#74 = ORIENTED_EDGE ( 'NONE', *, *, #227, .T. ) ;
#75 = DIRECTION ( 'NONE',  ( -1.000000000000000000, 0.0000000000000000000, 0.0000000000000000000 ) ) ;
#76 = ORIENTED_EDGE ( 'NONE', *, *, #14, .F. ) ;
#77 = EDGE_CURVE ( 'NONE', #342, #291, #244, .T. ) ;
#78 = DIRECTION ( 'NONE',  ( 0.0000000000000000000, 0.0000000000000000000, -1.000000000000000000 ) ) ;
#79 = ORIENTED_EDGE ( 'NONE', *, *, #99, .F. ) ;
#80 = SURFACE_STYLE_FILL_AREA ( #35 ) ;
#81 = DIRECTION ( 'NONE',  ( 1.000000000000000000, 0.0000000000000000000, 0.0000000000000000000 ) ) ;
#82 = EDGE_LOOP ( 'NONE', ( #32, #62 ) ) ;
#83 = PRODUCT_RELATED_PRODUCT_CATEGORY ( 'part', '', ( #288 ) ) ;
#84 = DIRECTION ( 'NONE',  ( -0.0000000000000000000, 0.0000000000000000000, 1.000000000000000000 ) ) ;
#85 = CYLINDRICAL_SURFACE ( 'NONE', #298, 10.00000000000000000 ) ;
#86 = EDGE_CURVE ( 'NONE', #291, #13, #325, .T. ) ;
#87 = SURFACE_SIDE_STYLE ('',( #80 ) ) ;
#88 = ORIENTED_EDGE ( 'NONE', *, *, #340, .T. ) ;
#89 = ORIENTED_EDGE ( 'NONE', *, *, #156, .F. ) ;
#90 =( NAMED_UNIT ( * ) PLANE_ANGLE_UNIT ( ) SI_UNIT ( $, .RADIAN. ) );
#91 = ORIENTED_EDGE ( 'NONE', *, *, #136, .F. ) ;
#92 = ORIENTED_EDGE ( 'NONE', *, *, #310, .F. ) ;
#93 = ORIENTED_EDGE ( 'NONE', *, *, #227, .F. ) ;
#94 = PLANE ( 'NONE',  #240 ) ;
#95 = VECTOR ( 'NONE', #200, 1000.000000000000000 ) ;
#96 = CARTESIAN_POINT ( 'NONE',  ( -10.00000000000000000, 0.0000000000000000000, 7.000000000000000000 ) ) ;
#97 = MECHANICAL_DESIGN_GEOMETRIC_PRESENTATION_REPRESENTATION (  '', ( #185 ), #131 ) ;
#98 = EDGE_LOOP ( 'NONE', ( #44, #91 ) ) ;
#99 = EDGE_CURVE ( 'NONE', #267, #342, #264, .T. ) ;
#100 = CYLINDRICAL_SURFACE ( 'NONE', #217, 13.00000000000000200 ) ;
#101 = ORIENTED_EDGE ( 'NONE', *, *, #324, .F. ) ;
#102 = AXIS2_PLACEMENT_3D ( 'NONE', #247, #292, #183 ) ;
#103 = VECTOR ( 'NONE', #208, 1000.000000000000000 ) ;
#104 = EDGE_CURVE ( 'NONE', #126, #282, #167, .T. ) ;
#105 = CARTESIAN_POINT ( 'NONE',  ( 0.0000000000000000000, 0.0000000000000000000, 310.0000000000000000 ) ) ;
#106 = ORIENTED_EDGE ( 'NONE', *, *, #296, .F. ) ;
#107 = CARTESIAN_POINT ( 'NONE',  ( 11.00000000000000000, 0.0000000000000000000, 298.0000000000000000 ) ) ;
#108 = ADVANCED_FACE ( 'NONE', ( #115 ), #345, .T. ) ;
#109 = DIRECTION ( 'NONE',  ( 1.000000000000000000, 0.0000000000000000000, 0.0000000000000000000 ) ) ;
#110 = FACE_BOUND ( 'NONE', #319, .T. ) ;
#111 = DIRECTION ( 'NONE',  ( 1.000000000000000000, 0.0000000000000000000, 0.0000000000000000000 ) ) ;
#112 = ORIENTED_EDGE ( 'NONE', *, *, #212, .T. ) ;
#113 = AXIS2_PLACEMENT_3D ( 'NONE', #121, #37, #317 ) ;
#114 = CARTESIAN_POINT ( 'NONE',  ( 0.0000000000000000000, 0.0000000000000000000, 298.0000000000000000 ) ) ;
#115 = FACE_OUTER_BOUND ( 'NONE', #157, .T. ) ;
#116 = CIRCLE ( 'NONE', #189, 15.00000000000000200 ) ;
#117 = PLANE ( 'NONE',  #304 ) ;
#118 = DIRECTION ( 'NONE',  ( 1.000000000000000000, 0.0000000000000000000, 0.0000000000000000000 ) ) ;
#119 = AXIS2_PLACEMENT_3D ( 'NONE', #55, #169, #81 ) ;
#120 =( LENGTH_UNIT ( ) NAMED_UNIT ( * ) SI_UNIT ( .MILLI., .METRE. ) );
#121 = CARTESIAN_POINT ( 'NONE',  ( 0.0000000000000000000, 0.0000000000000000000, 310.0000000000000000 ) ) ;
#122 = CYLINDRICAL_SURFACE ( 'NONE', #320, 11.00000000000000000 ) ;
#123 = EDGE_CURVE ( 'NONE', #170, #64, #280, .T. ) ;
#124 = COLOUR_RGB ( '',0.7921568627450980000, 0.8196078431372548800, 0.9333333333333333500 ) ;
#125 = MECHANICAL_DESIGN_GEOMETRIC_PRESENTATION_REPRESENTATION (  '', ( #49 ), #9 ) ;
#126 = VERTEX_POINT ( 'NONE', #107 ) ;
#127 = SURFACE_SIDE_STYLE ('',( #24 ) ) ;
#128 = DIRECTION ( 'NONE',  ( -1.000000000000000000, 0.0000000000000000000, -0.0000000000000000000 ) ) ;
#129 = COLOUR_RGB ( '',0.7921568627450980000, 0.8196078431372548800, 0.9333333333333333500 ) ;
#130 = EDGE_LOOP ( 'NONE', ( #93, #305, #59, #211 ) ) ;
#131 =( GEOMETRIC_REPRESENTATION_CONTEXT ( 3 ) GLOBAL_UNCERTAINTY_ASSIGNED_CONTEXT ( ( #28 ) ) GLOBAL_UNIT_ASSIGNED_CONTEXT ( ( #203, #90, #343 ) ) REPRESENTATION_CONTEXT ( 'NONE', 'WORKASPACE' ) );
#132 = CYLINDRICAL_SURFACE ( 'NONE', #273, 15.00000000000000200 ) ;
#133 = ORIENTED_EDGE ( 'NONE', *, *, #163, .F. ) ;
#134 = AXIS2_PLACEMENT_3D ( 'NONE', #351, #210, #48 ) ;
#135 = CARTESIAN_POINT ( 'NONE',  ( -11.00000000000000000, 1.347111479062088400E-015, 298.0000000000000000 ) ) ;
#136 = EDGE_CURVE ( 'NONE', #13, #291, #258, .T. ) ;
#137 = DIRECTION ( 'NONE',  ( 1.000000000000000000, 0.0000000000000000000, 0.0000000000000000000 ) ) ;
#138 = EDGE_LOOP ( 'NONE', ( #10, #70, #155, #243 ) ) ;
#139 = ADVANCED_FACE ( 'NONE', ( #65 ), #85, .F. ) ;
#140 = DIRECTION ( 'NONE',  ( -0.0000000000000000000, -0.0000000000000000000, -1.000000000000000000 ) ) ;
#141 = LINE ( 'NONE', #278, #95 ) ;
#142 = CARTESIAN_POINT ( 'NONE',  ( 0.0000000000000000000, 0.0000000000000000000, 310.0000000000000000 ) ) ;
#143 = VERTEX_POINT ( 'NONE', #327 ) ;
#144 = PLANE ( 'NONE',  #19 ) ;
#145 = VECTOR ( 'NONE', #140, 1000.000000000000000 ) ;
#146 = ORIENTED_EDGE ( 'NONE', *, *, #163, .T. ) ;
#147 = CIRCLE ( 'NONE', #119, 10.00000000000000000 ) ;
#148 = PRESENTATION_LAYER_ASSIGNMENT (  '', '', ( #185 ) ) ;
#149 = FILL_AREA_STYLE_COLOUR ( '', #124 ) ;
#150 = ORIENTED_EDGE ( 'NONE', *, *, #346, .T. ) ;
#151 = DIRECTION ( 'NONE',  ( -0.0000000000000000000, -0.0000000000000000000, -1.000000000000000000 ) ) ;
#152 =( LENGTH_UNIT ( ) NAMED_UNIT ( * ) SI_UNIT ( .MILLI., .METRE. ) );
#153 = CIRCLE ( 'NONE', #209, 10.00000000000000000 ) ;
#154 = SURFACE_STYLE_USAGE ( .BOTH. , #127 ) ;
#155 = ORIENTED_EDGE ( 'NONE', *, *, #77, .T. ) ;
#156 = EDGE_CURVE ( 'NONE', #263, #282, #372, .T. ) ;
#157 = EDGE_LOOP ( 'NONE', ( #101, #182, #112, #29 ) ) ;
#158 = ORIENTED_EDGE ( 'NONE', *, *, #123, .T. ) ;
#159 = ORIENTED_EDGE ( 'NONE', *, *, #248, .F. ) ;
#160 = DIRECTION ( 'NONE',  ( -0.0000000000000000000, -0.0000000000000000000, -1.000000000000000000 ) ) ;
#161 = AXIS2_PLACEMENT_3D ( 'NONE', #52, #195, #254 ) ;
#162 = DIRECTION ( 'NONE',  ( -1.000000000000000000, 0.0000000000000000000, 0.0000000000000000000 ) ) ;
#163 = EDGE_CURVE ( 'NONE', #143, #20, #153, .T. ) ;
#164 = EDGE_LOOP ( 'NONE', ( #79, #236, #47, #362 ) ) ;
#165 = DIRECTION ( 'NONE',  ( 0.0000000000000000000, -0.0000000000000000000, -1.000000000000000000 ) ) ;
#166 = DIRECTION ( 'NONE',  ( -0.0000000000000000000, -0.0000000000000000000, 1.000000000000000000 ) ) ;
#167 = LINE ( 'NONE', #221, #2 ) ;
#168 = CIRCLE ( 'NONE', #61, 11.00000000000000000 ) ;
#169 = DIRECTION ( 'NONE',  ( 0.0000000000000000000, -0.0000000000000000000, -1.000000000000000000 ) ) ;
#170 = VERTEX_POINT ( 'NONE', #249 ) ;
#171 = DIRECTION ( 'NONE',  ( -0.0000000000000000000, 0.0000000000000000000, 1.000000000000000000 ) ) ;
#172 = DIRECTION ( 'NONE',  ( -1.000000000000000000, 0.0000000000000000000, 0.0000000000000000000 ) ) ;
#173 = VECTOR ( 'NONE', #166, 1000.000000000000000 ) ;
#174 = CARTESIAN_POINT ( 'NONE',  ( 0.0000000000000000000, 0.0000000000000000000, 310.0000000000000000 ) ) ;
#175 = DIRECTION ( 'NONE',  ( 0.0000000000000000000, 0.0000000000000000000, 1.000000000000000000 ) ) ;
#176 = EDGE_LOOP ( 'NONE', ( #214, #89 ) ) ;
#177 = APPLICATION_CONTEXT ( 'automotive_design' ) ;
#178 = ORIENTED_EDGE ( 'NONE', *, *, #191, .T. ) ;
#179 = DIRECTION ( 'NONE',  ( 1.000000000000000000, 0.0000000000000000000, 0.0000000000000000000 ) ) ;
#180 = FACE_BOUND ( 'NONE', #238, .T. ) ;
#181 = DIRECTION ( 'NONE',  ( -0.0000000000000000000, 0.0000000000000000000, 1.000000000000000000 ) ) ;
#182 = ORIENTED_EDGE ( 'NONE', *, *, #246, .T. ) ;
#183 = DIRECTION ( 'NONE',  ( -1.000000000000000000, 0.0000000000000000000, 0.0000000000000000000 ) ) ;
#184 =( NAMED_UNIT ( * ) PLANE_ANGLE_UNIT ( ) SI_UNIT ( $, .RADIAN. ) );
#185 = STYLED_ITEM ( 'NONE', ( #245 ), #230 ) ;
#186 = EDGE_CURVE ( 'NONE', #267, #13, #301, .T. ) ;
#187 = FILL_AREA_STYLE ('',( #293 ) ) ;
#188 = ORIENTED_EDGE ( 'NONE', *, *, #262, .T. ) ;
#189 = AXIS2_PLACEMENT_3D ( 'NONE', #174, #57, #34 ) ;
#190 = VECTOR ( 'NONE', #160, 1000.000000000000000 ) ;
#191 = EDGE_CURVE ( 'NONE', #64, #357, #6, .T. ) ;
#192 = CARTESIAN_POINT ( 'NONE',  ( 0.0000000000000000000, 0.0000000000000000000, 310.0000000000000000 ) ) ;
#193 = DIRECTION ( 'NONE',  ( -0.0000000000000000000, -0.0000000000000000000, -1.000000000000000000 ) ) ;
#194 = EDGE_CURVE ( 'NONE', #232, #215, #294, .T. ) ;
#195 = DIRECTION ( 'NONE',  ( 0.0000000000000000000, 0.0000000000000000000, -1.000000000000000000 ) ) ;
#196 = DIRECTION ( 'NONE',  ( -0.0000000000000000000, -0.0000000000000000000, -1.000000000000000000 ) ) ;
#197 = CARTESIAN_POINT ( 'NONE',  ( 0.0000000000000000000, 0.0000000000000000000, 310.0000000000000000 ) ) ;
#198 = FACE_OUTER_BOUND ( 'NONE', #323, .T. ) ;
#199 = DIRECTION ( 'NONE',  ( -0.0000000000000000000, 0.0000000000000000000, 1.000000000000000000 ) ) ;
#200 = DIRECTION ( 'NONE',  ( -0.0000000000000000000, -0.0000000000000000000, -1.000000000000000000 ) ) ;
#201 = APPLICATION_PROTOCOL_DEFINITION ( 'draft international standard', 'automotive_design', 1998, #177 ) ;
#202 = EDGE_LOOP ( 'NONE', ( #188, #368 ) ) ;
#203 =( LENGTH_UNIT ( ) NAMED_UNIT ( * ) SI_UNIT ( .MILLI., .METRE. ) );
#204 =( GEOMETRIC_REPRESENTATION_CONTEXT ( 3 ) GLOBAL_UNCERTAINTY_ASSIGNED_CONTEXT ( ( #329 ) ) GLOBAL_UNIT_ASSIGNED_CONTEXT ( ( #120, #235, #233 ) ) REPRESENTATION_CONTEXT ( 'NONE', 'WORKASPACE' ) );
#205 = CIRCLE ( 'NONE', #102, 10.00000000000000000 ) ;
#206 = SURFACE_STYLE_USAGE ( .BOTH. , #87 ) ;
#207 = FACE_OUTER_BOUND ( 'NONE', #36, .T. ) ;
#208 = DIRECTION ( 'NONE',  ( -0.0000000000000000000, -0.0000000000000000000, -1.000000000000000000 ) ) ;
#209 = AXIS2_PLACEMENT_3D ( 'NONE', #276, #78, #75 ) ;
#210 = DIRECTION ( 'NONE',  ( 0.0000000000000000000, 0.0000000000000000000, -1.000000000000000000 ) ) ;
#211 = ORIENTED_EDGE ( 'NONE', *, *, #316, .T. ) ;
#212 = EDGE_CURVE ( 'NONE', #357, #64, #219, .T. ) ;
#213 = CYLINDRICAL_SURFACE ( 'NONE', #260, 11.00000000000000000 ) ;
#214 = ORIENTED_EDGE ( 'NONE', *, *, #316, .F. ) ;
#215 = VERTEX_POINT ( 'NONE', #300 ) ;
#216 = CARTESIAN_POINT ( 'NONE',  ( 0.0000000000000000000, 0.0000000000000000000, 0.0000000000000000000 ) ) ;
#217 = AXIS2_PLACEMENT_3D ( 'NONE', #290, #321, #239 ) ;
#218 = CARTESIAN_POINT ( 'NONE',  ( 0.0000000000000000000, 0.0000000000000000000, 310.0000000000000000 ) ) ;
#219 = CIRCLE ( 'NONE', #370, 15.00000000000000200 ) ;
#220 = CARTESIAN_POINT ( 'NONE',  ( 0.0000000000000000000, 0.0000000000000000000, 0.0000000000000000000 ) ) ;
#221 = CARTESIAN_POINT ( 'NONE',  ( 11.00000000000000000, 0.0000000000000000000, 298.0000000000000000 ) ) ;
#222 = CARTESIAN_POINT ( 'NONE',  ( 15.00000000000000200, 1.836970198721030000E-015, 0.0000000000000000000 ) ) ;
#223 = FACE_OUTER_BOUND ( 'NONE', #82, .T. ) ;
#224 = AXIS2_PLACEMENT_3D ( 'NONE', #228, #367, #33 ) ;
#225 = DIRECTION ( 'NONE',  ( 0.0000000000000000000, 0.0000000000000000000, 1.000000000000000000 ) ) ;
#226 = CARTESIAN_POINT ( 'NONE',  ( -11.00000000000000000, 1.347111479062088400E-015, 298.0000000000000000 ) ) ;
#227 = EDGE_CURVE ( 'NONE', #338, #263, #68, .T. ) ;
#228 = CARTESIAN_POINT ( 'NONE',  ( 0.0000000000000000000, 0.0000000000000000000, 7.000000000000000000 ) ) ;
#229 = LINE ( 'NONE', #333, #17 ) ;
#230 = ADVANCED_BREP_SHAPE_REPRESENTATION ( 'Rouleau operculeuse', ( #60, #69 ), #204 ) ;
#231 = AXIS2_PLACEMENT_3D ( 'NONE', #218, #358, #303 ) ;
#232 = VERTEX_POINT ( 'NONE', #23 ) ;
#233 =( NAMED_UNIT ( * ) SI_UNIT ( $, .STERADIAN. ) SOLID_ANGLE_UNIT ( ) );
#234 = FACE_OUTER_BOUND ( 'NONE', #252, .T. ) ;
#235 =( NAMED_UNIT ( * ) PLANE_ANGLE_UNIT ( ) SI_UNIT ( $, .RADIAN. ) );
#236 = ORIENTED_EDGE ( 'NONE', *, *, #186, .T. ) ;
#237 = CARTESIAN_POINT ( 'NONE',  ( 0.0000000000000000000, 0.0000000000000000000, 7.000000000000000000 ) ) ;
#238 = EDGE_LOOP ( 'NONE', ( #353, #88 ) ) ;
#239 = DIRECTION ( 'NONE',  ( -1.000000000000000000, 0.0000000000000000000, 0.0000000000000000000 ) ) ;
#240 = AXIS2_PLACEMENT_3D ( 'NONE', #237, #66, #128 ) ;
#241 = VECTOR ( 'NONE', #193, 1000.000000000000000 ) ;
#242 = DIRECTION ( 'NONE',  ( -1.000000000000000000, 0.0000000000000000000, 0.0000000000000000000 ) ) ;
#243 = ORIENTED_EDGE ( 'NONE', *, *, #86, .T. ) ;
#244 = LINE ( 'NONE', #268, #103 ) ;
#245 = PRESENTATION_STYLE_ASSIGNMENT (( #206 ) ) ;
#246 = EDGE_CURVE ( 'NONE', #8, #357, #229, .T. ) ;
#247 = CARTESIAN_POINT ( 'NONE',  ( 0.0000000000000000000, 0.0000000000000000000, 7.000000000000000000 ) ) ;
#248 = EDGE_CURVE ( 'NONE', #232, #20, #314, .T. ) ;
#249 = CARTESIAN_POINT ( 'NONE',  ( -15.00000000000000200, 0.0000000000000000000, 310.0000000000000000 ) ) ;
#250 = PRESENTATION_LAYER_ASSIGNMENT (  '', '', ( #49 ) ) ;
#251 = DIRECTION ( 'NONE',  ( -1.000000000000000000, 0.0000000000000000000, 0.0000000000000000000 ) ) ;
#252 = EDGE_LOOP ( 'NONE', ( #50, #40, #146, #159 ) ) ;
#253 = ADVANCED_FACE ( 'NONE', ( #366 ), #347, .F. ) ;
#254 = DIRECTION ( 'NONE',  ( -1.000000000000000000, 0.0000000000000000000, 0.0000000000000000000 ) ) ;
#255 = ADVANCED_FACE ( 'NONE', ( #259 ), #213, .F. ) ;
#256 = ORIENTED_EDGE ( 'NONE', *, *, #104, .F. ) ;
#257 = DIRECTION ( 'NONE',  ( -0.0000000000000000000, -0.0000000000000000000, -1.000000000000000000 ) ) ;
#258 = CIRCLE ( 'NONE', #349, 13.00000000000000200 ) ;
#259 = FACE_OUTER_BOUND ( 'NONE', #130, .T. ) ;
#260 = AXIS2_PLACEMENT_3D ( 'NONE', #339, #284, #309 ) ;
#261 = DIRECTION ( 'NONE',  ( 1.000000000000000000, 0.0000000000000000000, 0.0000000000000000000 ) ) ;
#262 = EDGE_CURVE ( 'NONE', #342, #267, #297, .T. ) ;
#263 = VERTEX_POINT ( 'NONE', #31 ) ;
#264 = CIRCLE ( 'NONE', #161, 13.00000000000000200 ) ;
#265 =( NAMED_UNIT ( * ) SI_UNIT ( $, .STERADIAN. ) SOLID_ANGLE_UNIT ( ) );
#266 = EDGE_CURVE ( 'NONE', #215, #143, #141, .T. ) ;
#267 = VERTEX_POINT ( 'NONE', #335 ) ;
#268 = CARTESIAN_POINT ( 'NONE',  ( -13.00000000000000200, 0.0000000000000000000, 7.000000000000000000 ) ) ;
#269 = CARTESIAN_POINT ( 'NONE',  ( 13.00000000000000200, 1.592040838891559300E-015, 0.0000000000000000000 ) ) ;
#270 = AXIS2_PLACEMENT_3D ( 'NONE', #105, #326, #272 ) ;
#271 = CLOSED_SHELL ( 'NONE', ( #54, #56, #108, #369, #139, #334, #363, #22, #253, #27, #255, #332 ) ) ;
#272 = DIRECTION ( 'NONE',  ( -1.000000000000000000, 0.0000000000000000000, 0.0000000000000000000 ) ) ;
#273 = AXIS2_PLACEMENT_3D ( 'NONE', #295, #151, #242 ) ;
#274 = DIRECTION ( 'NONE',  ( 0.0000000000000000000, 0.0000000000000000000, -1.000000000000000000 ) ) ;
#275 = FACE_OUTER_BOUND ( 'NONE', #202, .T. ) ;
#276 = CARTESIAN_POINT ( 'NONE',  ( 0.0000000000000000000, 0.0000000000000000000, 7.000000000000000000 ) ) ;
#277 = EDGE_LOOP ( 'NONE', ( #42, #283 ) ) ;
#278 = CARTESIAN_POINT ( 'NONE',  ( 10.00000000000000000, 1.224646799147353300E-015, 310.0000000000000000 ) ) ;
#279 = DIRECTION ( 'NONE',  ( 1.000000000000000000, 0.0000000000000000000, -0.0000000000000000000 ) ) ;
#280 = LINE ( 'NONE', #51, #190 ) ;
#281 = CIRCLE ( 'NONE', #355, 15.00000000000000200 ) ;
#282 = VERTEX_POINT ( 'NONE', #364 ) ;
#283 = ORIENTED_EDGE ( 'NONE', *, *, #212, .F. ) ;
#284 = DIRECTION ( 'NONE',  ( -0.0000000000000000000, -0.0000000000000000000, 1.000000000000000000 ) ) ;
#285 = AXIS2_PLACEMENT_3D ( 'NONE', #331, #165, #21 ) ;
#286 = CARTESIAN_POINT ( 'NONE',  ( 0.0000000000000000000, 0.0000000000000000000, 0.0000000000000000000 ) ) ;
#287 = ORIENTED_EDGE ( 'NONE', *, *, #194, .F. ) ;
#288 = PRODUCT ( 'Rouleau operculeuse', 'Rouleau operculeuse', '', ( #318 ) ) ;
#289 = CIRCLE ( 'NONE', #38, 11.00000000000000000 ) ;
#290 = CARTESIAN_POINT ( 'NONE',  ( 0.0000000000000000000, 0.0000000000000000000, 7.000000000000000000 ) ) ;
#291 = VERTEX_POINT ( 'NONE', #58 ) ;
#292 = DIRECTION ( 'NONE',  ( 0.0000000000000000000, 0.0000000000000000000, -1.000000000000000000 ) ) ;
#293 = FILL_AREA_STYLE_COLOUR ( '', #129 ) ;
#294 = CIRCLE ( 'NONE', #285, 10.00000000000000000 ) ;
#295 = CARTESIAN_POINT ( 'NONE',  ( 0.0000000000000000000, 0.0000000000000000000, 310.0000000000000000 ) ) ;
#296 = EDGE_CURVE ( 'NONE', #170, #8, #281, .T. ) ;
#297 = CIRCLE ( 'NONE', #224, 13.00000000000000200 ) ;
#298 = AXIS2_PLACEMENT_3D ( 'NONE', #192, #18, #251 ) ;
#299 = EDGE_LOOP ( 'NONE', ( #12, #106, #158, #178 ) ) ;
#300 = CARTESIAN_POINT ( 'NONE',  ( 10.00000000000000000, 1.224646799147353300E-015, 298.0000000000000000 ) ) ;
#301 = LINE ( 'NONE', #359, #241 ) ;
#302 = CYLINDRICAL_SURFACE ( 'NONE', #113, 10.00000000000000000 ) ;
#303 = DIRECTION ( 'NONE',  ( 1.000000000000000000, 0.0000000000000000000, 0.0000000000000000000 ) ) ;
#304 = AXIS2_PLACEMENT_3D ( 'NONE', #341, #313, #279 ) ;
#305 = ORIENTED_EDGE ( 'NONE', *, *, #346, .F. ) ;
#306 = DIRECTION ( 'NONE',  ( 0.0000000000000000000, 0.0000000000000000000, 1.000000000000000000 ) ) ;
#307 = CARTESIAN_POINT ( 'NONE',  ( -13.00000000000000200, 0.0000000000000000000, 7.000000000000000000 ) ) ;
#308 = SHAPE_DEFINITION_REPRESENTATION ( #43, #230 ) ;
#309 = DIRECTION ( 'NONE',  ( 1.000000000000000000, 0.0000000000000000000, 0.0000000000000000000 ) ) ;
#310 = EDGE_CURVE ( 'NONE', #338, #126, #289, .T. ) ;
#311 = CARTESIAN_POINT ( 'NONE',  ( 0.0000000000000000000, 0.0000000000000000000, 298.0000000000000000 ) ) ;
#312 = EDGE_LOOP ( 'NONE', ( #374, #287, #72, #322 ) ) ;
#313 = DIRECTION ( 'NONE',  ( 0.0000000000000000000, 0.0000000000000000000, 1.000000000000000000 ) ) ;
#314 = LINE ( 'NONE', #53, #145 ) ;
#315 = AXIS2_PLACEMENT_3D ( 'NONE', #356, #257, #172 ) ;
#316 = EDGE_CURVE ( 'NONE', #282, #263, #354, .T. ) ;
#317 = DIRECTION ( 'NONE',  ( -1.000000000000000000, 0.0000000000000000000, 0.0000000000000000000 ) ) ;
#318 = PRODUCT_CONTEXT ( 'NONE', #39, 'mechanical' ) ;
#319 = EDGE_LOOP ( 'NONE', ( #76, #133 ) ) ;
#320 = AXIS2_PLACEMENT_3D ( 'NONE', #67, #348, #45 ) ;
#321 = DIRECTION ( 'NONE',  ( -0.0000000000000000000, -0.0000000000000000000, -1.000000000000000000 ) ) ;
#322 = ORIENTED_EDGE ( 'NONE', *, *, #14, .T. ) ;
#323 = EDGE_LOOP ( 'NONE', ( #92, #74, #352, #256 ) ) ;
#324 = EDGE_CURVE ( 'NONE', #8, #170, #116, .T. ) ;
#325 = CIRCLE ( 'NONE', #134, 13.00000000000000200 ) ;
#326 = DIRECTION ( 'NONE',  ( -0.0000000000000000000, -0.0000000000000000000, -1.000000000000000000 ) ) ;
#327 = CARTESIAN_POINT ( 'NONE',  ( 10.00000000000000000, 1.224646799147353300E-015, 7.000000000000000000 ) ) ;
#328 = ORIENTED_EDGE ( 'NONE', *, *, #310, .T. ) ;
#329 = UNCERTAINTY_MEASURE_WITH_UNIT (LENGTH_MEASURE( 1.000000000000000100E-005 ), #120, 'distance_accuracy_value', 'NONE');
#330 = DIRECTION ( 'NONE',  ( 0.0000000000000000000, 0.0000000000000000000, 1.000000000000000000 ) ) ;
#331 = CARTESIAN_POINT ( 'NONE',  ( 0.0000000000000000000, 0.0000000000000000000, 298.0000000000000000 ) ) ;
#332 = ADVANCED_FACE ( 'NONE', ( #180, #207 ), #144, .T. ) ;
#333 = CARTESIAN_POINT ( 'NONE',  ( 15.00000000000000200, 1.836970198721030000E-015, 310.0000000000000000 ) ) ;
#334 = ADVANCED_FACE ( 'NONE', ( #11, #223 ), #117, .T. ) ;
#335 = CARTESIAN_POINT ( 'NONE',  ( 13.00000000000000200, 1.592040838891559300E-015, 7.000000000000000000 ) ) ;
#336 = AXIS2_PLACEMENT_3D ( 'NONE', #216, #330, #109 ) ;
#337 = CARTESIAN_POINT ( 'NONE',  ( 0.0000000000000000000, 0.0000000000000000000, 298.0000000000000000 ) ) ;
#338 = VERTEX_POINT ( 'NONE', #226 ) ;
#339 = CARTESIAN_POINT ( 'NONE',  ( 0.0000000000000000000, 0.0000000000000000000, 298.0000000000000000 ) ) ;
#340 = EDGE_CURVE ( 'NONE', #215, #232, #147, .T. ) ;
#341 = CARTESIAN_POINT ( 'NONE',  ( 0.0000000000000000000, 0.0000000000000000000, 310.0000000000000000 ) ) ;
#342 = VERTEX_POINT ( 'NONE', #307 ) ;
#343 =( NAMED_UNIT ( * ) SI_UNIT ( $, .STERADIAN. ) SOLID_ANGLE_UNIT ( ) );
#344 = DIRECTION ( 'NONE',  ( 0.0000000000000000000, 0.0000000000000000000, 1.000000000000000000 ) ) ;
#345 = CYLINDRICAL_SURFACE ( 'NONE', #270, 15.00000000000000200 ) ;
#346 = EDGE_CURVE ( 'NONE', #126, #338, #168, .T. ) ;
#347 = CYLINDRICAL_SURFACE ( 'NONE', #315, 13.00000000000000200 ) ;
#348 = DIRECTION ( 'NONE',  ( -0.0000000000000000000, -0.0000000000000000000, 1.000000000000000000 ) ) ;
#349 = AXIS2_PLACEMENT_3D ( 'NONE', #360, #274, #162 ) ;
#350 = FACE_OUTER_BOUND ( 'NONE', #299, .T. ) ;
#351 = CARTESIAN_POINT ( 'NONE',  ( 0.0000000000000000000, 0.0000000000000000000, 0.0000000000000000000 ) ) ;
#352 = ORIENTED_EDGE ( 'NONE', *, *, #156, .T. ) ;
#353 = ORIENTED_EDGE ( 'NONE', *, *, #194, .T. ) ;
#354 = CIRCLE ( 'NONE', #30, 11.00000000000000000 ) ;
#355 = AXIS2_PLACEMENT_3D ( 'NONE', #197, #225, #261 ) ;
#356 = CARTESIAN_POINT ( 'NONE',  ( 0.0000000000000000000, 0.0000000000000000000, 7.000000000000000000 ) ) ;
#357 = VERTEX_POINT ( 'NONE', #222 ) ;
#358 = DIRECTION ( 'NONE',  ( -0.0000000000000000000, 0.0000000000000000000, 1.000000000000000000 ) ) ;
#359 = CARTESIAN_POINT ( 'NONE',  ( 13.00000000000000200, 1.592040838891559300E-015, 7.000000000000000000 ) ) ;
#360 = CARTESIAN_POINT ( 'NONE',  ( 0.0000000000000000000, 0.0000000000000000000, 0.0000000000000000000 ) ) ;
#361 = AXIS2_PLACEMENT_3D ( 'NONE', #63, #344, #3 ) ;
#362 = ORIENTED_EDGE ( 'NONE', *, *, #77, .F. ) ;
#363 = ADVANCED_FACE ( 'NONE', ( #73, #25 ), #26, .F. ) ;
#364 = CARTESIAN_POINT ( 'NONE',  ( 11.00000000000000000, 0.0000000000000000000, 310.0000000000000000 ) ) ;
#365 = PRESENTATION_STYLE_ASSIGNMENT (( #154 ) ) ;
#366 = FACE_OUTER_BOUND ( 'NONE', #138, .T. ) ;
#367 = DIRECTION ( 'NONE',  ( 0.0000000000000000000, 0.0000000000000000000, -1.000000000000000000 ) ) ;
#368 = ORIENTED_EDGE ( 'NONE', *, *, #99, .T. ) ;
#369 = ADVANCED_FACE ( 'NONE', ( #234 ), #302, .F. ) ;
#370 = AXIS2_PLACEMENT_3D ( 'NONE', #220, #306, #137 ) ;
#371 = DIRECTION ( 'NONE',  ( 1.000000000000000000, 0.0000000000000000000, 0.0000000000000000000 ) ) ;
#372 = CIRCLE ( 'NONE', #231, 11.00000000000000000 ) ;
#373 = DIRECTION ( 'NONE',  ( 1.000000000000000000, 0.0000000000000000000, 0.0000000000000000000 ) ) ;
#374 = ORIENTED_EDGE ( 'NONE', *, *, #266, .F. ) ;
ENDSEC;
END-ISO-10303-21;
