ISO-10303-21;
HEADER;
FILE_DESCRIPTION (( 'STEP AP214' ),
    '1' );
FILE_NAME ('passage_axe_g.STEP',
    '2021-10-11T22:46:28',
    ( '' ),
    ( '' ),
    'SwSTEP 2.0',
    'SolidWorks 2019',
    '' );
FILE_SCHEMA (( 'AUTOMOTIVE_DESIGN' ));
ENDSEC;

DATA;
#1 = EDGE_CURVE ( 'NONE', #207, #24, #143, .T. ) ;
#2 = ORIENTED_EDGE ( 'NONE', *, *, #43, .T. ) ;
#3 = ORIENTED_EDGE ( 'NONE', *, *, #228, .T. ) ;
#4 = COLOUR_RGB ( '',0.7921568627450980005, 0.8196078431372548767, 0.9333333333333333481 ) ;
#5 = ORIENTED_EDGE ( 'NONE', *, *, #36, .F. ) ;
#6 = VECTOR ( 'NONE', #177, 1000.000000000000000 ) ;
#7 = VERTEX_POINT ( 'NONE', #122 ) ;
#8 = DIRECTION ( 'NONE',  ( 0.0000000000000000000, 0.0000000000000000000, 1.000000000000000000 ) ) ;
#9 = CARTESIAN_POINT ( 'NONE',  ( 9.899999999999998579, 7.499999999999999112, 0.0000000000000000000 ) ) ;
#10 = ORIENTED_EDGE ( 'NONE', *, *, #43, .F. ) ;
#11 = ADVANCED_FACE ( 'NONE', ( #216 ), #14, .T. ) ;
#12 = LINE ( 'NONE', #100, #179 ) ;
#13 = DIRECTION ( 'NONE',  ( 0.0000000000000000000, 0.0000000000000000000, -1.000000000000000000 ) ) ;
#14 = CYLINDRICAL_SURFACE ( 'NONE', #132, 10.50000000000000178 ) ;
#15 = DIRECTION ( 'NONE',  ( 0.0000000000000000000, 0.0000000000000000000, -1.000000000000000000 ) ) ;
#16 = DIRECTION ( 'NONE',  ( 1.000000000000000000, 0.0000000000000000000, -0.0000000000000000000 ) ) ;
#17 = PRESENTATION_STYLE_ASSIGNMENT (( #222 ) ) ;
#18 = CARTESIAN_POINT ( 'NONE',  ( 0.0000000000000000000, 1.285879139104720831E-15, 10.50000000000000000 ) ) ;
#19 = AXIS2_PLACEMENT_3D ( 'NONE', #145, #241, #37 ) ;
#20 = DIRECTION ( 'NONE',  ( 1.000000000000000000, -0.0000000000000000000, -0.0000000000000000000 ) ) ;
#21 = CARTESIAN_POINT ( 'NONE',  ( 9.899999999999998579, 0.0000000000000000000, 0.0000000000000000000 ) ) ;
#22 = PRODUCT_DEFINITION_FORMATION_WITH_SPECIFIED_SOURCE ( 'ANY', '', #196, .NOT_KNOWN. ) ;
#23 = EDGE_CURVE ( 'NONE', #71, #207, #212, .T. ) ;
#24 = VERTEX_POINT ( 'NONE', #59 ) ;
#25 = ORIENTED_EDGE ( 'NONE', *, *, #36, .T. ) ;
#26 = AXIS2_PLACEMENT_3D ( 'NONE', #123, #220, #15 ) ;
#27 = ORIENTED_EDGE ( 'NONE', *, *, #232, .F. ) ;
#28 = CIRCLE ( 'NONE', #69, 10.50000000000000178 ) ;
#29 = FACE_BOUND ( 'NONE', #159, .T. ) ;
#30 = ORIENTED_EDGE ( 'NONE', *, *, #1, .F. ) ;
#31 = AXIS2_PLACEMENT_3D ( 'NONE', #21, #109, #199 ) ;
#32 = LINE ( 'NONE', #120, #87 ) ;
#33 = CYLINDRICAL_SURFACE ( 'NONE', #200, 7.499999999999999112 ) ;
#34 = DIRECTION ( 'NONE',  ( 1.000000000000000000, -0.0000000000000000000, -0.0000000000000000000 ) ) ;
#35 = APPLICATION_CONTEXT ( 'automotive_design' ) ;
#36 = EDGE_CURVE ( 'NONE', #258, #91, #68, .T. ) ;
#37 = DIRECTION ( 'NONE',  ( 0.0000000000000000000, 0.0000000000000000000, 1.000000000000000000 ) ) ;
#38 = FACE_OUTER_BOUND ( 'NONE', #235, .T. ) ;
#39 = SURFACE_STYLE_FILL_AREA ( #243 ) ;
#40 = DIRECTION ( 'NONE',  ( -1.000000000000000000, -0.0000000000000000000, -0.0000000000000000000 ) ) ;
#41 = CARTESIAN_POINT ( 'NONE',  ( 3.000000000000000000, 1.285879139104721028E-15, 10.50000000000000178 ) ) ;
#42 = DIRECTION ( 'NONE',  ( 0.0000000000000000000, 0.0000000000000000000, 1.000000000000000000 ) ) ;
#43 = EDGE_CURVE ( 'NONE', #204, #136, #153, .T. ) ;
#44 = UNCERTAINTY_MEASURE_WITH_UNIT (LENGTH_MEASURE( 1.000000000000000082E-05 ), #217, 'distance_accuracy_value', 'NONE');
#45 = AXIS2_PLACEMENT_3D ( 'NONE', #271, #63, #152 ) ;
#46 = CIRCLE ( 'NONE', #118, 5.999999999999999112 ) ;
#47 = CLOSED_SHELL ( 'NONE', ( #67, #269, #11, #93, #108, #172, #255, #249, #191 ) ) ;
#48 = ORIENTED_EDGE ( 'NONE', *, *, #228, .F. ) ;
#49 = ORIENTED_EDGE ( 'NONE', *, *, #112, .T. ) ;
#50 = ORIENTED_EDGE ( 'NONE', *, *, #154, .F. ) ;
#51 = EDGE_CURVE ( 'NONE', #162, #70, #195, .T. ) ;
#52 = CARTESIAN_POINT ( 'NONE',  ( 9.900000000000002132, 0.0000000000000000000, 0.0000000000000000000 ) ) ;
#53 = EDGE_LOOP ( 'NONE', ( #115, #277 ) ) ;
#54 = DIRECTION ( 'NONE',  ( 1.000000000000000000, -0.0000000000000000000, -0.0000000000000000000 ) ) ;
#55 = STYLED_ITEM ( 'NONE', ( #17 ), #150 ) ;
#56 = DIRECTION ( 'NONE',  ( 0.0000000000000000000, 0.0000000000000000000, -1.000000000000000000 ) ) ;
#57 = ORIENTED_EDGE ( 'NONE', *, *, #23, .T. ) ;
#58 = SURFACE_SIDE_STYLE ('',( #262 ) ) ;
#59 = CARTESIAN_POINT ( 'NONE',  ( 3.000000000000000000, 0.0000000000000000000, -10.50000000000000178 ) ) ;
#60 = FACE_OUTER_BOUND ( 'NONE', #211, .T. ) ;
#61 = LINE ( 'NONE', #149, #95 ) ;
#62 = PLANE ( 'NONE',  #294 ) ;
#63 = DIRECTION ( 'NONE',  ( -1.000000000000000000, -0.0000000000000000000, -0.0000000000000000000 ) ) ;
#64 = DIRECTION ( 'NONE',  ( -1.000000000000000000, -0.0000000000000000000, -0.0000000000000000000 ) ) ;
#65 = EDGE_CURVE ( 'NONE', #24, #203, #88, .T. ) ;
#66 = CIRCLE ( 'NONE', #131, 10.50000000000000000 ) ;
#67 = ADVANCED_FACE ( 'NONE', ( #60 ), #148, .F. ) ;
#68 = CIRCLE ( 'NONE', #19, 5.999999999999998224 ) ;
#69 = AXIS2_PLACEMENT_3D ( 'NONE', #101, #189, #284 ) ;
#70 = VERTEX_POINT ( 'NONE', #223 ) ;
#71 = VERTEX_POINT ( 'NONE', #18 ) ;
#72 = ORIENTED_EDGE ( 'NONE', *, *, #134, .T. ) ;
#73 = ORIENTED_EDGE ( 'NONE', *, *, #127, .F. ) ;
#74 = SHAPE_DEFINITION_REPRESENTATION ( #247, #150 ) ;
#75 = CYLINDRICAL_SURFACE ( 'NONE', #156, 7.499999999999999112 ) ;
#76 = ORIENTED_EDGE ( 'NONE', *, *, #227, .F. ) ;
#77 = FILL_AREA_STYLE_COLOUR ( '', #4 ) ;
#78 = CARTESIAN_POINT ( 'NONE',  ( 0.0000000000000000000, 0.0000000000000000000, 0.0000000000000000000 ) ) ;
#79 = CARTESIAN_POINT ( 'NONE',  ( 3.000000000000000000, 0.0000000000000000000, 0.0000000000000000000 ) ) ;
#80 = CARTESIAN_POINT ( 'NONE',  ( 0.0000000000000000000, 0.0000000000000000000, 0.0000000000000000000 ) ) ;
#81 = CARTESIAN_POINT ( 'NONE',  ( 9.900000000000002132, 7.347880794884117764E-16, -5.999999999999998224 ) ) ;
#82 = CARTESIAN_POINT ( 'NONE',  ( 9.899999999999998579, 9.184850993605147944E-16, 7.499999999999999112 ) ) ;
#83 = AXIS2_PLACEMENT_3D ( 'NONE', #52, #137, #234 ) ;
#84 = DIRECTION ( 'NONE',  ( 1.000000000000000000, -0.0000000000000000000, -0.0000000000000000000 ) ) ;
#85 = CIRCLE ( 'NONE', #157, 7.499999999999999112 ) ;
#86 = EDGE_CURVE ( 'NONE', #70, #204, #106, .T. ) ;
#87 = VECTOR ( 'NONE', #213, 1000.000000000000000 ) ;
#88 = CIRCLE ( 'NONE', #103, 10.50000000000000178 ) ;
#89 = MECHANICAL_DESIGN_GEOMETRIC_PRESENTATION_REPRESENTATION (  '', ( #55 ), #274 ) ;
#90 = EDGE_LOOP ( 'NONE', ( #231, #133 ) ) ;
#91 = VERTEX_POINT ( 'NONE', #81 ) ;
#92 = MECHANICAL_DESIGN_GEOMETRIC_PRESENTATION_REPRESENTATION (  '', ( #130 ), #251 ) ;
#93 = ADVANCED_FACE ( 'NONE', ( #175, #270 ), #62, .T. ) ;
#94 = ORIENTED_EDGE ( 'NONE', *, *, #232, .T. ) ;
#95 = VECTOR ( 'NONE', #245, 1000.000000000000000 ) ;
#96 = ORIENTED_EDGE ( 'NONE', *, *, #86, .T. ) ;
#97 = DIRECTION ( 'NONE',  ( 1.000000000000000000, 0.0000000000000000000, 0.0000000000000000000 ) ) ;
#98 = DIRECTION ( 'NONE',  ( 1.000000000000000000, 0.0000000000000000000, -0.0000000000000000000 ) ) ;
#99 = ORIENTED_EDGE ( 'NONE', *, *, #1, .T. ) ;
#100 = CARTESIAN_POINT ( 'NONE',  ( 9.899999999999998579, 1.285879139104721028E-15, 10.50000000000000178 ) ) ;
#101 = CARTESIAN_POINT ( 'NONE',  ( 3.000000000000000000, 0.0000000000000000000, 0.0000000000000000000 ) ) ;
#102 = CARTESIAN_POINT ( 'NONE',  ( 9.899999999999998579, 0.0000000000000000000, 0.0000000000000000000 ) ) ;
#103 = AXIS2_PLACEMENT_3D ( 'NONE', #79, #173, #266 ) ;
#104 = CARTESIAN_POINT ( 'NONE',  ( 3.000000000000000888, 0.0000000000000000000, 0.0000000000000000000 ) ) ;
#105 = DIRECTION ( 'NONE',  ( -0.0000000000000000000, 0.0000000000000000000, -1.000000000000000000 ) ) ;
#106 = LINE ( 'NONE', #197, #219 ) ;
#107 = DIRECTION ( 'NONE',  ( 0.0000000000000000000, 0.0000000000000000000, -1.000000000000000000 ) ) ;
#108 = ADVANCED_FACE ( 'NONE', ( #129 ), #225, .T. ) ;
#109 = DIRECTION ( 'NONE',  ( 1.000000000000000000, -0.0000000000000000000, -0.0000000000000000000 ) ) ;
#110 = UNCERTAINTY_MEASURE_WITH_UNIT (LENGTH_MEASURE( 1.000000000000000082E-05 ), #289, 'distance_accuracy_value', 'NONE');
#111 = ORIENTED_EDGE ( 'NONE', *, *, #154, .T. ) ;
#112 = EDGE_CURVE ( 'NONE', #70, #162, #85, .T. ) ;
#113 = AXIS2_PLACEMENT_3D ( 'NONE', #78, #170, #264 ) ;
#114 = ORIENTED_EDGE ( 'NONE', *, *, #86, .F. ) ;
#115 = ORIENTED_EDGE ( 'NONE', *, *, #206, .F. ) ;
#116 = FACE_OUTER_BOUND ( 'NONE', #256, .T. ) ;
#117 = ORIENTED_EDGE ( 'NONE', *, *, #51, .T. ) ;
#118 = AXIS2_PLACEMENT_3D ( 'NONE', #272, #64, #164 ) ;
#119 = VECTOR ( 'NONE', #34, 1000.000000000000000 ) ;
#120 = CARTESIAN_POINT ( 'NONE',  ( 0.0000000000000000000, 0.0000000000000000000, 5.999999999999998224 ) ) ;
#121 = CARTESIAN_POINT ( 'NONE',  ( 9.899999999999998579, 0.0000000000000000000, 0.0000000000000000000 ) ) ;
#122 = CARTESIAN_POINT ( 'NONE',  ( -3.061616997868414757E-18, 0.0000000000000000000, 5.999999999999999112 ) ) ;
#123 = CARTESIAN_POINT ( 'NONE',  ( 9.900000000000000355, 0.0000000000000000000, 0.0000000000000000000 ) ) ;
#124 = PLANE ( 'NONE',  #166 ) ;
#125 = SURFACE_SIDE_STYLE ('',( #39 ) ) ;
#126 = DIRECTION ( 'NONE',  ( 0.0000000000000000000, 0.0000000000000000000, 1.000000000000000000 ) ) ;
#127 = EDGE_CURVE ( 'NONE', #230, #7, #46, .T. ) ;
#128 = CARTESIAN_POINT ( 'NONE',  ( 9.900000000000000355, 0.0000000000000000000, -7.499999999999999112 ) ) ;
#129 = FACE_OUTER_BOUND ( 'NONE', #138, .T. ) ;
#130 = STYLED_ITEM ( 'NONE', ( #239 ), #155 ) ;
#131 = AXIS2_PLACEMENT_3D ( 'NONE', #224, #20, #107 ) ;
#132 = AXIS2_PLACEMENT_3D ( 'NONE', #102, #190, #285 ) ;
#133 = ORIENTED_EDGE ( 'NONE', *, *, #51, .F. ) ;
#134 = EDGE_CURVE ( 'NONE', #136, #204, #293, .T. ) ;
#135 = EDGE_LOOP ( 'NONE', ( #76, #117, #96, #254 ) ) ;
#136 = VERTEX_POINT ( 'NONE', #236 ) ;
#137 = DIRECTION ( 'NONE',  ( -1.000000000000000000, -0.0000000000000000000, -0.0000000000000000000 ) ) ;
#138 = EDGE_LOOP ( 'NONE', ( #50, #57, #99, #275 ) ) ;
#139 =( GEOMETRIC_REPRESENTATION_CONTEXT ( 3 ) GLOBAL_UNCERTAINTY_ASSIGNED_CONTEXT ( ( #273 ) ) GLOBAL_UNIT_ASSIGNED_CONTEXT ( ( #263, #240, #218 ) ) REPRESENTATION_CONTEXT ( 'NONE', 'WORKASPACE' ) );
#140 = DIRECTION ( 'NONE',  ( 0.0000000000000000000, 0.0000000000000000000, -1.000000000000000000 ) ) ;
#141 = CARTESIAN_POINT ( 'NONE',  ( 9.900000000000002132, 0.0000000000000000000, 5.999999999999998224 ) ) ;
#142 = AXIS2_PLACEMENT_3D ( 'NONE', #208, #8, #97 ) ;
#143 = LINE ( 'NONE', #238, #119 ) ;
#144 = SURFACE_STYLE_USAGE ( .BOTH. , #58 ) ;
#145 = CARTESIAN_POINT ( 'NONE',  ( 9.900000000000002132, 0.0000000000000000000, 0.0000000000000000000 ) ) ;
#146 = FILL_AREA_STYLE_COLOUR ( '', #180 ) ;
#147 = EDGE_CURVE ( 'NONE', #258, #7, #32, .T. ) ;
#148 = CYLINDRICAL_SURFACE ( 'NONE', #253, 5.999999999999998224 ) ;
#149 = CARTESIAN_POINT ( 'NONE',  ( 0.0000000000000000000, 7.347880794884117764E-16, -5.999999999999998224 ) ) ;
#150 = ADVANCED_BREP_SHAPE_REPRESENTATION ( 'passage_axe_g', ( #155, #142 ), #139 ) ;
#151 = CARTESIAN_POINT ( 'NONE',  ( 0.0000000000000000000, 0.0000000000000000000, 0.0000000000000000000 ) ) ;
#152 = DIRECTION ( 'NONE',  ( 0.0000000000000000000, 0.0000000000000000000, 1.000000000000000000 ) ) ;
#153 = CIRCLE ( 'NONE', #26, 7.499999999999999112 ) ;
#154 = EDGE_CURVE ( 'NONE', #71, #203, #12, .T. ) ;
#155 = MANIFOLD_SOLID_BREP ( 'Trous de centrage Ø12.0mmClearance 1', #47 ) ;
#156 = AXIS2_PLACEMENT_3D ( 'NONE', #165, #260, #56 ) ;
#157 = AXIS2_PLACEMENT_3D ( 'NONE', #292, #84, #178 ) ;
#158 = EDGE_LOOP ( 'NONE', ( #49, #261, #10, #114 ) ) ;
#159 = EDGE_LOOP ( 'NONE', ( #25, #94 ) ) ;
#160 = AXIS2_PLACEMENT_3D ( 'NONE', #259, #54, #140 ) ;
#161 = AXIS2_PLACEMENT_3D ( 'NONE', #104, #193, #287 ) ;
#162 = VERTEX_POINT ( 'NONE', #242 ) ;
#163 = ORIENTED_EDGE ( 'NONE', *, *, #147, .T. ) ;
#164 = DIRECTION ( 'NONE',  ( 0.0000000000000000000, 0.0000000000000000000, 1.000000000000000000 ) ) ;
#165 = CARTESIAN_POINT ( 'NONE',  ( 9.899999999999998579, 0.0000000000000000000, 0.0000000000000000000 ) ) ;
#166 = AXIS2_PLACEMENT_3D ( 'NONE', #221, #16, #105 ) ;
#167 = APPLICATION_CONTEXT ( 'automotive_design' ) ;
#168 = ORIENTED_EDGE ( 'NONE', *, *, #202, .T. ) ;
#169 = FILL_AREA_STYLE ('',( #77 ) ) ;
#170 = DIRECTION ( 'NONE',  ( 1.000000000000000000, -0.0000000000000000000, -0.0000000000000000000 ) ) ;
#171 =( NAMED_UNIT ( * ) SI_UNIT ( $, .STERADIAN. ) SOLID_ANGLE_UNIT ( ) );
#172 = ADVANCED_FACE ( 'NONE', ( #38, #283 ), #124, .T. ) ;
#173 = DIRECTION ( 'NONE',  ( 1.000000000000000000, -0.0000000000000000000, -0.0000000000000000000 ) ) ;
#174 = DIRECTION ( 'NONE',  ( -1.000000000000000000, -0.0000000000000000000, -0.0000000000000000000 ) ) ;
#175 = FACE_BOUND ( 'NONE', #252, .T. ) ;
#176 = CIRCLE ( 'NONE', #45, 5.999999999999999112 ) ;
#177 = DIRECTION ( 'NONE',  ( 1.000000000000000000, -0.0000000000000000000, -0.0000000000000000000 ) ) ;
#178 = DIRECTION ( 'NONE',  ( 0.0000000000000000000, 0.0000000000000000000, -1.000000000000000000 ) ) ;
#179 = VECTOR ( 'NONE', #188, 1000.000000000000000 ) ;
#180 = COLOUR_RGB ( '',0.7921568627450980005, 0.8196078431372548767, 0.9333333333333333481 ) ;
#181 = ORIENTED_EDGE ( 'NONE', *, *, #127, .T. ) ;
#182 = EDGE_LOOP ( 'NONE', ( #187, #5, #163, #3 ) ) ;
#183 = ORIENTED_EDGE ( 'NONE', *, *, #65, .F. ) ;
#184 = ORIENTED_EDGE ( 'NONE', *, *, #206, .T. ) ;
#185 = PRODUCT_CONTEXT ( 'NONE', #35, 'mechanical' ) ;
#186 = DIRECTION ( 'NONE',  ( -0.0000000000000000000, 0.0000000000000000000, -1.000000000000000000 ) ) ;
#187 = ORIENTED_EDGE ( 'NONE', *, *, #202, .F. ) ;
#188 = DIRECTION ( 'NONE',  ( 1.000000000000000000, -0.0000000000000000000, -0.0000000000000000000 ) ) ;
#189 = DIRECTION ( 'NONE',  ( 1.000000000000000000, -0.0000000000000000000, -0.0000000000000000000 ) ) ;
#190 = DIRECTION ( 'NONE',  ( 1.000000000000000000, -0.0000000000000000000, -0.0000000000000000000 ) ) ;
#191 = ADVANCED_FACE ( 'NONE', ( #194 ), #288, .F. ) ;
#192 =( NAMED_UNIT ( * ) PLANE_ANGLE_UNIT ( ) SI_UNIT ( $, .RADIAN. ) );
#193 = DIRECTION ( 'NONE',  ( 1.000000000000000000, -0.0000000000000000000, -0.0000000000000000000 ) ) ;
#194 = FACE_OUTER_BOUND ( 'NONE', #182, .T. ) ;
#195 = CIRCLE ( 'NONE', #161, 7.499999999999999112 ) ;
#196 = PRODUCT ( 'passage_axe_g', 'passage_axe_g', '', ( #185 ) ) ;
#197 = CARTESIAN_POINT ( 'NONE',  ( 9.899999999999998579, 0.0000000000000000000, -7.499999999999999112 ) ) ;
#198 = CARTESIAN_POINT ( 'NONE',  ( 0.0000000000000000000, 0.0000000000000000000, -10.50000000000000000 ) ) ;
#199 = DIRECTION ( 'NONE',  ( 0.0000000000000000000, 0.0000000000000000000, -1.000000000000000000 ) ) ;
#200 = AXIS2_PLACEMENT_3D ( 'NONE', #121, #214, #13 ) ;
#201 = PRODUCT_DEFINITION ( 'UNKNOWN', '', #22, #215 ) ;
#202 = EDGE_CURVE ( 'NONE', #91, #230, #61, .T. ) ;
#203 = VERTEX_POINT ( 'NONE', #41 ) ;
#204 = VERTEX_POINT ( 'NONE', #128 ) ;
#205 = ORIENTED_EDGE ( 'NONE', *, *, #65, .T. ) ;
#206 = EDGE_CURVE ( 'NONE', #207, #71, #66, .T. ) ;
#207 = VERTEX_POINT ( 'NONE', #198 ) ;
#208 = CARTESIAN_POINT ( 'NONE',  ( 0.0000000000000000000, 0.0000000000000000000, 0.0000000000000000000 ) ) ;
#209 = CIRCLE ( 'NONE', #83, 5.999999999999998224 ) ;
#210 = PLANE ( 'NONE',  #250 ) ;
#211 = EDGE_LOOP ( 'NONE', ( #27, #168, #181, #279 ) ) ;
#212 = CIRCLE ( 'NONE', #113, 10.50000000000000000 ) ;
#213 = DIRECTION ( 'NONE',  ( -1.000000000000000000, -0.0000000000000000000, -0.0000000000000000000 ) ) ;
#214 = DIRECTION ( 'NONE',  ( 1.000000000000000000, -0.0000000000000000000, -0.0000000000000000000 ) ) ;
#215 = PRODUCT_DEFINITION_CONTEXT ( 'detailed design', #167, 'design' ) ;
#216 = FACE_OUTER_BOUND ( 'NONE', #233, .T. ) ;
#217 =( LENGTH_UNIT ( ) NAMED_UNIT ( * ) SI_UNIT ( .MILLI., .METRE. ) );
#218 =( NAMED_UNIT ( * ) SI_UNIT ( $, .STERADIAN. ) SOLID_ANGLE_UNIT ( ) );
#219 = VECTOR ( 'NONE', #290, 1000.000000000000000 ) ;
#220 = DIRECTION ( 'NONE',  ( 1.000000000000000000, -0.0000000000000000000, -0.0000000000000000000 ) ) ;
#221 = CARTESIAN_POINT ( 'NONE',  ( 3.000000000000000000, 10.50000000000000178, 0.0000000000000000000 ) ) ;
#222 = SURFACE_STYLE_USAGE ( .BOTH. , #125 ) ;
#223 = CARTESIAN_POINT ( 'NONE',  ( 3.000000000000000888, 0.0000000000000000000, -7.499999999999999112 ) ) ;
#224 = CARTESIAN_POINT ( 'NONE',  ( 0.0000000000000000000, 0.0000000000000000000, 0.0000000000000000000 ) ) ;
#225 = CYLINDRICAL_SURFACE ( 'NONE', #31, 10.50000000000000178 ) ;
#226 = PRESENTATION_LAYER_ASSIGNMENT (  '', '', ( #55 ) ) ;
#227 = EDGE_CURVE ( 'NONE', #162, #136, #291, .T. ) ;
#228 = EDGE_CURVE ( 'NONE', #7, #230, #176, .T. ) ;
#229 = AXIS2_PLACEMENT_3D ( 'NONE', #80, #174, #267 ) ;
#230 = VERTEX_POINT ( 'NONE', #257 ) ;
#231 = ORIENTED_EDGE ( 'NONE', *, *, #112, .F. ) ;
#232 = EDGE_CURVE ( 'NONE', #91, #258, #209, .T. ) ;
#233 = EDGE_LOOP ( 'NONE', ( #184, #111, #183, #30 ) ) ;
#234 = DIRECTION ( 'NONE',  ( 0.0000000000000000000, 0.0000000000000000000, 1.000000000000000000 ) ) ;
#235 = EDGE_LOOP ( 'NONE', ( #205, #278 ) ) ;
#236 = CARTESIAN_POINT ( 'NONE',  ( 9.900000000000000355, 9.184850993605147944E-16, 7.499999999999999112 ) ) ;
#237 = FACE_OUTER_BOUND ( 'NONE', #158, .T. ) ;
#238 = CARTESIAN_POINT ( 'NONE',  ( 9.899999999999998579, 0.0000000000000000000, -10.50000000000000178 ) ) ;
#239 = PRESENTATION_STYLE_ASSIGNMENT (( #144 ) ) ;
#240 =( NAMED_UNIT ( * ) PLANE_ANGLE_UNIT ( ) SI_UNIT ( $, .RADIAN. ) );
#241 = DIRECTION ( 'NONE',  ( -1.000000000000000000, -0.0000000000000000000, -0.0000000000000000000 ) ) ;
#242 = CARTESIAN_POINT ( 'NONE',  ( 3.000000000000000888, 9.184850993605147944E-16, 7.499999999999999112 ) ) ;
#243 = FILL_AREA_STYLE ('',( #146 ) ) ;
#244 = CARTESIAN_POINT ( 'NONE',  ( 0.0000000000000000000, 0.0000000000000000000, 0.0000000000000000000 ) ) ;
#245 = DIRECTION ( 'NONE',  ( -1.000000000000000000, -0.0000000000000000000, -0.0000000000000000000 ) ) ;
#246 =( NAMED_UNIT ( * ) SI_UNIT ( $, .STERADIAN. ) SOLID_ANGLE_UNIT ( ) );
#247 = PRODUCT_DEFINITION_SHAPE ( 'NONE', 'NONE',  #201 ) ;
#248 = DIRECTION ( 'NONE',  ( -1.000000000000000000, 0.0000000000000000000, 0.0000000000000000000 ) ) ;
#249 = ADVANCED_FACE ( 'NONE', ( #29, #116 ), #210, .T. ) ;
#250 = AXIS2_PLACEMENT_3D ( 'NONE', #9, #98, #186 ) ;
#251 =( GEOMETRIC_REPRESENTATION_CONTEXT ( 3 ) GLOBAL_UNCERTAINTY_ASSIGNED_CONTEXT ( ( #44 ) ) GLOBAL_UNIT_ASSIGNED_CONTEXT ( ( #217, #192, #171 ) ) REPRESENTATION_CONTEXT ( 'NONE', 'WORKASPACE' ) );
#252 = EDGE_LOOP ( 'NONE', ( #48, #73 ) ) ;
#253 = AXIS2_PLACEMENT_3D ( 'NONE', #244, #40, #126 ) ;
#254 = ORIENTED_EDGE ( 'NONE', *, *, #134, .F. ) ;
#255 = ADVANCED_FACE ( 'NONE', ( #281 ), #75, .T. ) ;
#256 = EDGE_LOOP ( 'NONE', ( #2, #72 ) ) ;
#257 = CARTESIAN_POINT ( 'NONE',  ( -3.061616997868414757E-18, 7.347880794884119736E-16, -6.000000000000000000 ) ) ;
#258 = VERTEX_POINT ( 'NONE', #141 ) ;
#259 = CARTESIAN_POINT ( 'NONE',  ( 9.900000000000000355, 0.0000000000000000000, 0.0000000000000000000 ) ) ;
#260 = DIRECTION ( 'NONE',  ( 1.000000000000000000, -0.0000000000000000000, -0.0000000000000000000 ) ) ;
#261 = ORIENTED_EDGE ( 'NONE', *, *, #227, .T. ) ;
#262 = SURFACE_STYLE_FILL_AREA ( #169 ) ;
#263 =( LENGTH_UNIT ( ) NAMED_UNIT ( * ) SI_UNIT ( .MILLI., .METRE. ) );
#264 = DIRECTION ( 'NONE',  ( 0.0000000000000000000, 0.0000000000000000000, -1.000000000000000000 ) ) ;
#265 = PRESENTATION_LAYER_ASSIGNMENT (  '', '', ( #130 ) ) ;
#266 = DIRECTION ( 'NONE',  ( 0.0000000000000000000, 0.0000000000000000000, -1.000000000000000000 ) ) ;
#267 = DIRECTION ( 'NONE',  ( 0.0000000000000000000, 0.0000000000000000000, 1.000000000000000000 ) ) ;
#268 =( NAMED_UNIT ( * ) PLANE_ANGLE_UNIT ( ) SI_UNIT ( $, .RADIAN. ) );
#269 = ADVANCED_FACE ( 'NONE', ( #237 ), #33, .T. ) ;
#270 = FACE_OUTER_BOUND ( 'NONE', #53, .T. ) ;
#271 = CARTESIAN_POINT ( 'NONE',  ( -3.061616997868414757E-18, 0.0000000000000000000, 0.0000000000000000000 ) ) ;
#272 = CARTESIAN_POINT ( 'NONE',  ( -3.061616997868414757E-18, 0.0000000000000000000, 0.0000000000000000000 ) ) ;
#273 = UNCERTAINTY_MEASURE_WITH_UNIT (LENGTH_MEASURE( 1.000000000000000082E-05 ), #263, 'distance_accuracy_value', 'NONE');
#274 =( GEOMETRIC_REPRESENTATION_CONTEXT ( 3 ) GLOBAL_UNCERTAINTY_ASSIGNED_CONTEXT ( ( #110 ) ) GLOBAL_UNIT_ASSIGNED_CONTEXT ( ( #289, #268, #246 ) ) REPRESENTATION_CONTEXT ( 'NONE', 'WORKASPACE' ) );
#275 = ORIENTED_EDGE ( 'NONE', *, *, #276, .F. ) ;
#276 = EDGE_CURVE ( 'NONE', #203, #24, #28, .T. ) ;
#277 = ORIENTED_EDGE ( 'NONE', *, *, #23, .F. ) ;
#278 = ORIENTED_EDGE ( 'NONE', *, *, #276, .T. ) ;
#279 = ORIENTED_EDGE ( 'NONE', *, *, #147, .F. ) ;
#280 = APPLICATION_PROTOCOL_DEFINITION ( 'draft international standard', 'automotive_design', 1998, #167 ) ;
#281 = FACE_OUTER_BOUND ( 'NONE', #135, .T. ) ;
#282 = PRODUCT_RELATED_PRODUCT_CATEGORY ( 'part', '', ( #196 ) ) ;
#283 = FACE_BOUND ( 'NONE', #90, .T. ) ;
#284 = DIRECTION ( 'NONE',  ( 0.0000000000000000000, 0.0000000000000000000, -1.000000000000000000 ) ) ;
#285 = DIRECTION ( 'NONE',  ( 0.0000000000000000000, 0.0000000000000000000, -1.000000000000000000 ) ) ;
#286 = APPLICATION_PROTOCOL_DEFINITION ( 'draft international standard', 'automotive_design', 1998, #35 ) ;
#287 = DIRECTION ( 'NONE',  ( 0.0000000000000000000, 0.0000000000000000000, -1.000000000000000000 ) ) ;
#288 = CYLINDRICAL_SURFACE ( 'NONE', #229, 5.999999999999998224 ) ;
#289 =( LENGTH_UNIT ( ) NAMED_UNIT ( * ) SI_UNIT ( .MILLI., .METRE. ) );
#290 = DIRECTION ( 'NONE',  ( 1.000000000000000000, -0.0000000000000000000, -0.0000000000000000000 ) ) ;
#291 = LINE ( 'NONE', #82, #6 ) ;
#292 = CARTESIAN_POINT ( 'NONE',  ( 3.000000000000000888, 0.0000000000000000000, 0.0000000000000000000 ) ) ;
#293 = CIRCLE ( 'NONE', #160, 7.499999999999999112 ) ;
#294 = AXIS2_PLACEMENT_3D ( 'NONE', #151, #248, #42 ) ;
ENDSEC;
END-ISO-10303-21;
