ISO-10303-21;
HEADER;
FILE_DESCRIPTION (( 'STEP AP214' ),
    '1' );
FILE_NAME ('Lame de coupe.STEP',
    '2021-10-12T11:11:50',
    ( '' ),
    ( '' ),
    'SwSTEP 2.0',
    'SolidWorks 2014',
    '' );
FILE_SCHEMA (( 'AUTOMOTIVE_DESIGN' ));
ENDSEC;

DATA;
#1 = LINE ( 'NONE', #48, #126 ) ;
#2 = DIRECTION ( 'NONE',  ( 0.0000000000000000000, 0.0000000000000000000, 1.000000000000000000 ) ) ;
#3 = ORIENTED_EDGE ( 'NONE', *, *, #57, .F. ) ;
#4 = DIRECTION ( 'NONE',  ( 0.8574929257125422100, -0.5144957554275297900, 0.0000000000000000000 ) ) ;
#5 = CARTESIAN_POINT ( 'NONE',  ( -41.30216750848947500, 39.18130050509390100, 1.000000000000000000 ) ) ;
#6 = VECTOR ( 'NONE', #141, 1000.000000000000000 ) ;
#7 = ORIENTED_EDGE ( 'NONE', *, *, #287, .F. ) ;
#8 = CARTESIAN_POINT ( 'NONE',  ( -45.30216750848947500, 33.18130050509390100, 1.000000000000000000 ) ) ;
#9 = STYLED_ITEM ( 'NONE', ( #114 ), #63 ) ;
#10 = UNCERTAINTY_MEASURE_WITH_UNIT (LENGTH_MEASURE( 1.000000000000000100E-005 ), #205, 'distance_accuracy_value', 'NONE');
#11 = LINE ( 'NONE', #239, #220 ) ;
#12 = ADVANCED_FACE ( 'NONE', ( #84 ), #18, .F. ) ;
#13 = LINE ( 'NONE', #297, #15 ) ;
#14 = ORIENTED_EDGE ( 'NONE', *, *, #92, .F. ) ;
#15 = VECTOR ( 'NONE', #70, 999.9999999999998900 ) ;
#16 = PLANE ( 'NONE',  #207 ) ;
#17 = EDGE_CURVE ( 'NONE', #212, #83, #161, .T. ) ;
#18 = PLANE ( 'NONE',  #108 ) ;
#19 = LINE ( 'NONE', #193, #240 ) ;
#20 = EDGE_LOOP ( 'NONE', ( #197, #51, #39, #204, #226, #222, #194 ) ) ;
#21 = ORIENTED_EDGE ( 'NONE', *, *, #156, .T. ) ;
#22 =( GEOMETRIC_REPRESENTATION_CONTEXT ( 3 ) GLOBAL_UNCERTAINTY_ASSIGNED_CONTEXT ( ( #256 ) ) GLOBAL_UNIT_ASSIGNED_CONTEXT ( ( #209, #81, #166 ) ) REPRESENTATION_CONTEXT ( 'NONE', 'WORKASPACE' ) );
#23 = DIRECTION ( 'NONE',  ( -0.0000000000000000000, -0.0000000000000000000, -1.000000000000000000 ) ) ;
#24 = EDGE_CURVE ( 'NONE', #49, #212, #221, .T. ) ;
#25 = ORIENTED_EDGE ( 'NONE', *, *, #125, .T. ) ;
#26 = APPLICATION_PROTOCOL_DEFINITION ( 'draft international standard', 'automotive_design', 1998, #164 ) ;
#27 = PLANE ( 'NONE',  #128 ) ;
#28 = PLANE ( 'NONE',  #233 ) ;
#29 = CARTESIAN_POINT ( 'NONE',  ( 0.0000000000000000000, 0.0000000000000000000, 1.000000000000000000 ) ) ;
#30 = COLOUR_RGB ( '',0.7921568627450980000, 0.8196078431372548800, 0.9333333333333333500 ) ;
#31 = VERTEX_POINT ( 'NONE', #43 ) ;
#32 = DIRECTION ( 'NONE',  ( -1.000000000000000000, -0.0000000000000000000, -0.0000000000000000000 ) ) ;
#33 = CARTESIAN_POINT ( 'NONE',  ( 0.0000000000000000000, 0.0000000000000000000, 0.0000000000000000000 ) ) ;
#34 = ORIENTED_EDGE ( 'NONE', *, *, #57, .T. ) ;
#35 = LINE ( 'NONE', #112, #272 ) ;
#36 = EDGE_CURVE ( 'NONE', #31, #145, #80, .T. ) ;
#37 = EDGE_CURVE ( 'NONE', #234, #68, #168, .T. ) ;
#38 = VERTEX_POINT ( 'NONE', #182 ) ;
#39 = ORIENTED_EDGE ( 'NONE', *, *, #92, .T. ) ;
#40 = CARTESIAN_POINT ( 'NONE',  ( 0.0000000000000000000, 0.0000000000000000000, 1.000000000000000000 ) ) ;
#41 = LINE ( 'NONE', #121, #61 ) ;
#42 = VECTOR ( 'NONE', #248, 1000.000000000000000 ) ;
#43 = CARTESIAN_POINT ( 'NONE',  ( -45.30216750848947500, 39.18130050509390100, 0.0000000000000000000 ) ) ;
#44 = PLANE ( 'NONE',  #180 ) ;
#45 = SHAPE_DEFINITION_REPRESENTATION ( #88, #85 ) ;
#46 = ORIENTED_EDGE ( 'NONE', *, *, #273, .T. ) ;
#47 = SURFACE_STYLE_USAGE ( .BOTH. , #181 ) ;
#48 = CARTESIAN_POINT ( 'NONE',  ( -40.30216750848947500, 33.18130050509390100, 1.000000000000000000 ) ) ;
#49 = VERTEX_POINT ( 'NONE', #66 ) ;
#50 = FILL_AREA_STYLE_COLOUR ( '', #288 ) ;
#51 = ORIENTED_EDGE ( 'NONE', *, *, #71, .T. ) ;
#52 = CARTESIAN_POINT ( 'NONE',  ( 0.0000000000000000000, 0.0000000000000000000, 0.0000000000000000000 ) ) ;
#53 = CARTESIAN_POINT ( 'NONE',  ( 0.0000000000000000000, 0.0000000000000000000, 0.0000000000000000000 ) ) ;
#54 = DIRECTION ( 'NONE',  ( -0.0000000000000000000, -1.000000000000000000, -0.0000000000000000000 ) ) ;
#55 = LINE ( 'NONE', #8, #73 ) ;
#56 = EDGE_LOOP ( 'NONE', ( #206, #283, #154, #34 ) ) ;
#57 = EDGE_CURVE ( 'NONE', #49, #103, #35, .T. ) ;
#58 = ADVANCED_FACE ( 'NONE', ( #184 ), #44, .F. ) ;
#59 = ADVANCED_FACE ( 'NONE', ( #228 ), #294, .F. ) ;
#60 = SURFACE_STYLE_FILL_AREA ( #295 ) ;
#61 = VECTOR ( 'NONE', #237, 999.9999999999998900 ) ;
#62 = ADVANCED_FACE ( 'NONE', ( #199 ), #16, .F. ) ;
#63 = MANIFOLD_SOLID_BREP ( 'Boss.-Extru.1', #190 ) ;
#64 = STYLED_ITEM ( 'NONE', ( #72 ), #85 ) ;
#65 = EDGE_LOOP ( 'NONE', ( #21, #87, #135, #25 ) ) ;
#66 = CARTESIAN_POINT ( 'NONE',  ( -40.30216750848947500, 24.18130050509390100, 1.000000000000000000 ) ) ;
#67 = VECTOR ( 'NONE', #100, 1000.000000000000000 ) ;
#68 = VERTEX_POINT ( 'NONE', #260 ) ;
#69 = ORIENTED_EDGE ( 'NONE', *, *, #120, .T. ) ;
#70 = DIRECTION ( 'NONE',  ( -0.8574929257125422100, 0.5144957554275299000, -0.0000000000000000000 ) ) ;
#71 = EDGE_CURVE ( 'NONE', #83, #269, #13, .T. ) ;
#72 = PRESENTATION_STYLE_ASSIGNMENT (( #76 ) ) ;
#73 = VECTOR ( 'NONE', #119, 1000.000000000000000 ) ;
#74 = ORIENTED_EDGE ( 'NONE', *, *, #156, .F. ) ;
#75 = DIRECTION ( 'NONE',  ( 1.000000000000000000, 0.0000000000000000000, 0.0000000000000000000 ) ) ;
#76 = SURFACE_STYLE_USAGE ( .BOTH. , #170 ) ;
#77 = CARTESIAN_POINT ( 'NONE',  ( 0.0000000000000000000, 14.40000000000000000, 1.000000000000000000 ) ) ;
#78 = PRODUCT ( 'Lame de coupe', 'Lame de coupe', '', ( #171 ) ) ;
#79 = FILL_AREA_STYLE ('',( #50 ) ) ;
#80 = LINE ( 'NONE', #157, #246 ) ;
#81 =( NAMED_UNIT ( * ) PLANE_ANGLE_UNIT ( ) SI_UNIT ( $, .RADIAN. ) );
#82 = FACE_OUTER_BOUND ( 'NONE', #65, .T. ) ;
#83 = VERTEX_POINT ( 'NONE', #134 ) ;
#84 = FACE_OUTER_BOUND ( 'NONE', #175, .T. ) ;
#85 = ADVANCED_BREP_SHAPE_REPRESENTATION ( 'Lame de coupe', ( #63, #247 ), #22 ) ;
#86 = LINE ( 'NONE', #213, #203 ) ;
#87 = ORIENTED_EDGE ( 'NONE', *, *, #151, .F. ) ;
#88 = PRODUCT_DEFINITION_SHAPE ( 'NONE', 'NONE',  #301 ) ;
#89 = MECHANICAL_DESIGN_GEOMETRIC_PRESENTATION_REPRESENTATION (  '', ( #9 ), #214 ) ;
#90 = DIRECTION ( 'NONE',  ( 0.0000000000000000000, -1.000000000000000000, 0.0000000000000000000 ) ) ;
#91 = FILL_AREA_STYLE_COLOUR ( '', #30 ) ;
#92 = EDGE_CURVE ( 'NONE', #269, #173, #232, .T. ) ;
#93 = CARTESIAN_POINT ( 'NONE',  ( -45.30216750848947500, 39.18130050509390100, 1.000000000000000000 ) ) ;
#94 = FACE_OUTER_BOUND ( 'NONE', #253, .T. ) ;
#95 = ORIENTED_EDGE ( 'NONE', *, *, #36, .F. ) ;
#96 = DIRECTION ( 'NONE',  ( -0.0000000000000000000, 1.000000000000000000, -0.0000000000000000000 ) ) ;
#97 = DIRECTION ( 'NONE',  ( 0.0000000000000000000, 0.0000000000000000000, -1.000000000000000000 ) ) ;
#98 = CARTESIAN_POINT ( 'NONE',  ( -45.30216750848947500, 33.18130050509390100, 0.0000000000000000000 ) ) ;
#99 = PLANE ( 'NONE',  #200 ) ;
#100 = DIRECTION ( 'NONE',  ( 1.000000000000000000, -0.0000000000000000000, -0.0000000000000000000 ) ) ;
#101 =( LENGTH_UNIT ( ) NAMED_UNIT ( * ) SI_UNIT ( .MILLI., .METRE. ) );
#102 = ADVANCED_FACE ( 'NONE', ( #117 ), #299, .F. ) ;
#103 = VERTEX_POINT ( 'NONE', #162 ) ;
#104 = ADVANCED_FACE ( 'NONE', ( #176 ), #27, .F. ) ;
#105 = VERTEX_POINT ( 'NONE', #186 ) ;
#106 = ADVANCED_FACE ( 'NONE', ( #251 ), #257, .F. ) ;
#107 = VERTEX_POINT ( 'NONE', #165 ) ;
#108 = AXIS2_PLACEMENT_3D ( 'NONE', #223, #271, #131 ) ;
#109 = LINE ( 'NONE', #137, #267 ) ;
#110 = ORIENTED_EDGE ( 'NONE', *, *, #287, .T. ) ;
#111 = DIRECTION ( 'NONE',  ( 1.000000000000000000, 0.0000000000000000000, 0.0000000000000000000 ) ) ;
#112 = CARTESIAN_POINT ( 'NONE',  ( -40.30216750848947500, 24.18130050509390100, 1.000000000000000000 ) ) ;
#113 = CARTESIAN_POINT ( 'NONE',  ( -40.30216750848947500, 33.18130050509390100, 1.000000000000000000 ) ) ;
#114 = PRESENTATION_STYLE_ASSIGNMENT (( #47 ) ) ;
#115 = CARTESIAN_POINT ( 'NONE',  ( -40.30216750848947500, 24.18130050509390100, 0.0000000000000000000 ) ) ;
#116 = DIRECTION ( 'NONE',  ( 0.0000000000000000000, 1.000000000000000000, -0.0000000000000000000 ) ) ;
#117 = FACE_OUTER_BOUND ( 'NONE', #172, .T. ) ;
#118 = DIRECTION ( 'NONE',  ( -0.5144957554275297900, -0.8574929257125422100, 0.0000000000000000000 ) ) ;
#119 = DIRECTION ( 'NONE',  ( -0.0000000000000000000, -0.0000000000000000000, -1.000000000000000000 ) ) ;
#120 = EDGE_CURVE ( 'NONE', #38, #103, #225, .T. ) ;
#121 = CARTESIAN_POINT ( 'NONE',  ( -41.30216750848947500, 39.18130050509390100, 0.0000000000000000000 ) ) ;
#122 =( NAMED_UNIT ( * ) SI_UNIT ( $, .STERADIAN. ) SOLID_ANGLE_UNIT ( ) );
#123 = LINE ( 'NONE', #142, #143 ) ;
#124 = ORIENTED_EDGE ( 'NONE', *, *, #37, .F. ) ;
#125 = EDGE_CURVE ( 'NONE', #83, #68, #183, .T. ) ;
#126 = VECTOR ( 'NONE', #254, 1000.000000000000000 ) ;
#127 = ORIENTED_EDGE ( 'NONE', *, *, #292, .T. ) ;
#128 = AXIS2_PLACEMENT_3D ( 'NONE', #136, #75, #97 ) ;
#129 = EDGE_CURVE ( 'NONE', #103, #234, #245, .T. ) ;
#130 = ORIENTED_EDGE ( 'NONE', *, *, #291, .F. ) ;
#131 = DIRECTION ( 'NONE',  ( 0.0000000000000000000, 0.0000000000000000000, 1.000000000000000000 ) ) ;
#132 = CARTESIAN_POINT ( 'NONE',  ( 0.0000000000000000000, 0.0000000000000000000, 1.000000000000000000 ) ) ;
#133 =( GEOMETRIC_REPRESENTATION_CONTEXT ( 3 ) GLOBAL_UNCERTAINTY_ASSIGNED_CONTEXT ( ( #163 ) ) GLOBAL_UNIT_ASSIGNED_CONTEXT ( ( #101, #286, #122 ) ) REPRESENTATION_CONTEXT ( 'NONE', 'WORKASPACE' ) );
#134 = CARTESIAN_POINT ( 'NONE',  ( 0.0000000000000000000, 14.40000000000000000, 1.000000000000000000 ) ) ;
#135 = ORIENTED_EDGE ( 'NONE', *, *, #71, .F. ) ;
#136 = CARTESIAN_POINT ( 'NONE',  ( -40.30216750848947500, 24.18130050509390100, 1.000000000000000000 ) ) ;
#137 = CARTESIAN_POINT ( 'NONE',  ( -41.30216750848947500, 39.18130050509390100, 1.000000000000000000 ) ) ;
#138 = VECTOR ( 'NONE', #187, 1000.000000000000100 ) ;
#139 = VERTEX_POINT ( 'NONE', #255 ) ;
#140 = DIRECTION ( 'NONE',  ( -1.000000000000000000, 0.0000000000000000000, 0.0000000000000000000 ) ) ;
#141 = DIRECTION ( 'NONE',  ( -1.000000000000000000, -0.0000000000000000000, -0.0000000000000000000 ) ) ;
#142 = CARTESIAN_POINT ( 'NONE',  ( -45.30216750848947500, 33.18130050509390100, 1.000000000000000000 ) ) ;
#143 = VECTOR ( 'NONE', #169, 1000.000000000000000 ) ;
#144 = EDGE_CURVE ( 'NONE', #105, #38, #1, .T. ) ;
#145 = VERTEX_POINT ( 'NONE', #98 ) ;
#146 = DIRECTION ( 'NONE',  ( 0.0000000000000000000, 0.0000000000000000000, 1.000000000000000000 ) ) ;
#147 = ORIENTED_EDGE ( 'NONE', *, *, #17, .F. ) ;
#148 = DIRECTION ( 'NONE',  ( -0.0000000000000000000, -0.0000000000000000000, -1.000000000000000000 ) ) ;
#149 = EDGE_CURVE ( 'NONE', #145, #38, #178, .T. ) ;
#150 = ORIENTED_EDGE ( 'NONE', *, *, #149, .F. ) ;
#151 = EDGE_CURVE ( 'NONE', #269, #107, #109, .T. ) ;
#152 = VECTOR ( 'NONE', #274, 1000.000000000000000 ) ;
#153 = AXIS2_PLACEMENT_3D ( 'NONE', #132, #158, #155 ) ;
#154 = ORIENTED_EDGE ( 'NONE', *, *, #24, .F. ) ;
#155 = DIRECTION ( 'NONE',  ( -1.000000000000000000, 0.0000000000000000000, 0.0000000000000000000 ) ) ;
#156 = EDGE_CURVE ( 'NONE', #68, #107, #41, .T. ) ;
#157 = CARTESIAN_POINT ( 'NONE',  ( -45.30216750848947500, 33.18130050509390100, 0.0000000000000000000 ) ) ;
#158 = DIRECTION ( 'NONE',  ( -0.0000000000000000000, 0.0000000000000000000, -1.000000000000000000 ) ) ;
#159 = VECTOR ( 'NONE', #96, 1000.000000000000000 ) ;
#160 = ORIENTED_EDGE ( 'NONE', *, *, #151, .T. ) ;
#161 = LINE ( 'NONE', #179, #42 ) ;
#162 = CARTESIAN_POINT ( 'NONE',  ( -40.30216750848947500, 24.18130050509390100, 0.0000000000000000000 ) ) ;
#163 = UNCERTAINTY_MEASURE_WITH_UNIT (LENGTH_MEASURE( 1.000000000000000100E-005 ), #101, 'distance_accuracy_value', 'NONE');
#164 = APPLICATION_CONTEXT ( 'automotive_design' ) ;
#165 = CARTESIAN_POINT ( 'NONE',  ( -41.30216750848947500, 39.18130050509390100, 0.0000000000000000000 ) ) ;
#166 =( NAMED_UNIT ( * ) SI_UNIT ( $, .STERADIAN. ) SOLID_ANGLE_UNIT ( ) );
#167 = VECTOR ( 'NONE', #32, 1000.000000000000000 ) ;
#168 = LINE ( 'NONE', #224, #159 ) ;
#169 = DIRECTION ( 'NONE',  ( -0.0000000000000000000, -1.000000000000000000, -0.0000000000000000000 ) ) ;
#170 = SURFACE_SIDE_STYLE ('',( #259 ) ) ;
#171 = PRODUCT_CONTEXT ( 'NONE', #242, 'mechanical' ) ;
#172 = EDGE_LOOP ( 'NONE', ( #185, #290, #276, #110 ) ) ;
#173 = VERTEX_POINT ( 'NONE', #282 ) ;
#174 = LINE ( 'NONE', #215, #167 ) ;
#175 = EDGE_LOOP ( 'NONE', ( #289, #268, #147, #46 ) ) ;
#176 = FACE_OUTER_BOUND ( 'NONE', #218, .T. ) ;
#177 = ORIENTED_EDGE ( 'NONE', *, *, #270, .F. ) ;
#178 = LINE ( 'NONE', #278, #67 ) ;
#179 = CARTESIAN_POINT ( 'NONE',  ( 0.0000000000000000000, 14.40000000000000000, 1.000000000000000000 ) ) ;
#180 = AXIS2_PLACEMENT_3D ( 'NONE', #227, #111, #250 ) ;
#181 = SURFACE_SIDE_STYLE ('',( #60 ) ) ;
#182 = CARTESIAN_POINT ( 'NONE',  ( -40.30216750848947500, 33.18130050509390100, 0.0000000000000000000 ) ) ;
#183 = LINE ( 'NONE', #77, #152 ) ;
#184 = FACE_OUTER_BOUND ( 'NONE', #188, .T. ) ;
#185 = ORIENTED_EDGE ( 'NONE', *, *, #149, .T. ) ;
#186 = CARTESIAN_POINT ( 'NONE',  ( -40.30216750848947500, 33.18130050509390100, 1.000000000000000000 ) ) ;
#187 = DIRECTION ( 'NONE',  ( 0.8574929257125422100, -0.5144957554275299000, -0.0000000000000000000 ) ) ;
#188 = EDGE_LOOP ( 'NONE', ( #261, #7, #264, #293 ) ) ;
#189 = DIRECTION ( 'NONE',  ( -0.0000000000000000000, -0.0000000000000000000, -1.000000000000000000 ) ) ;
#190 = CLOSED_SHELL ( 'NONE', ( #12, #216, #62, #58, #102, #104, #106, #59, #219 ) ) ;
#191 = AXIS2_PLACEMENT_3D ( 'NONE', #229, #230, #231 ) ;
#192 =( NAMED_UNIT ( * ) PLANE_ANGLE_UNIT ( ) SI_UNIT ( $, .RADIAN. ) );
#193 = CARTESIAN_POINT ( 'NONE',  ( -40.30216750848947500, 33.18130050509390100, 1.000000000000000000 ) ) ;
#194 = ORIENTED_EDGE ( 'NONE', *, *, #24, .T. ) ;
#195 = MECHANICAL_DESIGN_GEOMETRIC_PRESENTATION_REPRESENTATION (  '', ( #64 ), #133 ) ;
#196 = LINE ( 'NONE', #29, #296 ) ;
#197 = ORIENTED_EDGE ( 'NONE', *, *, #17, .T. ) ;
#198 = ORIENTED_EDGE ( 'NONE', *, *, #120, .F. ) ;
#199 = FACE_OUTER_BOUND ( 'NONE', #252, .T. ) ;
#200 = AXIS2_PLACEMENT_3D ( 'NONE', #5, #118, #4 ) ;
#201 = DIRECTION ( 'NONE',  ( -0.0000000000000000000, -1.000000000000000000, -0.0000000000000000000 ) ) ;
#202 = DIRECTION ( 'NONE',  ( 0.8574929257125422100, -0.5144957554275299000, -0.0000000000000000000 ) ) ;
#203 = VECTOR ( 'NONE', #54, 1000.000000000000000 ) ;
#204 = ORIENTED_EDGE ( 'NONE', *, *, #263, .T. ) ;
#205 =( LENGTH_UNIT ( ) NAMED_UNIT ( * ) SI_UNIT ( .MILLI., .METRE. ) );
#206 = ORIENTED_EDGE ( 'NONE', *, *, #129, .T. ) ;
#207 = AXIS2_PLACEMENT_3D ( 'NONE', #93, #90, #249 ) ;
#208 = DIRECTION ( 'NONE',  ( -0.0000000000000000000, -1.000000000000000000, -0.0000000000000000000 ) ) ;
#209 =( LENGTH_UNIT ( ) NAMED_UNIT ( * ) SI_UNIT ( .MILLI., .METRE. ) );
#210 = DIRECTION ( 'NONE',  ( -0.0000000000000000000, -0.0000000000000000000, -1.000000000000000000 ) ) ;
#211 = VECTOR ( 'NONE', #208, 1000.000000000000000 ) ;
#212 = VERTEX_POINT ( 'NONE', #285 ) ;
#213 = CARTESIAN_POINT ( 'NONE',  ( -40.30216750848947500, 24.18130050509390100, 1.000000000000000000 ) ) ;
#214 =( GEOMETRIC_REPRESENTATION_CONTEXT ( 3 ) GLOBAL_UNCERTAINTY_ASSIGNED_CONTEXT ( ( #10 ) ) GLOBAL_UNIT_ASSIGNED_CONTEXT ( ( #205, #192, #277 ) ) REPRESENTATION_CONTEXT ( 'NONE', 'WORKASPACE' ) );
#215 = CARTESIAN_POINT ( 'NONE',  ( -45.30216750848947500, 39.18130050509390100, 0.0000000000000000000 ) ) ;
#216 = ADVANCED_FACE ( 'NONE', ( #82 ), #99, .F. ) ;
#217 = ORIENTED_EDGE ( 'NONE', *, *, #129, .F. ) ;
#218 = EDGE_LOOP ( 'NONE', ( #69, #3, #177, #298 ) ) ;
#219 = ADVANCED_FACE ( 'NONE', ( #94 ), #28, .T. ) ;
#220 = VECTOR ( 'NONE', #189, 1000.000000000000000 ) ;
#221 = LINE ( 'NONE', #40, #241 ) ;
#222 = ORIENTED_EDGE ( 'NONE', *, *, #270, .T. ) ;
#223 = CARTESIAN_POINT ( 'NONE',  ( 0.0000000000000000000, 14.40000000000000000, 1.000000000000000000 ) ) ;
#224 = CARTESIAN_POINT ( 'NONE',  ( 0.0000000000000000000, 14.40000000000000000, 0.0000000000000000000 ) ) ;
#225 = LINE ( 'NONE', #115, #211 ) ;
#226 = ORIENTED_EDGE ( 'NONE', *, *, #275, .T. ) ;
#227 = CARTESIAN_POINT ( 'NONE',  ( -45.30216750848947500, 33.18130050509390100, 1.000000000000000000 ) ) ;
#228 = FACE_OUTER_BOUND ( 'NONE', #20, .T. ) ;
#229 = CARTESIAN_POINT ( 'NONE',  ( 0.0000000000000000000, 0.0000000000000000000, 1.000000000000000000 ) ) ;
#230 = DIRECTION ( 'NONE',  ( 0.5144957554275299000, 0.8574929257125422100, -0.0000000000000000000 ) ) ;
#231 = DIRECTION ( 'NONE',  ( -0.8574929257125422100, 0.5144957554275299000, 0.0000000000000000000 ) ) ;
#232 = LINE ( 'NONE', #280, #6 ) ;
#233 = AXIS2_PLACEMENT_3D ( 'NONE', #53, #262, #140 ) ;
#234 = VERTEX_POINT ( 'NONE', #52 ) ;
#235 = CARTESIAN_POINT ( 'NONE',  ( 0.0000000000000000000, 0.0000000000000000000, 0.0000000000000000000 ) ) ;
#236 = DIRECTION ( 'NONE',  ( 1.000000000000000000, 0.0000000000000000000, 0.0000000000000000000 ) ) ;
#237 = DIRECTION ( 'NONE',  ( -0.8574929257125422100, 0.5144957554275299000, -0.0000000000000000000 ) ) ;
#238 = CARTESIAN_POINT ( 'NONE',  ( -41.30216750848947500, 39.18130050509390100, 1.000000000000000000 ) ) ;
#239 = CARTESIAN_POINT ( 'NONE',  ( -45.30216750848947500, 39.18130050509390100, 1.000000000000000000 ) ) ;
#240 = VECTOR ( 'NONE', #284, 1000.000000000000000 ) ;
#241 = VECTOR ( 'NONE', #202, 1000.000000000000100 ) ;
#242 = APPLICATION_CONTEXT ( 'automotive_design' ) ;
#243 = PRESENTATION_LAYER_ASSIGNMENT (  '', '', ( #9 ) ) ;
#244 = AXIS2_PLACEMENT_3D ( 'NONE', #113, #116, #2 ) ;
#245 = LINE ( 'NONE', #235, #138 ) ;
#246 = VECTOR ( 'NONE', #201, 1000.000000000000000 ) ;
#247 = AXIS2_PLACEMENT_3D ( 'NONE', #33, #146, #236 ) ;
#248 = DIRECTION ( 'NONE',  ( -0.0000000000000000000, 1.000000000000000000, -0.0000000000000000000 ) ) ;
#249 = DIRECTION ( 'NONE',  ( 0.0000000000000000000, -0.0000000000000000000, -1.000000000000000000 ) ) ;
#250 = DIRECTION ( 'NONE',  ( 0.0000000000000000000, 0.0000000000000000000, -1.000000000000000000 ) ) ;
#251 = FACE_OUTER_BOUND ( 'NONE', #56, .T. ) ;
#252 = EDGE_LOOP ( 'NONE', ( #127, #130, #14, #160 ) ) ;
#253 = EDGE_LOOP ( 'NONE', ( #124, #217, #198, #150, #95, #265, #74 ) ) ;
#254 = DIRECTION ( 'NONE',  ( -0.0000000000000000000, -0.0000000000000000000, -1.000000000000000000 ) ) ;
#255 = CARTESIAN_POINT ( 'NONE',  ( -45.30216750848947500, 33.18130050509390100, 1.000000000000000000 ) ) ;
#256 = UNCERTAINTY_MEASURE_WITH_UNIT (LENGTH_MEASURE( 1.000000000000000100E-005 ), #209, 'distance_accuracy_value', 'NONE');
#257 = PLANE ( 'NONE',  #191 ) ;
#258 = PRESENTATION_LAYER_ASSIGNMENT (  '', '', ( #64 ) ) ;
#259 = SURFACE_STYLE_FILL_AREA ( #79 ) ;
#260 = CARTESIAN_POINT ( 'NONE',  ( 0.0000000000000000000, 14.40000000000000000, 0.0000000000000000000 ) ) ;
#261 = ORIENTED_EDGE ( 'NONE', *, *, #36, .T. ) ;
#262 = DIRECTION ( 'NONE',  ( -0.0000000000000000000, 0.0000000000000000000, -1.000000000000000000 ) ) ;
#263 = EDGE_CURVE ( 'NONE', #173, #139, #123, .T. ) ;
#264 = ORIENTED_EDGE ( 'NONE', *, *, #263, .F. ) ;
#265 = ORIENTED_EDGE ( 'NONE', *, *, #292, .F. ) ;
#266 = PRODUCT_DEFINITION_FORMATION_WITH_SPECIFIED_SOURCE ( 'ANY', '', #78, .NOT_KNOWN. ) ;
#267 = VECTOR ( 'NONE', #210, 1000.000000000000000 ) ;
#268 = ORIENTED_EDGE ( 'NONE', *, *, #125, .F. ) ;
#269 = VERTEX_POINT ( 'NONE', #238 ) ;
#270 = EDGE_CURVE ( 'NONE', #105, #49, #86, .T. ) ;
#271 = DIRECTION ( 'NONE',  ( -1.000000000000000000, 0.0000000000000000000, 0.0000000000000000000 ) ) ;
#272 = VECTOR ( 'NONE', #23, 1000.000000000000000 ) ;
#273 = EDGE_CURVE ( 'NONE', #212, #234, #196, .T. ) ;
#274 = DIRECTION ( 'NONE',  ( -0.0000000000000000000, -0.0000000000000000000, -1.000000000000000000 ) ) ;
#275 = EDGE_CURVE ( 'NONE', #139, #105, #19, .T. ) ;
#276 = ORIENTED_EDGE ( 'NONE', *, *, #275, .F. ) ;
#277 =( NAMED_UNIT ( * ) SI_UNIT ( $, .STERADIAN. ) SOLID_ANGLE_UNIT ( ) );
#278 = CARTESIAN_POINT ( 'NONE',  ( -40.30216750848947500, 33.18130050509390100, 0.0000000000000000000 ) ) ;
#279 = APPLICATION_PROTOCOL_DEFINITION ( 'draft international standard', 'automotive_design', 1998, #242 ) ;
#280 = CARTESIAN_POINT ( 'NONE',  ( -45.30216750848947500, 39.18130050509390100, 1.000000000000000000 ) ) ;
#281 = PRODUCT_RELATED_PRODUCT_CATEGORY ( 'part', '', ( #78 ) ) ;
#282 = CARTESIAN_POINT ( 'NONE',  ( -45.30216750848947500, 39.18130050509390100, 1.000000000000000000 ) ) ;
#283 = ORIENTED_EDGE ( 'NONE', *, *, #273, .F. ) ;
#284 = DIRECTION ( 'NONE',  ( 1.000000000000000000, -0.0000000000000000000, -0.0000000000000000000 ) ) ;
#285 = CARTESIAN_POINT ( 'NONE',  ( 0.0000000000000000000, 0.0000000000000000000, 1.000000000000000000 ) ) ;
#286 =( NAMED_UNIT ( * ) PLANE_ANGLE_UNIT ( ) SI_UNIT ( $, .RADIAN. ) );
#287 = EDGE_CURVE ( 'NONE', #139, #145, #55, .T. ) ;
#288 = COLOUR_RGB ( '',0.7921568627450980000, 0.8196078431372548800, 0.9333333333333333500 ) ;
#289 = ORIENTED_EDGE ( 'NONE', *, *, #37, .T. ) ;
#290 = ORIENTED_EDGE ( 'NONE', *, *, #144, .F. ) ;
#291 = EDGE_CURVE ( 'NONE', #173, #31, #11, .T. ) ;
#292 = EDGE_CURVE ( 'NONE', #107, #31, #174, .T. ) ;
#293 = ORIENTED_EDGE ( 'NONE', *, *, #291, .T. ) ;
#294 = PLANE ( 'NONE',  #153 ) ;
#295 = FILL_AREA_STYLE ('',( #91 ) ) ;
#296 = VECTOR ( 'NONE', #148, 1000.000000000000000 ) ;
#297 = CARTESIAN_POINT ( 'NONE',  ( -41.30216750848947500, 39.18130050509390100, 1.000000000000000000 ) ) ;
#298 = ORIENTED_EDGE ( 'NONE', *, *, #144, .T. ) ;
#299 = PLANE ( 'NONE',  #244 ) ;
#300 = PRODUCT_DEFINITION_CONTEXT ( 'detailed design', #164, 'design' ) ;
#301 = PRODUCT_DEFINITION ( 'UNKNOWN', '', #266, #300 ) ;
ENDSEC;
END-ISO-10303-21;
