ISO-10303-21;
HEADER;
/* Generated by software containing ST-Developer
 * from STEP Tools, Inc. (www.steptools.com) 
 */

FILE_DESCRIPTION(
/* description */ (''),
/* implementation_level */ '2;1');

FILE_NAME(
/* name */ 'C:/Users/Pierre/OneDrive/Bureau/Buse.step',
/* time_stamp */ '2021-10-04T23:34:16+02:00',
/* author */ (''),
/* organization */ (''),
/* preprocessor_version */ 'ST-DEVELOPER v18.1',
/* originating_system */ 'Autodesk Translation Framework v10.10.0.1391',

/* authorisation */ '');

FILE_SCHEMA (('AUTOMOTIVE_DESIGN { 1 0 10303 214 3 1 1 }'));
ENDSEC;

DATA;
#10=MECHANICAL_DESIGN_GEOMETRIC_PRESENTATION_REPRESENTATION('',(#13),#164);
#11=SHAPE_REPRESENTATION_RELATIONSHIP('SRR','None',#171,#12);
#12=ADVANCED_BREP_SHAPE_REPRESENTATION('',(#14),#163);
#13=STYLED_ITEM('',(#180),#14);
#14=MANIFOLD_SOLID_BREP('Corps2',#88);
#15=FACE_BOUND('',#32,.T.);
#16=FACE_BOUND('',#33,.T.);
#17=FACE_BOUND('',#35,.T.);
#18=FACE_BOUND('',#36,.T.);
#19=PLANE('',#111);
#20=PLANE('',#112);
#21=CIRCLE('',#109,11.5);
#22=CIRCLE('',#110,11.5);
#23=FACE_OUTER_BOUND('',#28,.T.);
#24=FACE_OUTER_BOUND('',#29,.T.);
#25=FACE_OUTER_BOUND('',#30,.T.);
#26=FACE_OUTER_BOUND('',#31,.T.);
#27=FACE_OUTER_BOUND('',#34,.T.);
#28=EDGE_LOOP('',(#62,#63,#64,#65));
#29=EDGE_LOOP('',(#66,#67,#68,#69));
#30=EDGE_LOOP('',(#70,#71,#72,#73));
#31=EDGE_LOOP('',(#74));
#32=EDGE_LOOP('',(#75));
#33=EDGE_LOOP('',(#76));
#34=EDGE_LOOP('',(#77));
#35=EDGE_LOOP('',(#78));
#36=EDGE_LOOP('',(#79));
#37=LINE('',#145,#40);
#38=LINE('',#151,#41);
#39=LINE('',#157,#42);
#40=VECTOR('',#119,0.5);
#41=VECTOR('',#126,0.499999999999999);
#42=VECTOR('',#133,11.5);
#43=ELLIPSE('',#103,0.87172339781055,0.500000000000001);
#44=ELLIPSE('',#104,0.87172339781055,0.500000000000001);
#45=ELLIPSE('',#106,0.871723397810548,0.499999999999999);
#46=ELLIPSE('',#107,0.871723397810548,0.499999999999999);
#47=VERTEX_POINT('',#142);
#48=VERTEX_POINT('',#144);
#49=VERTEX_POINT('',#148);
#50=VERTEX_POINT('',#150);
#51=VERTEX_POINT('',#154);
#52=VERTEX_POINT('',#156);
#53=EDGE_CURVE('',#47,#47,#43,.T.);
#54=EDGE_CURVE('',#47,#48,#37,.T.);
#55=EDGE_CURVE('',#48,#48,#44,.T.);
#56=EDGE_CURVE('',#49,#49,#45,.T.);
#57=EDGE_CURVE('',#49,#50,#38,.T.);
#58=EDGE_CURVE('',#50,#50,#46,.T.);
#59=EDGE_CURVE('',#51,#51,#21,.T.);
#60=EDGE_CURVE('',#51,#52,#39,.T.);
#61=EDGE_CURVE('',#52,#52,#22,.T.);
#62=ORIENTED_EDGE('',*,*,#53,.F.);
#63=ORIENTED_EDGE('',*,*,#54,.T.);
#64=ORIENTED_EDGE('',*,*,#55,.F.);
#65=ORIENTED_EDGE('',*,*,#54,.F.);
#66=ORIENTED_EDGE('',*,*,#56,.F.);
#67=ORIENTED_EDGE('',*,*,#57,.T.);
#68=ORIENTED_EDGE('',*,*,#58,.F.);
#69=ORIENTED_EDGE('',*,*,#57,.F.);
#70=ORIENTED_EDGE('',*,*,#59,.F.);
#71=ORIENTED_EDGE('',*,*,#60,.T.);
#72=ORIENTED_EDGE('',*,*,#61,.F.);
#73=ORIENTED_EDGE('',*,*,#60,.F.);
#74=ORIENTED_EDGE('',*,*,#61,.T.);
#75=ORIENTED_EDGE('',*,*,#53,.T.);
#76=ORIENTED_EDGE('',*,*,#58,.T.);
#77=ORIENTED_EDGE('',*,*,#59,.T.);
#78=ORIENTED_EDGE('',*,*,#55,.T.);
#79=ORIENTED_EDGE('',*,*,#56,.T.);
#80=CYLINDRICAL_SURFACE('',#102,0.5);
#81=CYLINDRICAL_SURFACE('',#105,0.499999999999999);
#82=CYLINDRICAL_SURFACE('',#108,11.5);
#83=ADVANCED_FACE('',(#23),#80,.F.);
#84=ADVANCED_FACE('',(#24),#81,.F.);
#85=ADVANCED_FACE('',(#25),#82,.T.);
#86=ADVANCED_FACE('',(#26,#15,#16),#19,.T.);
#87=ADVANCED_FACE('',(#27,#17,#18),#20,.F.);
#88=CLOSED_SHELL('',(#83,#84,#85,#86,#87));
#89=DERIVED_UNIT_ELEMENT(#91,1.);
#90=DERIVED_UNIT_ELEMENT(#166,-3.);
#91=(
MASS_UNIT()
NAMED_UNIT(*)
SI_UNIT(.KILO.,.GRAM.)
);
#92=DERIVED_UNIT((#89,#90));
#93=MEASURE_REPRESENTATION_ITEM('density measure',
POSITIVE_RATIO_MEASURE(7850.),#92);
#94=PROPERTY_DEFINITION_REPRESENTATION(#99,#96);
#95=PROPERTY_DEFINITION_REPRESENTATION(#100,#97);
#96=REPRESENTATION('material name',(#98),#163);
#97=REPRESENTATION('density',(#93),#163);
#98=DESCRIPTIVE_REPRESENTATION_ITEM('Acier','Acier');
#99=PROPERTY_DEFINITION('material property','material name',#173);
#100=PROPERTY_DEFINITION('material property','density of part',#173);
#101=AXIS2_PLACEMENT_3D('placement',#140,#113,#114);
#102=AXIS2_PLACEMENT_3D('',#141,#115,#116);
#103=AXIS2_PLACEMENT_3D('',#143,#117,#118);
#104=AXIS2_PLACEMENT_3D('',#146,#120,#121);
#105=AXIS2_PLACEMENT_3D('',#147,#122,#123);
#106=AXIS2_PLACEMENT_3D('',#149,#124,#125);
#107=AXIS2_PLACEMENT_3D('',#152,#127,#128);
#108=AXIS2_PLACEMENT_3D('',#153,#129,#130);
#109=AXIS2_PLACEMENT_3D('',#155,#131,#132);
#110=AXIS2_PLACEMENT_3D('',#158,#134,#135);
#111=AXIS2_PLACEMENT_3D('',#159,#136,#137);
#112=AXIS2_PLACEMENT_3D('',#160,#138,#139);
#113=DIRECTION('axis',(0.,0.,1.));
#114=DIRECTION('refdir',(1.,0.,0.));
#115=DIRECTION('center_axis',(-0.819152044288992,0.,-0.573576436351046));
#116=DIRECTION('ref_axis',(0.,-1.,0.));
#117=DIRECTION('center_axis',(0.,0.,-1.));
#118=DIRECTION('ref_axis',(-1.,0.,0.));
#119=DIRECTION('',(-0.819152044288992,0.,-0.573576436351046));
#120=DIRECTION('center_axis',(0.,0.,1.));
#121=DIRECTION('ref_axis',(-1.,0.,0.));
#122=DIRECTION('center_axis',(-0.819152044288992,0.,0.573576436351046));
#123=DIRECTION('ref_axis',(0.,-1.,0.));
#124=DIRECTION('center_axis',(0.,0.,1.));
#125=DIRECTION('ref_axis',(1.,0.,0.));
#126=DIRECTION('',(-0.819152044288992,0.,0.573576436351046));
#127=DIRECTION('center_axis',(0.,0.,-1.));
#128=DIRECTION('ref_axis',(1.,0.,0.));
#129=DIRECTION('center_axis',(0.,0.,-1.));
#130=DIRECTION('ref_axis',(1.,0.,0.));
#131=DIRECTION('center_axis',(0.,0.,-1.));
#132=DIRECTION('ref_axis',(1.,0.,0.));
#133=DIRECTION('',(0.,0.,1.));
#134=DIRECTION('center_axis',(0.,0.,1.));
#135=DIRECTION('ref_axis',(1.,0.,0.));
#136=DIRECTION('center_axis',(0.,0.,1.));
#137=DIRECTION('ref_axis',(1.,0.,0.));
#138=DIRECTION('center_axis',(0.,0.,1.));
#139=DIRECTION('ref_axis',(1.,0.,0.));
#140=CARTESIAN_POINT('',(0.,0.,0.));
#141=CARTESIAN_POINT('Origin',(0.,-7.,0.));
#142=CARTESIAN_POINT('',(1.06755326887054E-16,-6.5,0.));
#143=CARTESIAN_POINT('Origin',(0.,-7.,0.));
#144=CARTESIAN_POINT('',(-6.56948083101372,-6.5,-4.6));
#145=CARTESIAN_POINT('',(3.51214273421827E-17,-6.5,-5.01585964526763E-17));
#146=CARTESIAN_POINT('Origin',(-6.56948083101372,-7.,-4.6));
#147=CARTESIAN_POINT('Origin',(0.,7.,0.));
#148=CARTESIAN_POINT('',(6.56948083101373,7.5,-4.6));
#149=CARTESIAN_POINT('Origin',(6.56948083101373,7.,-4.6));
#150=CARTESIAN_POINT('',(-1.06755326887054E-16,7.5,0.));
#151=CARTESIAN_POINT('',(-3.51214273421827E-17,7.5,-5.01585964526762E-17));
#152=CARTESIAN_POINT('Origin',(0.,7.,0.));
#153=CARTESIAN_POINT('Origin',(0.,0.,0.));
#154=CARTESIAN_POINT('',(-11.5,-1.40834381901946E-15,-4.6));
#155=CARTESIAN_POINT('Origin',(0.,0.,-4.6));
#156=CARTESIAN_POINT('',(-11.5,-1.40834381901946E-15,0.));
#157=CARTESIAN_POINT('',(-11.5,1.40834381901946E-15,0.));
#158=CARTESIAN_POINT('Origin',(0.,0.,0.));
#159=CARTESIAN_POINT('Origin',(0.,0.,0.));
#160=CARTESIAN_POINT('Origin',(0.,0.,-4.6));
#161=UNCERTAINTY_MEASURE_WITH_UNIT(LENGTH_MEASURE(0.01),#165,
'DISTANCE_ACCURACY_VALUE',
'Maximum model space distance between geometric entities at asserted c
onnectivities');
#162=UNCERTAINTY_MEASURE_WITH_UNIT(LENGTH_MEASURE(0.01),#165,
'DISTANCE_ACCURACY_VALUE',
'Maximum model space distance between geometric entities at asserted c
onnectivities');
#163=(
GEOMETRIC_REPRESENTATION_CONTEXT(3)
GLOBAL_UNCERTAINTY_ASSIGNED_CONTEXT((#161))
GLOBAL_UNIT_ASSIGNED_CONTEXT((#165,#167,#168))
REPRESENTATION_CONTEXT('','3D')
);
#164=(
GEOMETRIC_REPRESENTATION_CONTEXT(3)
GLOBAL_UNCERTAINTY_ASSIGNED_CONTEXT((#162))
GLOBAL_UNIT_ASSIGNED_CONTEXT((#165,#167,#168))
REPRESENTATION_CONTEXT('','3D')
);
#165=(
LENGTH_UNIT()
NAMED_UNIT(*)
SI_UNIT(.MILLI.,.METRE.)
);
#166=(
LENGTH_UNIT()
NAMED_UNIT(*)
SI_UNIT($,.METRE.)
);
#167=(
NAMED_UNIT(*)
PLANE_ANGLE_UNIT()
SI_UNIT($,.RADIAN.)
);
#168=(
NAMED_UNIT(*)
SI_UNIT($,.STERADIAN.)
SOLID_ANGLE_UNIT()
);
#169=SHAPE_DEFINITION_REPRESENTATION(#170,#171);
#170=PRODUCT_DEFINITION_SHAPE('',$,#173);
#171=SHAPE_REPRESENTATION('',(#101),#163);
#172=PRODUCT_DEFINITION_CONTEXT('part definition',#177,'design');
#173=PRODUCT_DEFINITION('Buse','Buse v1',#174,#172);
#174=PRODUCT_DEFINITION_FORMATION('',$,#179);
#175=PRODUCT_RELATED_PRODUCT_CATEGORY('Buse v1','Buse v1',(#179));
#176=APPLICATION_PROTOCOL_DEFINITION('international standard',
'automotive_design',2009,#177);
#177=APPLICATION_CONTEXT(
'Core Data for Automotive Mechanical Design Process');
#178=PRODUCT_CONTEXT('part definition',#177,'mechanical');
#179=PRODUCT('Buse','Buse v1',$,(#178));
#180=PRESENTATION_STYLE_ASSIGNMENT((#181));
#181=SURFACE_STYLE_USAGE(.BOTH.,#182);
#182=SURFACE_SIDE_STYLE('',(#183));
#183=SURFACE_STYLE_FILL_AREA(#184);
#184=FILL_AREA_STYLE('Acier - Satin\X\E9',(#185));
#185=FILL_AREA_STYLE_COLOUR('Acier - Satin\X\E9',#186);
#186=COLOUR_RGB('Acier - Satin\X\E9',0.627450980392157,0.627450980392157,
0.627450980392157);
ENDSEC;
END-ISO-10303-21;
