ISO-10303-21;
HEADER;
FILE_DESCRIPTION(('CATIA V5 STEP Exchange'),'2;1');

FILE_NAME('D:\\Mes Documents\\DOC-SAUVEGARDE 2016-11-10\\CloudStation\\PRJ 03 QUAD-BIKE-CATIA V5R7\\4-3 SUSPENSION AR\\mod-4328-RD00-entretoise-D35-silent-bloc-powerflex.stp','2021-09-23T07:58:56+00:00',('none'),('none'),'CATIA Version 5 Release 19 GA (IN-10)','CATIA V5 STEP AP203','none');

FILE_SCHEMA(('CONFIG_CONTROL_DESIGN'));

ENDSEC;
/* file written by CATIA V5R19 */
DATA;
#5=PRODUCT('mod-4328-RD00-entretoise-D35-silent-bloc-powerflex','','',(#2)) ;
#1=APPLICATION_CONTEXT('configuration controlled 3D design of mechanical parts and assemblies') ;
#14=PRODUCT_DEFINITION('',' ',#6,#3) ;
#16=SECURITY_CLASSIFICATION(' ',' ',#15) ;
#15=SECURITY_CLASSIFICATION_LEVEL('unclassified') ;
#47=CARTESIAN_POINT(' ',(0.,0.,0.)) ;
#52=CARTESIAN_POINT('Axis2P3D Location',(0.,0.,12.25)) ;
#57=CARTESIAN_POINT('Axis2P3D Location',(0.,0.,-7.1054273576E-015)) ;
#61=CARTESIAN_POINT('Vertex',(5.99281923255,10.9697820236,-7.1054273576E-015)) ;
#63=CARTESIAN_POINT('Vertex',(-5.99281923255,-10.9697820236,-7.1054273576E-015)) ;
#66=CARTESIAN_POINT('Line Origine',(5.99281923255,10.9697820236,12.25)) ;
#70=CARTESIAN_POINT('Vertex',(5.99281923255,10.9697820236,9.5)) ;
#73=CARTESIAN_POINT('Axis2P3D Location',(0.,0.,9.5)) ;
#77=CARTESIAN_POINT('Vertex',(-5.99281923255,-10.9697820236,9.5)) ;
#80=CARTESIAN_POINT('Line Origine',(-5.99281923255,-10.9697820236,12.25)) ;
#92=CARTESIAN_POINT('Axis2P3D Location',(0.,0.,-7.1054273576E-015)) ;
#97=CARTESIAN_POINT('Axis2P3D Location',(0.,0.,9.5)) ;
#109=CARTESIAN_POINT('Axis2P3D Location',(0.,0.,9.5)) ;
#114=CARTESIAN_POINT('Line Origine',(7.19138307906,13.1637384284,9.94081745177)) ;
#118=CARTESIAN_POINT('Vertex',(8.38994692557,15.3576948331,10.3816349035)) ;
#121=CARTESIAN_POINT('Axis2P3D Location',(0.,0.,10.3816349035)) ;
#125=CARTESIAN_POINT('Vertex',(-8.38994692557,-15.3576948331,10.3816349035)) ;
#128=CARTESIAN_POINT('Line Origine',(-7.19138307906,-13.1637384284,9.94081745177)) ;
#140=CARTESIAN_POINT('Axis2P3D Location',(0.,0.,10.3816349035)) ;
#152=CARTESIAN_POINT('Axis2P3D Location',(0.,0.,12.25)) ;
#157=CARTESIAN_POINT('Line Origine',(8.38994692557,15.3576948331,11.3816349035)) ;
#161=CARTESIAN_POINT('Vertex',(8.38994692557,15.3576948331,12.3816349035)) ;
#164=CARTESIAN_POINT('Axis2P3D Location',(0.,0.,12.3816349035)) ;
#168=CARTESIAN_POINT('Vertex',(-8.38994692557,-15.3576948331,12.3816349035)) ;
#171=CARTESIAN_POINT('Line Origine',(-8.38994692557,-15.3576948331,11.3816349035)) ;
#183=CARTESIAN_POINT('Axis2P3D Location',(0.,0.,12.3816349035)) ;
#195=CARTESIAN_POINT('Axis2P3D Location',(0.,0.,20.5)) ;
#200=CARTESIAN_POINT('Line Origine',(7.19138307906,13.1637384284,16.4408174518)) ;
#204=CARTESIAN_POINT('Vertex',(5.99281923255,10.9697820236,20.5)) ;
#207=CARTESIAN_POINT('Axis2P3D Location',(0.,0.,20.5)) ;
#211=CARTESIAN_POINT('Vertex',(-5.99281923255,-10.9697820236,20.5)) ;
#214=CARTESIAN_POINT('Line Origine',(-7.19138307906,-13.1637384284,16.4408174518)) ;
#226=CARTESIAN_POINT('Axis2P3D Location',(0.,0.,20.5)) ;
#238=CARTESIAN_POINT('Line Origine',(5.99281923255,10.9697820236,12.25)) ;
#242=CARTESIAN_POINT('Vertex',(5.99281923255,10.9697820236,24.5)) ;
#245=CARTESIAN_POINT('Axis2P3D Location',(0.,0.,24.5)) ;
#249=CARTESIAN_POINT('Vertex',(-5.99281923255,-10.9697820236,24.5)) ;
#252=CARTESIAN_POINT('Line Origine',(-5.99281923255,-10.9697820236,12.25)) ;
#264=CARTESIAN_POINT('Axis2P3D Location',(0.,0.,24.5)) ;
#276=CARTESIAN_POINT('Axis2P3D Location',(0.,0.,12.25)) ;
#281=CARTESIAN_POINT('Axis2P3D Location',(0.,0.,24.5)) ;
#285=CARTESIAN_POINT('Vertex',(2.87655323163,5.26549537134,24.5)) ;
#287=CARTESIAN_POINT('Vertex',(-2.87655323163,-5.26549537134,24.5)) ;
#290=CARTESIAN_POINT('Line Origine',(2.87655323163,5.26549537134,12.25)) ;
#294=CARTESIAN_POINT('Vertex',(2.87655323163,5.26549537134,3.5527136788E-015)) ;
#297=CARTESIAN_POINT('Axis2P3D Location',(0.,0.,0.)) ;
#301=CARTESIAN_POINT('Vertex',(-2.87655323163,-5.26549537134,3.5527136788E-015)) ;
#304=CARTESIAN_POINT('Line Origine',(-2.87655323163,-5.26549537134,12.25)) ;
#316=CARTESIAN_POINT('Axis2P3D Location',(0.,0.,24.5)) ;
#321=CARTESIAN_POINT('Axis2P3D Location',(0.,0.,0.)) ;
#333=CARTESIAN_POINT('Axis2P3D Location',(0.,12.5,0.)) ;
#347=CARTESIAN_POINT('Axis2P3D Location',(0.,6.,24.5)) ;
#53=DIRECTION('Axis2P3D Direction',(0.,0.,-1.)) ;
#54=DIRECTION('Axis2P3D XDirection',(0.479425538604,0.87758256189,0.)) ;
#58=DIRECTION('Axis2P3D Direction',(0.,0.,-1.)) ;
#67=DIRECTION('Vector Direction',(0.,0.,-1.)) ;
#74=DIRECTION('Axis2P3D Direction',(0.,0.,-1.)) ;
#81=DIRECTION('Vector Direction',(0.,0.,-1.)) ;
#93=DIRECTION('Axis2P3D Direction',(0.,0.,-1.)) ;
#98=DIRECTION('Axis2P3D Direction',(0.,0.,-1.)) ;
#110=DIRECTION('Axis2P3D Direction',(-0.,-0.,1.)) ;
#111=DIRECTION('Axis2P3D XDirection',(0.479425538604,0.87758256189,0.)) ;
#115=DIRECTION('Vector Direction',(0.472141987409,0.864250110858,0.173648177667)) ;
#122=DIRECTION('Axis2P3D Direction',(-0.,0.,1.)) ;
#129=DIRECTION('Vector Direction',(-0.472141987409,-0.864250110858,0.173648177667)) ;
#141=DIRECTION('Axis2P3D Direction',(-0.,0.,1.)) ;
#153=DIRECTION('Axis2P3D Direction',(0.,0.,-1.)) ;
#154=DIRECTION('Axis2P3D XDirection',(0.479425538604,0.87758256189,0.)) ;
#158=DIRECTION('Vector Direction',(0.,0.,-1.)) ;
#165=DIRECTION('Axis2P3D Direction',(0.,0.,-1.)) ;
#172=DIRECTION('Vector Direction',(0.,0.,-1.)) ;
#184=DIRECTION('Axis2P3D Direction',(0.,0.,-1.)) ;
#196=DIRECTION('Axis2P3D Direction',(0.,0.,-1.)) ;
#197=DIRECTION('Axis2P3D XDirection',(0.479425538604,0.87758256189,0.)) ;
#201=DIRECTION('Vector Direction',(0.25141458683,0.460211314252,-0.851467117253)) ;
#208=DIRECTION('Axis2P3D Direction',(0.,0.,-1.)) ;
#215=DIRECTION('Vector Direction',(-0.25141458683,-0.460211314252,-0.851467117253)) ;
#227=DIRECTION('Axis2P3D Direction',(0.,0.,-1.)) ;
#239=DIRECTION('Vector Direction',(0.,0.,-1.)) ;
#246=DIRECTION('Axis2P3D Direction',(0.,0.,-1.)) ;
#253=DIRECTION('Vector Direction',(0.,0.,-1.)) ;
#265=DIRECTION('Axis2P3D Direction',(0.,0.,-1.)) ;
#277=DIRECTION('Axis2P3D Direction',(0.,0.,-1.)) ;
#278=DIRECTION('Axis2P3D XDirection',(0.479425538604,0.87758256189,0.)) ;
#282=DIRECTION('Axis2P3D Direction',(0.,0.,-1.)) ;
#291=DIRECTION('Vector Direction',(0.,0.,-1.)) ;
#298=DIRECTION('Axis2P3D Direction',(0.,0.,-1.)) ;
#305=DIRECTION('Vector Direction',(0.,0.,-1.)) ;
#317=DIRECTION('Axis2P3D Direction',(0.,0.,-1.)) ;
#322=DIRECTION('Axis2P3D Direction',(0.,0.,-1.)) ;
#334=DIRECTION('Axis2P3D Direction',(0.,0.,-1.)) ;
#335=DIRECTION('Axis2P3D XDirection',(1.,0.,0.)) ;
#348=DIRECTION('Axis2P3D Direction',(0.,0.,-1.)) ;
#349=DIRECTION('Axis2P3D XDirection',(1.,0.,0.)) ;
#48=AXIS2_PLACEMENT_3D(' ',#47,$,$) ;
#55=AXIS2_PLACEMENT_3D('Cylinder Axis2P3D',#52,#53,#54) ;
#59=AXIS2_PLACEMENT_3D('Circle Axis2P3D',#57,#58,$) ;
#75=AXIS2_PLACEMENT_3D('Circle Axis2P3D',#73,#74,$) ;
#94=AXIS2_PLACEMENT_3D('Circle Axis2P3D',#92,#93,$) ;
#99=AXIS2_PLACEMENT_3D('Circle Axis2P3D',#97,#98,$) ;
#112=AXIS2_PLACEMENT_3D('Cone Axis2P3D',#109,#110,#111) ;
#123=AXIS2_PLACEMENT_3D('Circle Axis2P3D',#121,#122,$) ;
#142=AXIS2_PLACEMENT_3D('Circle Axis2P3D',#140,#141,$) ;
#155=AXIS2_PLACEMENT_3D('Cylinder Axis2P3D',#152,#153,#154) ;
#166=AXIS2_PLACEMENT_3D('Circle Axis2P3D',#164,#165,$) ;
#185=AXIS2_PLACEMENT_3D('Circle Axis2P3D',#183,#184,$) ;
#198=AXIS2_PLACEMENT_3D('Cone Axis2P3D',#195,#196,#197) ;
#209=AXIS2_PLACEMENT_3D('Circle Axis2P3D',#207,#208,$) ;
#228=AXIS2_PLACEMENT_3D('Circle Axis2P3D',#226,#227,$) ;
#247=AXIS2_PLACEMENT_3D('Circle Axis2P3D',#245,#246,$) ;
#266=AXIS2_PLACEMENT_3D('Circle Axis2P3D',#264,#265,$) ;
#279=AXIS2_PLACEMENT_3D('Cylinder Axis2P3D',#276,#277,#278) ;
#283=AXIS2_PLACEMENT_3D('Circle Axis2P3D',#281,#282,$) ;
#299=AXIS2_PLACEMENT_3D('Circle Axis2P3D',#297,#298,$) ;
#318=AXIS2_PLACEMENT_3D('Circle Axis2P3D',#316,#317,$) ;
#323=AXIS2_PLACEMENT_3D('Circle Axis2P3D',#321,#322,$) ;
#336=AXIS2_PLACEMENT_3D('Plane Axis2P3D',#333,#334,#335) ;
#350=AXIS2_PLACEMENT_3D('Plane Axis2P3D',#347,#348,#349) ;
#40=PRODUCT_DEFINITION_SHAPE(' ',' ',#14) ;
#31=APPROVAL_PERSON_ORGANIZATION(#25,#21,#19) ;
#25=PERSON_AND_ORGANIZATION(#22,#23) ;
#22=PERSON(' ',' ',' ',$,$,$) ;
#23=ORGANIZATION(' ',' ',' ') ;
#21=APPROVAL(#20,' ') ;
#20=APPROVAL_STATUS('not_yet_approved') ;
#19=APPROVAL_ROLE('APPROVER') ;
#13=DATE_AND_TIME(#11,#12) ;
#12=LOCAL_TIME(9,58,55.,#10) ;
#10=COORDINATED_UNIVERSAL_TIME_OFFSET(0,0,.AHEAD.) ;
#86=ORIENTED_EDGE('',*,*,#65,.F.) ;
#87=ORIENTED_EDGE('',*,*,#72,.T.) ;
#88=ORIENTED_EDGE('',*,*,#79,.T.) ;
#89=ORIENTED_EDGE('',*,*,#84,.F.) ;
#103=ORIENTED_EDGE('',*,*,#96,.F.) ;
#104=ORIENTED_EDGE('',*,*,#84,.T.) ;
#105=ORIENTED_EDGE('',*,*,#101,.T.) ;
#106=ORIENTED_EDGE('',*,*,#72,.F.) ;
#134=ORIENTED_EDGE('',*,*,#79,.F.) ;
#135=ORIENTED_EDGE('',*,*,#120,.T.) ;
#136=ORIENTED_EDGE('',*,*,#127,.T.) ;
#137=ORIENTED_EDGE('',*,*,#132,.F.) ;
#146=ORIENTED_EDGE('',*,*,#101,.F.) ;
#147=ORIENTED_EDGE('',*,*,#132,.T.) ;
#148=ORIENTED_EDGE('',*,*,#144,.T.) ;
#149=ORIENTED_EDGE('',*,*,#120,.F.) ;
#177=ORIENTED_EDGE('',*,*,#127,.F.) ;
#178=ORIENTED_EDGE('',*,*,#163,.T.) ;
#179=ORIENTED_EDGE('',*,*,#170,.T.) ;
#180=ORIENTED_EDGE('',*,*,#175,.F.) ;
#189=ORIENTED_EDGE('',*,*,#144,.F.) ;
#190=ORIENTED_EDGE('',*,*,#175,.T.) ;
#191=ORIENTED_EDGE('',*,*,#187,.T.) ;
#192=ORIENTED_EDGE('',*,*,#163,.F.) ;
#220=ORIENTED_EDGE('',*,*,#170,.F.) ;
#221=ORIENTED_EDGE('',*,*,#206,.T.) ;
#222=ORIENTED_EDGE('',*,*,#213,.T.) ;
#223=ORIENTED_EDGE('',*,*,#218,.F.) ;
#232=ORIENTED_EDGE('',*,*,#187,.F.) ;
#233=ORIENTED_EDGE('',*,*,#218,.T.) ;
#234=ORIENTED_EDGE('',*,*,#230,.T.) ;
#235=ORIENTED_EDGE('',*,*,#206,.F.) ;
#258=ORIENTED_EDGE('',*,*,#213,.F.) ;
#259=ORIENTED_EDGE('',*,*,#244,.T.) ;
#260=ORIENTED_EDGE('',*,*,#251,.T.) ;
#261=ORIENTED_EDGE('',*,*,#256,.F.) ;
#270=ORIENTED_EDGE('',*,*,#230,.F.) ;
#271=ORIENTED_EDGE('',*,*,#256,.T.) ;
#272=ORIENTED_EDGE('',*,*,#268,.T.) ;
#273=ORIENTED_EDGE('',*,*,#244,.F.) ;
#310=ORIENTED_EDGE('',*,*,#289,.F.) ;
#311=ORIENTED_EDGE('',*,*,#296,.T.) ;
#312=ORIENTED_EDGE('',*,*,#303,.T.) ;
#313=ORIENTED_EDGE('',*,*,#308,.F.) ;
#327=ORIENTED_EDGE('',*,*,#320,.F.) ;
#328=ORIENTED_EDGE('',*,*,#308,.T.) ;
#329=ORIENTED_EDGE('',*,*,#325,.T.) ;
#330=ORIENTED_EDGE('',*,*,#296,.F.) ;
#339=ORIENTED_EDGE('',*,*,#96,.T.) ;
#340=ORIENTED_EDGE('',*,*,#65,.T.) ;
#343=ORIENTED_EDGE('',*,*,#303,.F.) ;
#344=ORIENTED_EDGE('',*,*,#325,.F.) ;
#353=ORIENTED_EDGE('',*,*,#251,.F.) ;
#354=ORIENTED_EDGE('',*,*,#268,.F.) ;
#357=ORIENTED_EDGE('',*,*,#320,.T.) ;
#358=ORIENTED_EDGE('',*,*,#289,.T.) ;
#345=FACE_BOUND('',#342,.T.) ;
#359=FACE_BOUND('',#356,.T.) ;
#51=CLOSED_SHELL('Closed Shell',(#91,#108,#139,#151,#182,#194,#225,#237,#263,#275,#315,#332,#346,#360)) ;
#68=VECTOR('Line Direction',#67,1.) ;
#82=VECTOR('Line Direction',#81,1.) ;
#116=VECTOR('Line Direction',#115,1.) ;
#130=VECTOR('Line Direction',#129,1.) ;
#159=VECTOR('Line Direction',#158,1.) ;
#173=VECTOR('Line Direction',#172,1.) ;
#202=VECTOR('Line Direction',#201,1.) ;
#216=VECTOR('Line Direction',#215,1.) ;
#240=VECTOR('Line Direction',#239,1.) ;
#254=VECTOR('Line Direction',#253,1.) ;
#292=VECTOR('Line Direction',#291,1.) ;
#306=VECTOR('Line Direction',#305,1.) ;
#362=ADVANCED_BREP_SHAPE_REPRESENTATION('NONE',(#361),#46) ;
#49=SHAPE_REPRESENTATION(' ',(#48),#46) ;
#91=ADVANCED_FACE('Corps principal',(#90),#56,.T.) ;
#108=ADVANCED_FACE('Corps principal',(#107),#56,.T.) ;
#139=ADVANCED_FACE('Corps principal',(#138),#113,.T.) ;
#151=ADVANCED_FACE('Corps principal',(#150),#113,.T.) ;
#182=ADVANCED_FACE('Corps principal',(#181),#156,.T.) ;
#194=ADVANCED_FACE('Corps principal',(#193),#156,.T.) ;
#225=ADVANCED_FACE('Corps principal',(#224),#199,.T.) ;
#237=ADVANCED_FACE('Corps principal',(#236),#199,.T.) ;
#263=ADVANCED_FACE('Corps principal',(#262),#56,.T.) ;
#275=ADVANCED_FACE('Corps principal',(#274),#56,.T.) ;
#315=ADVANCED_FACE('Corps principal',(#314),#280,.F.) ;
#332=ADVANCED_FACE('Corps principal',(#331),#280,.F.) ;
#346=ADVANCED_FACE('Corps principal',(#341,#345),#337,.T.) ;
#360=ADVANCED_FACE('Corps principal',(#355,#359),#351,.F.) ;
#4=APPLICATION_PROTOCOL_DEFINITION('international standard','config_control_design',1994,#1) ;
#32=APPROVAL_DATE_TIME(#13,#21) ;
#361=MANIFOLD_SOLID_BREP('Corps principal',#51) ;
#11=CALENDAR_DATE(2021,23,9) ;
#30=CC_DESIGN_APPROVAL(#21,(#16,#6,#14)) ;
#18=CC_DESIGN_DATE_AND_TIME_ASSIGNMENT(#13,#17,(#16)) ;
#29=CC_DESIGN_DATE_AND_TIME_ASSIGNMENT(#13,#28,(#14)) ;
#17=DATE_TIME_ROLE('classification_date') ;
#28=DATE_TIME_ROLE('creation_date') ;
#27=CC_DESIGN_PERSON_AND_ORGANIZATION_ASSIGNMENT(#25,#26,(#16)) ;
#33=CC_DESIGN_PERSON_AND_ORGANIZATION_ASSIGNMENT(#25,#34,(#6)) ;
#35=CC_DESIGN_PERSON_AND_ORGANIZATION_ASSIGNMENT(#25,#36,(#6,#14)) ;
#37=CC_DESIGN_PERSON_AND_ORGANIZATION_ASSIGNMENT(#25,#38,(#5)) ;
#26=PERSON_AND_ORGANIZATION_ROLE('classification_officer') ;
#34=PERSON_AND_ORGANIZATION_ROLE('design_supplier') ;
#36=PERSON_AND_ORGANIZATION_ROLE('creator') ;
#38=PERSON_AND_ORGANIZATION_ROLE('design_owner') ;
#39=CC_DESIGN_SECURITY_CLASSIFICATION(#16,(#6)) ;
#60=CIRCLE('generated circle',#59,12.5) ;
#76=CIRCLE('generated circle',#75,12.5) ;
#95=CIRCLE('generated circle',#94,12.5) ;
#100=CIRCLE('generated circle',#99,12.5) ;
#124=CIRCLE('generated circle',#123,17.5) ;
#143=CIRCLE('generated circle',#142,17.5) ;
#167=CIRCLE('generated circle',#166,17.5) ;
#186=CIRCLE('generated circle',#185,17.5) ;
#210=CIRCLE('generated circle',#209,12.5) ;
#229=CIRCLE('generated circle',#228,12.5) ;
#248=CIRCLE('generated circle',#247,12.5) ;
#267=CIRCLE('generated circle',#266,12.5) ;
#284=CIRCLE('generated circle',#283,6.) ;
#300=CIRCLE('generated circle',#299,6.) ;
#319=CIRCLE('generated circle',#318,6.) ;
#324=CIRCLE('generated circle',#323,6.) ;
#113=CONICAL_SURFACE('Cone',#112,12.5,1.3962634016) ;
#199=CONICAL_SURFACE('Cone',#198,12.5,0.552019691085) ;
#363=SHAPE_REPRESENTATION_RELATIONSHIP(' ',' ',#49,#362) ;
#56=CYLINDRICAL_SURFACE('generated cylinder',#55,12.5) ;
#156=CYLINDRICAL_SURFACE('generated cylinder',#155,17.5) ;
#280=CYLINDRICAL_SURFACE('generated cylinder',#279,6.) ;
#3=DESIGN_CONTEXT(' ',#1,'design') ;
#65=EDGE_CURVE('',#62,#64,#60,.T.) ;
#72=EDGE_CURVE('',#62,#71,#69,.F.) ;
#79=EDGE_CURVE('',#71,#78,#76,.T.) ;
#84=EDGE_CURVE('',#64,#78,#83,.F.) ;
#96=EDGE_CURVE('',#64,#62,#95,.T.) ;
#101=EDGE_CURVE('',#78,#71,#100,.T.) ;
#120=EDGE_CURVE('',#71,#119,#117,.T.) ;
#127=EDGE_CURVE('',#119,#126,#124,.F.) ;
#132=EDGE_CURVE('',#78,#126,#131,.T.) ;
#144=EDGE_CURVE('',#126,#119,#143,.F.) ;
#163=EDGE_CURVE('',#119,#162,#160,.F.) ;
#170=EDGE_CURVE('',#162,#169,#167,.T.) ;
#175=EDGE_CURVE('',#126,#169,#174,.F.) ;
#187=EDGE_CURVE('',#169,#162,#186,.T.) ;
#206=EDGE_CURVE('',#162,#205,#203,.F.) ;
#213=EDGE_CURVE('',#205,#212,#210,.T.) ;
#218=EDGE_CURVE('',#169,#212,#217,.F.) ;
#230=EDGE_CURVE('',#212,#205,#229,.T.) ;
#244=EDGE_CURVE('',#205,#243,#241,.F.) ;
#251=EDGE_CURVE('',#243,#250,#248,.T.) ;
#256=EDGE_CURVE('',#212,#250,#255,.F.) ;
#268=EDGE_CURVE('',#250,#243,#267,.T.) ;
#289=EDGE_CURVE('',#286,#288,#284,.T.) ;
#296=EDGE_CURVE('',#286,#295,#293,.T.) ;
#303=EDGE_CURVE('',#295,#302,#300,.T.) ;
#308=EDGE_CURVE('',#288,#302,#307,.T.) ;
#320=EDGE_CURVE('',#288,#286,#319,.T.) ;
#325=EDGE_CURVE('',#302,#295,#324,.T.) ;
#85=EDGE_LOOP('',(#86,#87,#88,#89)) ;
#102=EDGE_LOOP('',(#103,#104,#105,#106)) ;
#133=EDGE_LOOP('',(#134,#135,#136,#137)) ;
#145=EDGE_LOOP('',(#146,#147,#148,#149)) ;
#176=EDGE_LOOP('',(#177,#178,#179,#180)) ;
#188=EDGE_LOOP('',(#189,#190,#191,#192)) ;
#219=EDGE_LOOP('',(#220,#221,#222,#223)) ;
#231=EDGE_LOOP('',(#232,#233,#234,#235)) ;
#257=EDGE_LOOP('',(#258,#259,#260,#261)) ;
#269=EDGE_LOOP('',(#270,#271,#272,#273)) ;
#309=EDGE_LOOP('',(#310,#311,#312,#313)) ;
#326=EDGE_LOOP('',(#327,#328,#329,#330)) ;
#338=EDGE_LOOP('',(#339,#340)) ;
#342=EDGE_LOOP('',(#343,#344)) ;
#352=EDGE_LOOP('',(#353,#354)) ;
#356=EDGE_LOOP('',(#357,#358)) ;
#90=FACE_OUTER_BOUND('',#85,.T.) ;
#107=FACE_OUTER_BOUND('',#102,.T.) ;
#138=FACE_OUTER_BOUND('',#133,.T.) ;
#150=FACE_OUTER_BOUND('',#145,.T.) ;
#181=FACE_OUTER_BOUND('',#176,.T.) ;
#193=FACE_OUTER_BOUND('',#188,.T.) ;
#224=FACE_OUTER_BOUND('',#219,.T.) ;
#236=FACE_OUTER_BOUND('',#231,.T.) ;
#262=FACE_OUTER_BOUND('',#257,.T.) ;
#274=FACE_OUTER_BOUND('',#269,.T.) ;
#314=FACE_OUTER_BOUND('',#309,.T.) ;
#331=FACE_OUTER_BOUND('',#326,.T.) ;
#341=FACE_OUTER_BOUND('',#338,.T.) ;
#355=FACE_OUTER_BOUND('',#352,.T.) ;
#45=UNCERTAINTY_MEASURE_WITH_UNIT(LENGTH_MEASURE(0.005),#41,'distance_accuracy_value','CONFUSED CURVE UNCERTAINTY') ;
#69=LINE('Line',#66,#68) ;
#83=LINE('Line',#80,#82) ;
#117=LINE('Line',#114,#116) ;
#131=LINE('Line',#128,#130) ;
#160=LINE('Line',#157,#159) ;
#174=LINE('Line',#171,#173) ;
#203=LINE('Line',#200,#202) ;
#217=LINE('Line',#214,#216) ;
#241=LINE('Line',#238,#240) ;
#255=LINE('Line',#252,#254) ;
#293=LINE('Line',#290,#292) ;
#307=LINE('Line',#304,#306) ;
#2=MECHANICAL_CONTEXT(' ',#1,'mechanical') ;
#24=PERSONAL_ADDRESS(' ',' ',' ',' ',' ',' ',' ',' ',' ',' ',' ',' ',(#22),' ') ;
#337=PLANE('Plane',#336) ;
#351=PLANE('Plane',#350) ;
#43=PLANE_ANGLE_MEASURE_WITH_UNIT(PLANE_ANGLE_MEASURE(0.0174532925199),#42) ;
#7=PRODUCT_CATEGORY('part',$) ;
#9=PRODUCT_CATEGORY_RELATIONSHIP(' ',' ',#7,#8) ;
#6=PRODUCT_DEFINITION_FORMATION_WITH_SPECIFIED_SOURCE('',' ',#5,.NOT_KNOWN.) ;
#8=PRODUCT_RELATED_PRODUCT_CATEGORY('detail',$,(#5)) ;
#50=SHAPE_DEFINITION_REPRESENTATION(#40,#49) ;
#62=VERTEX_POINT('',#61) ;
#64=VERTEX_POINT('',#63) ;
#71=VERTEX_POINT('',#70) ;
#78=VERTEX_POINT('',#77) ;
#119=VERTEX_POINT('',#118) ;
#126=VERTEX_POINT('',#125) ;
#162=VERTEX_POINT('',#161) ;
#169=VERTEX_POINT('',#168) ;
#205=VERTEX_POINT('',#204) ;
#212=VERTEX_POINT('',#211) ;
#243=VERTEX_POINT('',#242) ;
#250=VERTEX_POINT('',#249) ;
#286=VERTEX_POINT('',#285) ;
#288=VERTEX_POINT('',#287) ;
#295=VERTEX_POINT('',#294) ;
#302=VERTEX_POINT('',#301) ;
#41=(LENGTH_UNIT()NAMED_UNIT(*)SI_UNIT(.MILLI.,.METRE.)) ;
#42=(NAMED_UNIT(*)PLANE_ANGLE_UNIT()SI_UNIT($,.RADIAN.)) ;
#44=(NAMED_UNIT(*)SI_UNIT($,.STERADIAN.)SOLID_ANGLE_UNIT()) ;
#46=(GEOMETRIC_REPRESENTATION_CONTEXT(3)GLOBAL_UNCERTAINTY_ASSIGNED_CONTEXT((#45))GLOBAL_UNIT_ASSIGNED_CONTEXT((#41,#42,#44))REPRESENTATION_CONTEXT(' ',' ')) ;
ENDSEC;
END-ISO-10303-21;
