  0
SECTION
  2
HEADER
  9
$ACADVER
  1
AC1015
  9
$ACADMAINTVER
 70
     6
  9
$DWGCODEPAGE
  3
ANSI_1252
  9
$INSBASE
 10
0.0
 20
0.0
 30
0.0
  9
$EXTMIN
 10
0.0
 20
0.0
 30
0.0
  9
$EXTMAX
 10
561.099854
 20
-158.069092
 30
2.0
  9
$LIMMIN
 10
0.0
 20
0.0
  9
$LIMMAX
 10
420.0
 20
297.0
  9
$ORTHOMODE
 70
     0
  9
$REGENMODE
 70
     1
  9
$FILLMODE
 70
     1
  9
$QTEXTMODE
 70
     0
  9
$MIRRTEXT
 70
     1
  9
$LTSCALE
 40
1.0
  9
$ATTMODE
 70
     1
  9
$TEXTSIZE
 40
2.5
  9
$TRACEWID
 40
1.0
  9
$TEXTSTYLE
  7
Standard
  9
$CLAYER
  8
0
  9
$CELTYPE
  6
ByLayer
  9
$CECOLOR
 62
   256
  9
$CELTSCALE
 40
1.0
  9
$DISPSILH
 70
     0
  9
$DIMSCALE
 40
1.0
  9
$DIMASZ
 40
2.5
  9
$DIMEXO
 40
0.625
  9
$DIMDLI
 40
3.75
  9
$DIMRND
 40
0.0
  9
$DIMDLE
 40
0.0
  9
$DIMEXE
 40
1.25
  9
$DIMTP
 40
0.0
  9
$DIMTM
 40
0.0
  9
$DIMTXT
 40
2.5
  9
$DIMCEN
 40
2.5
  9
$DIMTSZ
 40
0.0
  9
$DIMTOL
 70
     0
  9
$DIMLIM
 70
     0
  9
$DIMTIH
 70
     0
  9
$DIMTOH
 70
     0
  9
$DIMSE1
 70
     0
  9
$DIMSE2
 70
     0
  9
$DIMTAD
 70
     1
  9
$DIMZIN
 70
     8
  9
$DIMBLK
  1

  9
$DIMASO
 70
     1
  9
$DIMSHO
 70
     1
  9
$DIMPOST
  1

  9
$DIMAPOST
  1

  9
$DIMALT
 70
     0
  9
$DIMALTD
 70
     3
  9
$DIMALTF
 40
0.03937
  9
$DIMLFAC
 40
1.0
  9
$DIMTOFL
 70
     1
  9
$DIMTVP
 40
0.0
  9
$DIMTIX
 70
     0
  9
$DIMSOXD
 70
     0
  9
$DIMSAH
 70
     0
  9
$DIMBLK1
  1

  9
$DIMBLK2
  1

  9
$DIMSTYLE
  2

  9
$DIMCLRD
 70
     0
  9
$DIMCLRE
 70
     0
  9
$DIMCLRT
 70
     0
  9
$DIMTFAC
 40
1.0
  9
$DIMGAP
 40
0.625
  9
$DIMJUST
 70
     0
  9
$DIMSD1
 70
     0
  9
$DIMSD2
 70
     0
  9
$DIMTOLJ
 70
     0
  9
$DIMTZIN
 70
     8
  9
$DIMALTZ
 70
     0
  9
$DIMALTTZ
 70
     0
  9
$DIMUPT
 70
     0
  9
$DIMDEC
 70
     2
  9
$DIMTDEC
 70
     2
  9
$DIMALTU
 70
     2
  9
$DIMALTTD
 70
     3
  9
$DIMTXSTY
  7
Standard
  9
$DIMAUNIT
 70
     0
  9
$DIMADEC
 70
     0
  9
$DIMALTRND
 40
0.0
  9
$DIMAZIN
 70
     0
  9
$DIMDSEP
 70
    44
  9
$DIMATFIT
 70
     0
  9
$DIMFRAC
 70
     0
  9
$DIMLDRBLK
  1

  9
$DIMLUNIT
 70
     2
  9
$DIMLWD
 70
    -2
  9
$DIMLWE
 70
    -2
  9
$DIMTMOVE
 70
     0
  9
$LUNITS
 70
     2
  9
$LUPREC
 70
     4
  9
$SKETCHINC
 40
1.0
  9
$FILLETRAD
 40
2.5
  9
$AUNITS
 70
     0
  9
$AUPREC
 70
     0
  9
$MENU
  1
.
  9
$ELEVATION
 40
0.0
  9
$PELEVATION
 40
0.0
  9
$THICKNESS
 40
0.0
  9
$LIMCHECK
 70
     0
  9
$CHAMFERA
 40
2.5
  9
$CHAMFERB
 40
2.5
  9
$CHAMFERC
 40
0.0
  9
$CHAMFERD
 40
0.0
  9
$SKPOLY
 70
     0
  9
$TDCREATE
 40
0.000000000
  9
$TDUCREATE
 40
0.000000000
  9
$TDUPDATE
 40
0.000000000
  9
$TDUUPDATE
 40
0.000000000
  9
$TDINDWG
 40
0.0000000000
  9
$TDUSRTIMER
 40
0.0000000000
  9
$USRTIMER
 70
     1
  9
$ANGBASE
 50
0.0
  9
$ANGDIR
 70
     0
  9
$PDMODE
 70
     0
  9
$PDSIZE
 40
0.0
  9
$PLINEWID
 40
0.0
  9
$SPLFRAME
 70
     0
  9
$SPLINETYPE
 70
     6
  9
$SPLINESEGS
 70
     8
  9
$HANDSEED
  5
122
  9
$SURFTAB1
 70
     6
  9
$SURFTAB2
 70
     6
  9
$SURFTYPE
 70
     6
  9
$SURFU
 70
     6
  9
$SURFV
 70
     6
  9
$UCSBASE
  2

  9
$UCSNAME
  2

  9
$UCSORG
 10
0.0
 20
0.0
 30
0.0
  9
$UCSXDIR
 10
1.0
 20
0.0
 30
0.0
  9
$UCSYDIR
 10
0.0
 20
1.0
 30
0.0
  9
$UCSORTHOREF
  2

  9
$UCSORTHOVIEW
 70
     1
  9
$UCSORGTOP
 10
0.0
 20
0.0
 30
0.0
  9
$UCSORGBOTTOM
 10
0.0
 20
0.0
 30
0.0
  9
$UCSORGLEFT
 10
0.0
 20
0.0
 30
0.0
  9
$UCSORGRIGHT
 10
0.0
 20
0.0
 30
0.0
  9
$UCSORGFRONT
 10
0.0
 20
0.0
 30
0.0
  9
$UCSORGBACK
 10
0.0
 20
0.0
 30
0.0
  9
$PUCSBASE
  2

  9
$PUCSNAME
  2

  9
$PUCSORG
 10
0.0
 20
0.0
 30
0.0
  9
$PUCSXDIR
 10
1.0
 20
0.0
 30
0.0
  9
$PUCSYDIR
 10
0.0
 20
1.0
 30
0.0
  9
$PUCSORTHOREF
  2

  9
$PUCSORTHOVIEW
 70
     0
  9
$PUCSORGTOP
 10
0.0
 20
0.0
 30
0.0
  9
$PUCSORGBOTTOM
 10
0.0
 20
0.0
 30
0.0
  9
$PUCSORGLEFT
 10
0.0
 20
0.0
 30
0.0
  9
$PUCSORGRIGHT
 10
0.0
 20
0.0
 30
0.0
  9
$PUCSORGFRONT
 10
0.0
 20
0.0
 30
0.0
  9
$PUCSORGBACK
 10
0.0
 20
0.0
 30
0.0
  9
$USERI1
 70
     0
  9
$USERI2
 70
     0
  9
$USERI3
 70
     0
  9
$USERI4
 70
     0
  9
$USERI5
 70
     0
  9
$USERR1
 40
0.0
  9
$USERR2
 40
0.0
  9
$USERR3
 40
0.0
  9
$USERR4
 40
0.0
  9
$USERR5
 40
0.0
  9
$WORLDVIEW
 70
     1
  9
$SHADEDGE
 70
     3
  9
$SHADEDIF
 70
    70
  9
$TILEMODE
 70
     1
  9
$MAXACTVP
 70
    48
  9
$PINSBASE
 10
0.0
 20
0.0
 30
0.0
  9
$PLIMCHECK
 70
     0
  9
$PEXTMIN
 10
0.0
 20
0.0
 30
0.0
  9
$PEXTMAX
 10
561.099854
 20
-158.069092
 30
2.0
  9
$PLIMMIN
 10
0.0
 20
0.0
  9
$PLIMMAX
 10
420.0
 20
297.0
  9
$UNITMODE
 70
     0
  9
$VISRETAIN
 70
     0
  9
$PLINEGEN
 70
     0
  9
$PSLTSCALE
 70
     1
  9
$TREEDEPTH
 70
  3020
  9
$CMLSTYLE
  2
Standard
  9
$CMLJUST
 70
     0
  9
$CMLSCALE
 40
20.0
  9
$PROXYGRAPHICS
 70
     1
  9
$MEASUREMENT
 70
     1
  9
$CELWEIGHT
370
    -1
  9
$ENDCAPS
280
     0
  9
$JOINSTYLE
280
     0
  9
$LWDISPLAY
290
     0
  9
$INSUNITS
 70
     0
  9
$HYPERLINKBASE
  1

  9
$STYLESHEET
  1

  9
$XEDIT
290
     1
  9
$CEPSNTYPE
380
     0
  9
$PSTYLEMODE
290
     0
  9
$FINGERPRINTGUID
  2

  9
$VERSIONGUID
  2

  9
$EXTNAMES
290
     0
  9
$PSVPSCALE
 40
0.0
  0
ENDSEC
  0
SECTION
  2
CLASSES
  0
CLASS
  1
LWPOLYLINE
  2
AcDbPolyline
  3
AutoCAD 2000
 90
        0
280
     0
281
     1
  0
CLASS
  1
IMAGE
  2
AcDbRasterImage
  3
ISM
 90
      127
280
     0
281
     1
  0
CLASS
  1
OLE2FRAME
  2
AcDbOle2Frame
  3
AutoCAD 2000
 90
        0
280
     0
281
     1
  0
CLASS
  1
HATCH
  2
AcDbHatch
  3
AutoCAD 2000
 90
        0
280
     0
281
     1
  0
CLASS
  1
DICTIONARYVAR
  2
AcDbDictionaryVar
  3
AutoCAD 2000
 90
        0
280
     0
281
     0
  0
CLASS
  1
RASTERVARIABLES
  2
AcDbRasterVariables
  3
ISM
 90
        0
280
     0
281
     0
  0
CLASS
  1
IMAGEDEF
  2
AcDbRasterImageDef
  3
ISM
 90
        0
280
     0
281
     0
  0
CLASS
  1
IMAGEDEF_REACTOR
  2
AcDbRasterImageDefReactor
  3
ISM
 90
        1
280
     0
281
     0
  0
CLASS
  1
IDBUFFER
  2
AcDbIdBuffer
  3
AutoCAD 2000
 90
        0
280
     0
281
     0
  0
CLASS
  1
SPATIAL_FILTER
  2
AcDbSpatialFilter
  3
AutoCAD 2000
 90
        0
280
     0
281
     0
  0
CLASS
  1
XRECORD
  2
AcDbXrecord
  3
AutoCAD 2000
 90
        0
280
     0
281
     0
  0
CLASS
  1
SORTENTSTABLE
  2
AcDbSortentsTable
  3
AutoCAD 2000
 90
        0
280
     0
281
     0
  0
CLASS
  1
LAYER_INDEX
  2
AcDbLayerIndex
  3
AutoCAD 2000
 90
        0
280
     0
281
     0
  0
CLASS
  1
SPATIAL_INDEX
  2
AcDbSpatialIndex
  3
AutoCAD 2000
 90
        0
280
     0
281
     0
  0
CLASS
  1
OBJECT_PTR
  2
CAseDLPNTableRecord
  3
"ASE-LPNTableRecord"
 90
        1
280
     0
281
     0
  0
CLASS
  1
LAYOUT
  2
AcDbLayout
  3
AutoCAD 2000
 90
        0
280
     0
281
     0
  0
CLASS
  1
PLOTSETTINGS
  2
AcDbPlotSettings
  3
AutoCAD 2000
 90
        0
280
     0
281
     0
  0
CLASS
  1
ACDBDICTIONARYWDFLT
  2
AcDbDictionaryWithDefault
  3
AutoCAD 2000
 90
        0
280
     0
281
     0
  0
CLASS
  1
ACDBPLACEHOLDER
  2
AcDbPlaceHolder
  3
AutoCAD 2000
 90
        0
280
     0
281
     0
  0
CLASS
  1
VBA_PROJECT
  2
AcDbVbaProject
  3
acadvba
 90
        0
280
     0
281
     0
  0
CLASS
  1
WIPEOUT
  2
AcDbWipeout
  3
WipeOut|AutoCAD Express Tool|expresstools@autodesk.com
 90
      127
280
     0
281
     1
  0
CLASS
  1
WIPEOUTVARIABLES
  2
AcDbWipeoutVariables
  3
WipeOut|AutoCAD Express Tool|expresstools@autodesk.com
 90
        0
280
     0
281
     0
  0
CLASS
  1
RTEXT
  2
RText
  3
RText|AutoCAD Express Tool|expresstools@autodesk.com
 90
        0
280
     0
281
     1
  0
CLASS
  1
ARCALIGNEDTEXT
  2
AcDbArcAlignedText
  3
ATEXT|AutoCAD Express Tool|expresstools@autodesk.com
 90
        0
280
     0
281
     1
  0
ENDSEC
  0
SECTION
  2
TABLES
  0
TABLE
  2
VPORT
  5
7
100
AcDbSymbolTable
 70
     1
  0
VPORT
  5
15
100
AcDbSymbolTableRecord
100
AcDbViewportTableRecord
  2
*ACTIVE
 70
     0
 10
0.0
 20
0.0
 11
1.0
 21
1.0
 12
6.591288
 22
4.579184
 13
0.0
 23
0.0
 14
1.0
 24
1.0
 15
0.0
 25
0.0
 16
0.0
 26
0.0
 36
1.0
 17
0.0
 27
0.0
 37
0.0
 40
9.158369
 41
0.688564
 42
50.0
 43
0.0
 44
0.0
 50
0.0
 51
0.0
 71
     0
 72
   100
 73
     1
 74
     1
 75
     0
 76
     0
 77
     0
 78
     0
281
     0
 65
     0
110
0.0
120
0.0
130
0.0
111
1.0
121
0.0
131
0.0
112
0.0
122
1.0
132
0.0
345
0
346
0
 79
     0
146
0.0
  0
ENDTAB
  0
TABLE
  2
LTYPE
  5
4
100
AcDbSymbolTable
 70
     3
  0
LTYPE
  5
11
100
AcDbSymbolTableRecord
100
AcDbLinetypeTableRecord
  2
ByBlock
 70
    64
  3

 72
    65
 73
     0
 40
0.0
  0
LTYPE
  5
12
100
AcDbSymbolTableRecord
100
AcDbLinetypeTableRecord
  2
ByLayer
 70
    64
  3

 72
    65
 73
     0
 40
0.0
  0
LTYPE
  5
13
100
AcDbSymbolTableRecord
100
AcDbLinetypeTableRecord
  2
Continuous
 70
    64
  3
Solid line
 72
    65
 73
     0
 40
0.0
  0
ENDTAB
  0
TABLE
  2
LAYER
  5
2
100
AcDbSymbolTable
 70
     1
  0
LAYER
  5
14
100
AcDbSymbolTableRecord
100
AcDbLayerTableRecord
  2
0
 70
     0
 62
     7
  6
Continuous
290
     1
370
    -3
390
1D
  0
ENDTAB
  0
TABLE
  2
STYLE
  5
3
100
AcDbSymbolTable
 70
     1
  0
STYLE
  5
17
100
AcDbSymbolTableRecord
100
AcDbTextStyleTableRecord
  2
Standard
 70
     0
 40
0.0
 41
1.0
 50
0.0
 71
     0
 42
0.0
  3
txt
  4

  0
ENDTAB
  0
TABLE
  2
VIEW
  5
5
100
AcDbSymbolTable
 70
     0
  0
ENDTAB
  0
TABLE
  2
UCS
  5
6
100
AcDbSymbolTable
 70
     0
  0
ENDTAB
  0
TABLE
  2
APPID
  5
8
100
AcDbSymbolTable
 70
     1
  0
APPID
  5
16
100
AcDbSymbolTableRecord
100
AcDbRegAppTableRecord
  2
ACAD
 70
     0
  0
ENDTAB
  0
TABLE
  2
DIMSTYLE
  5
9
100
AcDbSymbolTable
 70
     1
100
AcDbDimStyleTable
 71
     0
  0
DIMSTYLE
105
18
100
AcDbSymbolTableRecord
100
AcDbDimStyleTableRecord
  2
Standard
 70
     0
  3

  4

 40
1.0
 41
0.18
 42
0.0625
 43
0.38
 44
0.18
 45
0.0
 46
0.0
 47
0.0
 48
0.0
 71
     0
 72
     0
 73
     1
 74
     1
 75
     0
 76
     0
 77
     0
 78
     0
 79
     0
140
0.18
141
0.09
142
0.0
143
25.4
144
1.0
145
0.0
146
1.0
147
0.09
148
0.0
170
     0
171
     2
172
     0
173
     0
174
     0
175
     0
176
     0
177
     0
178
     0
179
     0
271
     4
272
     4
273
     2
274
     2
275
     0
276
     0
277
     2
278
    46
279
     0
280
     0
281
     0
282
     0
283
     1
284
     0
285
     0
286
     0
288
     0
289
     3
340
17
341
0
342
0
343
0
344
0
371
    -2
372
    -2
  0
ENDTAB
  0
TABLE
  2
BLOCK_RECORD
  5
1
100
AcDbSymbolTable
 70
     0
  0
BLOCK_RECORD
  5
A
100
AcDbSymbolTableRecord
100
AcDbBlockTableRecord
  2
*MODEL_SPACE
340
20
  0
BLOCK_RECORD
  5
B
100
AcDbSymbolTableRecord
100
AcDbBlockTableRecord
  2
*PAPER_SPACE
340
21
  0
ENDTAB
  0
ENDSEC
  0
SECTION
  2
BLOCKS
  0
BLOCK
  5
D
100
AcDbEntity
  8
0
390
0
100
AcDbBlockBegin
  2
*MODEL_SPACE
 70
     0
 10
0.0
 20
0.0
 30
0.0
  3
*MODEL_SPACE
  1

  0
ENDBLK
  5
E
100
AcDbEntity
  8
0
390
0
100
AcDbBlockEnd
  0
BLOCK
  5
F
100
AcDbEntity
 67
     1
  8
0
390
0
100
AcDbBlockBegin
  2
*PAPER_SPACE
 70
     0
 10
0.0
 20
0.0
 30
0.0
  3
*PAPER_SPACE
  1

  0
ENDBLK
  5
10
100
AcDbEntity
 67
     1
  8
0
390
0
100
AcDbBlockEnd
  0
ENDSEC
  0
SECTION
  2
ENTITIES
  0
VIEWPORT
  5
121
100
AcDbEntity
 67
     1
  8
0
370
     0
390
0
 62
     0
 48
0.0
100
AcDbViewport
 10
0.0
 20
0.0
 30
0.0
 40
1000.0
 41
1000.0
 68
     1
 69
     1
 12
0.0
 22
0.0
 13
0.0
 23
0.0
 14
1.0
 24
1.0
 15
1.0
 25
1.0
 16
0.0
 26
0.0
 36
1.0
 17
0.0
 27
0.0
 37
0.0
 42
50.0
 43
0.0
 44
0.0
 45
1000.0
 50
0.0
 51
0.0
 72
   100
 90
        0
340
0
  1

281
     0
 71
     0
 74
     1
110
0.0
120
0.0
130
0.0
111
1.0
121
0.0
131
0.0
112
0.0
122
1.0
132
0.0
345
0
346
0
 79
     0
146
0.0
  0
LINE
  5
24
100
AcDbEntity
  8
0
370
    35
390
0
 62
     7
 48
0.475803
100
AcDbLine
 10
541.230835
 20
-729.29364
 30
0.0
 11
541.230835
 21
-748.325745
 31
0.0
210
0.0
220
0.0
230
1.0
  0
ARC
  5
25
100
AcDbEntity
  8
0
370
    35
390
0
 62
     7
100
AcDbCircle
 10
553.423889
 20
-630.825745
 30
0.0
 40
80.0
210
0.0
220
0.0
230
1.0
100
AcDbArc
 50
110.895853
 51
249.104154
  0
ARC
  5
26
100
AcDbEntity
  8
0
370
    35
390
0
 62
     7
100
AcDbCircle
 10
515.830811
 20
-532.35791
 30
0.0
 40
25.4
210
0.0
220
0.0
230
1.0
100
AcDbArc
 50
290.895841
 51
360.0
  0
LINE
  5
27
100
AcDbEntity
  8
0
370
    35
390
0
 62
     7
 48
0.475804
100
AcDbLine
 10
541.230835
 20
-513.325745
 30
0.0
 11
541.230835
 21
-532.35791
 31
0.0
210
0.0
220
0.0
230
1.0
  0
ARC
  5
28
100
AcDbEntity
  8
0
370
    35
390
0
 62
     7
100
AcDbCircle
 10
515.830811
 20
-729.29364
 30
0.0
 40
25.4
210
0.0
220
0.0
230
1.0
100
AcDbArc
 50
0.0
 51
69.104145
  0
LINE
  5
29
100
AcDbEntity
  8
0
370
    35
390
0
 62
     7
 48
0.15
100
AcDbLine
 10
535.230835
 20
-513.325745
 30
0.0
 11
541.230835
 21
-513.325745
 31
0.0
210
0.0
220
0.0
230
1.0
  0
LINE
  5
2A
100
AcDbEntity
  8
0
370
    35
390
0
 62
     7
 48
0.15
100
AcDbLine
 10
541.230835
 20
-748.325745
 30
0.0
 11
535.230835
 21
-748.325745
 31
0.0
210
0.0
220
0.0
230
1.0
  0
LINE
  5
2B
100
AcDbEntity
  8
0
370
    35
390
0
 62
     7
100
AcDbLine
 10
535.230835
 20
-748.325745
 30
0.0
 11
421.303558
 21
-748.325745
 31
0.0
210
0.0
220
0.0
230
1.0
  0
LINE
  5
2C
100
AcDbEntity
  8
0
370
    35
390
0
 62
     7
100
AcDbLine
 10
421.303558
 20
-513.325745
 30
0.0
 11
535.230835
 21
-513.325745
 31
0.0
210
0.0
220
0.0
230
1.0
  0
ARC
  5
2D
100
AcDbEntity
  8
0
370
    35
390
0
 62
     7
100
AcDbCircle
 10
668.830811
 20
-630.825745
 30
0.0
 40
280.0
210
0.0
220
0.0
230
1.0
100
AcDbArc
 50
155.187963
 51
204.812037
  0
LINE
  5
2E
100
AcDbEntity
  8
0
370
    35
390
0
 62
     7
 48
0.165643
100
AcDbLine
 10
414.677826
 20
-748.325745
 30
0.0
 11
421.303558
 21
-748.325745
 31
0.0
210
0.0
220
0.0
230
1.0
  0
LINE
  5
2F
100
AcDbEntity
  8
0
370
    35
390
0
 62
     7
 48
0.165643
100
AcDbLine
 10
414.677826
 20
-513.325745
 30
0.0
 11
421.303558
 21
-513.325745
 31
0.0
210
0.0
220
0.0
230
1.0
  0
LINE
  5
30
100
AcDbEntity
  8
0
370
    35
390
0
 62
     7
100
AcDbLine
 10
-768.186829
 20
-623.896851
 30
0.0
 11
-768.186829
 21
-288.896851
 31
0.0
210
0.0
220
0.0
230
1.0
  0
LINE
  5
31
100
AcDbEntity
  8
0
370
    35
390
0
 62
     7
 48
0.1875
100
AcDbLine
 10
-775.686829
 20
-623.896851
 30
0.0
 11
-768.186829
 21
-623.896851
 31
0.0
210
0.0
220
0.0
230
1.0
  0
LINE
  5
32
100
AcDbEntity
  8
0
370
    35
390
0
 62
     7
100
AcDbLine
 10
-855.686829
 20
-623.896851
 30
0.0
 11
-780.686829
 21
-623.896851
 31
0.0
210
0.0
220
0.0
230
1.0
  0
LINE
  5
33
100
AcDbEntity
  8
0
370
    35
390
0
 62
     7
 48
0.1875
100
AcDbLine
 10
-868.186829
 20
-623.896851
 30
0.0
 11
-860.686829
 21
-623.896851
 31
0.0
210
0.0
220
0.0
230
1.0
  0
LINE
  5
34
100
AcDbEntity
  8
0
370
    35
390
0
 62
     7
100
AcDbLine
 10
-868.186829
 20
-288.896851
 30
0.0
 11
-868.186829
 21
-623.896851
 31
0.0
210
0.0
220
0.0
230
1.0
  0
LINE
  5
35
100
AcDbEntity
  8
0
370
    35
390
0
 62
     7
 48
0.1875
100
AcDbLine
 10
-860.686829
 20
-288.896851
 30
0.0
 11
-868.186829
 21
-288.896851
 31
0.0
210
0.0
220
0.0
230
1.0
  0
LINE
  5
36
100
AcDbEntity
  8
0
370
    35
390
0
 62
     7
100
AcDbLine
 10
-780.686829
 20
-288.896851
 30
0.0
 11
-855.686829
 21
-288.896851
 31
0.0
210
0.0
220
0.0
230
1.0
  0
LINE
  5
37
100
AcDbEntity
  8
0
370
    35
390
0
 62
     7
 48
0.1875
100
AcDbLine
 10
-768.186829
 20
-288.896851
 30
0.0
 11
-775.686829
 21
-288.896851
 31
0.0
210
0.0
220
0.0
230
1.0
  0
LINE
  5
38
100
AcDbEntity
  8
0
370
    35
390
0
 62
     7
 48
0.092464
100
AcDbLine
 10
-780.686829
 20
-288.896851
 30
0.0
 11
-776.988281
 21
-288.896851
 31
0.0
210
0.0
220
0.0
230
1.0
  0
LINE
  5
39
100
AcDbEntity
  8
0
370
    35
390
0
 62
     7
 48
0.032536
100
AcDbLine
 10
-776.988281
 20
-288.896851
 30
0.0
 11
-775.686829
 21
-288.896851
 31
0.0
210
0.0
220
0.0
230
1.0
  0
LINE
  5
3A
100
AcDbEntity
  8
0
370
    35
390
0
 62
     7
 48
0.092464
100
AcDbLine
 10
-860.686829
 20
-288.896851
 30
0.0
 11
-856.988281
 21
-288.896851
 31
0.0
210
0.0
220
0.0
230
1.0
  0
LINE
  5
3B
100
AcDbEntity
  8
0
370
    35
390
0
 62
     7
 48
0.032536
100
AcDbLine
 10
-856.988281
 20
-288.896851
 30
0.0
 11
-855.686829
 21
-288.896851
 31
0.0
210
0.0
220
0.0
230
1.0
  0
LINE
  5
3C
100
AcDbEntity
  8
0
370
    35
390
0
 62
     7
 48
0.092464
100
AcDbLine
 10
-855.686829
 20
-623.896851
 30
0.0
 11
-859.385376
 21
-623.896851
 31
0.0
210
0.0
220
0.0
230
1.0
  0
LINE
  5
3D
100
AcDbEntity
  8
0
370
    35
390
0
 62
     7
 48
0.032536
100
AcDbLine
 10
-859.385376
 20
-623.896851
 30
0.0
 11
-860.686829
 21
-623.896851
 31
0.0
210
0.0
220
0.0
230
1.0
  0
LINE
  5
3E
100
AcDbEntity
  8
0
370
    35
390
0
 62
     7
 48
0.092464
100
AcDbLine
 10
-775.686829
 20
-623.896851
 30
0.0
 11
-779.385376
 21
-623.896851
 31
0.0
210
0.0
220
0.0
230
1.0
  0
LINE
  5
3F
100
AcDbEntity
  8
0
370
    35
390
0
 62
     7
 48
0.032536
100
AcDbLine
 10
-779.385376
 20
-623.896851
 30
0.0
 11
-780.686829
 21
-623.896851
 31
0.0
210
0.0
220
0.0
230
1.0
  0
LINE
  5
40
100
AcDbEntity
  8
0
370
    35
390
0
 62
     7
 48
0.15
100
AcDbLine
 10
-618.128784
 20
-508.892273
 30
0.0
 11
-612.128784
 21
-508.892273
 31
0.0
210
0.0
220
0.0
230
1.0
  0
LINE
  5
41
100
AcDbEntity
  8
0
370
    35
390
0
 62
     7
100
AcDbLine
 10
-612.128784
 20
-508.892273
 30
0.0
 11
-224.128754
 21
-508.892273
 31
0.0
210
0.0
220
0.0
230
1.0
  0
LINE
  5
42
100
AcDbEntity
  8
0
370
    35
390
0
 62
     7
 48
0.15
100
AcDbLine
 10
-218.128754
 20
-508.892273
 30
0.0
 11
-224.128754
 21
-508.892273
 31
0.0
210
0.0
220
0.0
230
1.0
  0
ARC
  5
43
100
AcDbEntity
  8
0
370
    35
390
0
 62
     7
100
AcDbCircle
 10
-466.128754
 20
-508.892273
 30
0.0
 40
152.0
210
0.0
220
0.0
230
1.0
100
AcDbArc
 50
180.000009
 51
202.695607
  0
ARC
  5
44
100
AcDbEntity
  8
0
370
    35
390
0
 62
     7
100
AcDbCircle
 10
-887.742188
 20
-685.218994
 30
0.0
 40
305.0
210
0.0
220
0.0
230
1.0
100
AcDbArc
 50
343.071113
 51
22.695609
  0
ARC
  5
45
100
AcDbEntity
  8
0
370
    35
390
0
 62
     7
100
AcDbCircle
 10
-570.128784
 20
-781.892273
 30
0.0
 40
27.0
210
0.0
220
0.0
230
1.0
100
AcDbArc
 50
163.071122
 51
299.487126
  0
ARC
  5
46
100
AcDbEntity
  8
0
370
    35
390
0
 62
     7
100
AcDbCircle
 10
-418.128754
 20
-1050.692261
 30
0.0
 40
281.799988
210
0.0
220
0.0
230
1.0
100
AcDbArc
 50
60.512874
 51
119.487124
  0
ARC
  5
47
100
AcDbEntity
  8
0
370
    35
390
0
 62
     7
100
AcDbCircle
 10
-266.128754
 20
-781.892273
 30
0.0
 40
27.0
210
0.0
220
0.0
230
1.0
100
AcDbArc
 50
240.512876
 51
16.928878
  0
ARC
  5
48
100
AcDbEntity
  8
0
370
    35
390
0
 62
     7
100
AcDbCircle
 10
51.48468
 20
-685.218994
 30
0.0
 40
305.0
210
0.0
220
0.0
230
1.0
100
AcDbArc
 50
157.304393
 51
196.928878
  0
ARC
  5
49
100
AcDbEntity
  8
0
370
    35
390
0
 62
     7
100
AcDbCircle
 10
-370.128754
 20
-508.892273
 30
0.0
 40
152.0
210
0.0
220
0.0
230
1.0
100
AcDbArc
 50
337.304384
 51
0.00001
  0
CIRCLE
  5
4A
100
AcDbEntity
  8
0
370
    35
390
0
 62
     7
100
AcDbCircle
 10
-318.128754
 20
-748.892273
 30
0.0
 40
3.5
210
0.0
220
0.0
230
1.0
  0
CIRCLE
  5
4B
100
AcDbEntity
  8
0
370
    35
390
0
 62
     7
100
AcDbCircle
 10
-398.128754
 20
-748.892273
 30
0.0
 40
3.5
210
0.0
220
0.0
230
1.0
  0
CIRCLE
  5
4C
100
AcDbEntity
  8
0
370
    35
390
0
 62
     7
100
AcDbCircle
 10
-570.128784
 20
-781.892273
 30
0.0
 40
3.0
210
0.0
220
0.0
230
1.0
  0
CIRCLE
  5
4D
100
AcDbEntity
  8
0
370
    35
390
0
 62
     7
100
AcDbCircle
 10
-266.128754
 20
-781.892273
 30
0.0
 40
3.0
210
0.0
220
0.0
230
1.0
  0
LINE
  5
4E
100
AcDbEntity
  8
0
370
    35
390
0
 62
     7
100
AcDbLine
 10
-364.257751
 20
-568.892273
 30
0.0
 11
-471.999756
 21
-568.892273
 31
0.0
210
0.0
220
0.0
230
1.0
  0
ARC
  5
4F
100
AcDbEntity
  8
0
370
    35
390
0
 62
     7
100
AcDbCircle
 10
-471.999756
 20
-618.892273
 30
0.0
 40
50.0
210
0.0
220
0.0
230
1.0
100
AcDbArc
 50
90.000003
 51
189.064476
  0
ARC
  5
50
100
AcDbEntity
  8
0
370
    35
390
0
 62
     7
100
AcDbCircle
 10
-887.742188
 20
-685.218994
 30
0.0
 40
371.0
210
0.0
220
0.0
230
1.0
100
AcDbArc
 50
3.979722
 51
9.064471
  0
ARC
  5
51
100
AcDbEntity
  8
0
370
    35
390
0
 62
     7
100
AcDbCircle
 10
-467.757324
 20
-656.000183
 30
0.0
 40
50.0
210
0.0
220
0.0
230
1.0
100
AcDbArc
 50
183.979728
 51
277.166751
  0
ARC
  5
52
100
AcDbEntity
  8
0
370
    35
390
0
 62
     7
100
AcDbCircle
 10
-418.128754
 20
-1050.692261
 30
0.0
 40
347.799988
210
0.0
220
0.0
230
1.0
100
AcDbArc
 50
82.833242
 51
97.166756
  0
ARC
  5
53
100
AcDbEntity
  8
0
370
    35
390
0
 62
     7
100
AcDbCircle
 10
-368.500183
 20
-656.000183
 30
0.0
 40
50.0
210
0.0
220
0.0
230
1.0
100
AcDbArc
 50
262.833244
 51
356.020278
  0
ARC
  5
54
100
AcDbEntity
  8
0
370
    35
390
0
 62
     7
100
AcDbCircle
 10
51.48468
 20
-685.218994
 30
0.0
 40
371.0
210
0.0
220
0.0
230
1.0
100
AcDbArc
 50
170.935524
 51
176.020272
  0
ARC
  5
55
100
AcDbEntity
  8
0
370
    35
390
0
 62
     7
100
AcDbCircle
 10
-364.257751
 20
-618.892273
 30
0.0
 40
50.0
210
0.0
220
0.0
230
1.0
100
AcDbArc
 50
350.93553
 51
90.000003
  0
CIRCLE
  5
56
100
AcDbEntity
  8
0
370
    35
390
0
 62
     7
100
AcDbCircle
 10
-766.497314
 20
-883.577698
 30
0.0
 40
4.0
210
0.0
220
0.0
230
1.0
  0
ARC
  5
57
100
AcDbEntity
  8
0
370
    35
390
0
 62
     7
100
AcDbCircle
 10
-398.197327
 20
-883.577698
 30
0.0
 40
50.0
210
0.0
220
0.0
230
1.0
100
AcDbArc
 50
275.960184
 51
43.173154
  0
ARC
  5
58
100
AcDbEntity
  8
0
370
    35
390
0
 62
     7
100
AcDbCircle
 10
-471.126251
 20
-951.998291
 30
0.0
 40
150.0
210
0.0
220
0.0
230
1.0
100
AcDbArc
 50
43.173154
 51
115.343563
  0
ARC
  5
59
100
AcDbEntity
  8
0
370
    35
390
0
 62
     7
100
AcDbCircle
 10
-575.997314
 20
-730.577698
 30
0.0
 40
95.0
210
0.0
220
0.0
230
1.0
100
AcDbArc
 50
244.656451
 51
295.343551
  0
ARC
  5
5A
100
AcDbEntity
  8
0
370
    35
390
0
 62
     7
100
AcDbCircle
 10
-680.868408
 20
-951.998291
 30
0.0
 40
150.0
210
0.0
220
0.0
230
1.0
100
AcDbArc
 50
64.656435
 51
136.826844
  0
ARC
  5
5B
100
AcDbEntity
  8
0
370
    35
390
0
 62
     7
100
AcDbCircle
 10
-753.797302
 20
-883.577698
 30
0.0
 40
50.0
210
0.0
220
0.0
230
1.0
100
AcDbArc
 50
136.826844
 51
264.039811
  0
ARC
  5
5C
100
AcDbEntity
  8
0
370
    35
390
0
 62
     7
100
AcDbCircle
 10
-743.413574
 20
-784.118286
 30
0.0
 40
150.0
210
0.0
220
0.0
230
1.0
100
AcDbArc
 50
264.039811
 51
287.080361
  0
ARC
  5
5D
100
AcDbEntity
  8
0
370
    35
390
0
 62
     7
100
AcDbCircle
 10
-575.997314
 20
-1328.977783
 30
0.0
 40
420.0
210
0.0
220
0.0
230
1.0
100
AcDbArc
 50
72.919639
 51
107.080366
  0
ARC
  5
5E
100
AcDbEntity
  8
0
370
    35
390
0
 62
     7
100
AcDbCircle
 10
-408.581055
 20
-784.118286
 30
0.0
 40
150.0
210
0.0
220
0.0
230
1.0
100
AcDbArc
 50
252.919634
 51
275.960184
  0
CIRCLE
  5
5F
100
AcDbEntity
  8
0
370
    35
390
0
 62
     7
100
AcDbCircle
 10
-639.497314
 20
-883.577698
 30
0.0
 40
4.0
210
0.0
220
0.0
230
1.0
  0
CIRCLE
  5
60
100
AcDbEntity
  8
0
370
    35
390
0
 62
     7
100
AcDbCircle
 10
-512.497314
 20
-883.577698
 30
0.0
 40
4.0
210
0.0
220
0.0
230
1.0
  0
CIRCLE
  5
61
100
AcDbEntity
  8
0
370
    35
390
0
 62
     7
100
AcDbCircle
 10
-385.497314
 20
-883.577698
 30
0.0
 40
4.0
210
0.0
220
0.0
230
1.0
  0
CIRCLE
  5
62
100
AcDbEntity
  8
0
370
    35
390
0
 62
     7
100
AcDbCircle
 10
478.599854
 20
-830.011841
 30
0.0
 40
3.0
210
0.0
220
0.0
230
1.0
  0
CIRCLE
  5
63
100
AcDbEntity
  8
0
370
    35
390
0
 62
     7
100
AcDbCircle
 10
308.599854
 20
-855.411865
 30
0.0
 40
3.0
210
0.0
220
0.0
230
1.0
  0
CIRCLE
  5
64
100
AcDbEntity
  8
0
370
    35
390
0
 62
     7
100
AcDbCircle
 10
308.599854
 20
-830.011841
 30
0.0
 40
3.0
210
0.0
220
0.0
230
1.0
  0
CIRCLE
  5
65
100
AcDbEntity
  8
0
370
    35
390
0
 62
     7
100
AcDbCircle
 10
478.599854
 20
-855.411865
 30
0.0
 40
3.0
210
0.0
220
0.0
230
1.0
  0
ARC
  5
66
100
AcDbEntity
  8
0
370
    35
390
0
 62
     7
100
AcDbCircle
 10
242.101044
 20
-863.011841
 30
0.0
 40
76.0
210
0.0
220
0.0
230
1.0
100
AcDbArc
 50
269.999997
 51
345.181696
  0
ARC
  5
67
100
AcDbEntity
  8
0
370
    35
390
0
 62
     7
100
AcDbCircle
 10
355.499847
 20
-893.011841
 30
0.0
 40
41.299999
210
0.0
220
0.0
230
1.0
100
AcDbArc
 50
90.000003
 51
165.181705
  0
LINE
  5
68
100
AcDbEntity
  8
0
370
    35
390
0
 62
     7
100
AcDbLine
 10
355.499847
 20
-851.711792
 30
0.0
 11
431.69986
 21
-851.711792
 31
0.0
210
0.0
220
0.0
230
1.0
  0
ARC
  5
69
100
AcDbEntity
  8
0
370
    35
390
0
 62
     7
100
AcDbCircle
 10
431.69986
 20
-893.011841
 30
0.0
 40
41.299999
210
0.0
220
0.0
230
1.0
100
AcDbArc
 50
14.818299
 51
90.000003
  0
ARC
  5
6A
100
AcDbEntity
  8
0
370
    35
390
0
 62
     7
100
AcDbCircle
 10
545.098633
 20
-863.011841
 30
0.0
 40
76.0
210
0.0
220
0.0
230
1.0
100
AcDbArc
 50
194.818295
 51
269.999997
  0
LINE
  5
6B
100
AcDbEntity
  8
0
370
    35
390
0
 62
     7
 48
0.400031
100
AcDbLine
 10
561.099854
 20
-939.011841
 30
0.0
 11
545.098633
 21
-939.011841
 31
0.0
210
0.0
220
0.0
230
1.0
  0
LINE
  5
6C
100
AcDbEntity
  8
0
370
    35
390
0
 62
     7
 48
0.15
100
AcDbLine
 10
561.099854
 20
-933.011841
 30
0.0
 11
561.099854
 21
-939.011841
 31
0.0
210
0.0
220
0.0
230
1.0
  0
LINE
  5
6D
100
AcDbEntity
  8
0
370
    35
390
0
 62
     7
 48
0.40003
100
AcDbLine
 10
242.101044
 20
-939.011841
 30
0.0
 11
226.099854
 21
-939.011841
 31
0.0
210
0.0
220
0.0
230
1.0
  0
LINE
  5
6E
100
AcDbEntity
  8
0
370
    35
390
0
 62
     7
 48
0.15
100
AcDbLine
 10
226.099854
 20
-939.011841
 30
0.0
 11
226.099854
 21
-933.011841
 31
0.0
210
0.0
220
0.0
230
1.0
  0
LINE
  5
6F
100
AcDbEntity
  8
0
370
    35
390
0
 62
     7
100
AcDbLine
 10
226.099854
 20
-933.011841
 30
0.0
 11
226.099854
 21
-869.884766
 31
0.0
210
0.0
220
0.0
230
1.0
  0
LINE
  5
70
100
AcDbEntity
  8
0
370
    35
390
0
 62
     7
100
AcDbLine
 10
561.099854
 20
-869.884766
 30
0.0
 11
561.099854
 21
-933.011841
 31
0.0
210
0.0
220
0.0
230
1.0
  0
ARC
  5
71
100
AcDbEntity
  8
0
370
    35
390
0
 62
     7
100
AcDbCircle
 10
393.599854
 20
-1018.611816
 30
0.0
 40
230.0
210
0.0
220
0.0
230
1.0
100
AcDbArc
 50
43.259205
 51
136.740797
  0
LINE
  5
72
100
AcDbEntity
  8
0
370
    35
390
0
 62
     7
 48
0.222299
100
AcDbLine
 10
226.099854
 20
-860.992798
 30
0.0
 11
226.099854
 21
-869.884766
 31
0.0
210
0.0
220
0.0
230
1.0
  0
LINE
  5
73
100
AcDbEntity
  8
0
370
    35
390
0
 62
     7
 48
0.222299
100
AcDbLine
 10
561.099854
 20
-860.992798
 30
0.0
 11
561.099854
 21
-869.884766
 31
0.0
210
0.0
220
0.0
230
1.0
  0
POINT
  5
74
100
AcDbEntity
  8
0
370
     5
390
0
 62
     7
100
AcDbPoint
 10
-98.366638
 20
-464.574188
 30
0.0
210
0.0
220
0.0
230
1.0
  0
POINT
  5
75
100
AcDbEntity
  8
0
370
     5
390
0
 62
     7
100
AcDbPoint
 10
261.633362
 20
-464.574188
 30
0.0
210
0.0
220
0.0
230
1.0
  0
LINE
  5
76
100
AcDbEntity
  8
0
370
    35
390
0
 62
     7
 48
0.168614
100
AcDbLine
 10
-185.928955
 20
-464.574188
 30
0.0
 11
-179.184387
 21
-464.574188
 31
0.0
210
0.0
220
0.0
230
1.0
  0
LINE
  5
77
100
AcDbEntity
  8
0
370
    35
390
0
 62
     7
100
AcDbLine
 10
-179.184387
 20
-464.574188
 30
0.0
 11
-107.564941
 21
-464.574188
 31
0.0
210
0.0
220
0.0
230
1.0
  0
LINE
  5
78
100
AcDbEntity
  8
0
370
    35
390
0
 62
     7
 48
0.229958
100
AcDbLine
 10
-98.366638
 20
-464.574188
 30
0.0
 11
-107.564941
 21
-464.574188
 31
0.0
210
0.0
220
0.0
230
1.0
  0
ARC
  5
79
100
AcDbEntity
  8
0
370
    35
390
0
 62
     7
100
AcDbCircle
 10
6.927856
 20
-561.848267
 30
0.0
 40
216.0
210
0.0
220
0.0
230
1.0
100
AcDbArc
 50
153.234297
 51
180.000009
  0
ARC
  5
7A
100
AcDbEntity
  8
0
370
    35
390
0
 62
     7
100
AcDbCircle
 10
-179.072144
 20
-561.848267
 30
0.0
 40
30.0
210
0.0
220
0.0
230
1.0
100
AcDbArc
 50
179.999995
 51
234.124723
  0
ARC
  5
7B
100
AcDbEntity
  8
0
370
    35
390
0
 62
     7
100
AcDbCircle
 10
-266.975586
 20
-683.392456
 30
0.0
 40
120.0
210
0.0
220
0.0
230
1.0
100
AcDbArc
 50
338.9064
 51
54.124734
  0
ARC
  5
7C
100
AcDbEntity
  8
0
370
    35
390
0
 62
     7
100
AcDbCircle
 10
-108.366638
 20
-744.574219
 30
0.0
 40
50.0
210
0.0
220
0.0
230
1.0
100
AcDbArc
 50
158.906386
 51
277.529379
  0
ARC
  5
7D
100
AcDbEntity
  8
0
370
    35
390
0
 62
     7
100
AcDbCircle
 10
81.633377
 20
-2182.072021
 30
0.0
 40
1400.0
210
0.0
220
0.0
230
1.0
100
AcDbArc
 50
82.470621
 51
97.529384
  0
ARC
  5
7E
100
AcDbEntity
  8
0
370
    35
390
0
 62
     7
100
AcDbCircle
 10
271.633392
 20
-744.574158
 30
0.0
 40
50.0
210
0.0
220
0.0
230
1.0
100
AcDbArc
 50
262.470629
 51
21.093596
  0
ARC
  5
7F
100
AcDbEntity
  8
0
370
    35
390
0
 62
     7
100
AcDbCircle
 10
430.24234
 20
-683.392456
 30
0.0
 40
120.0
210
0.0
220
0.0
230
1.0
100
AcDbArc
 50
125.875264
 51
201.0936
  0
ARC
  5
80
100
AcDbEntity
  8
0
370
    35
390
0
 62
     7
100
AcDbCircle
 10
342.338928
 20
-561.848267
 30
0.0
 40
30.0
210
0.0
220
0.0
230
1.0
100
AcDbArc
 50
305.875279
 51
0.000005
  0
ARC
  5
81
100
AcDbEntity
  8
0
370
    35
390
0
 62
     7
100
AcDbCircle
 10
156.338898
 20
-561.848267
 30
0.0
 40
216.0
210
0.0
220
0.0
230
1.0
100
AcDbArc
 50
0.000005
 51
26.765686
  0
LINE
  5
82
100
AcDbEntity
  8
0
370
    35
390
0
 62
     7
 48
0.168615
100
AcDbLine
 10
349.195709
 20
-464.574188
 30
0.0
 11
342.451111
 21
-464.574188
 31
0.0
210
0.0
220
0.0
230
1.0
  0
LINE
  5
83
100
AcDbEntity
  8
0
370
    35
390
0
 62
     7
 48
0.229958
100
AcDbLine
 10
261.633362
 20
-464.574188
 30
0.0
 11
270.831665
 21
-464.574188
 31
0.0
210
0.0
220
0.0
230
1.0
  0
LINE
  5
84
100
AcDbEntity
  8
0
370
    35
390
0
 62
     7
100
AcDbLine
 10
270.831665
 20
-464.574188
 30
0.0
 11
342.451111
 21
-464.574188
 31
0.0
210
0.0
220
0.0
230
1.0
  0
ARC
  5
85
100
AcDbEntity
  8
0
370
    35
390
0
 62
     7
100
AcDbCircle
 10
81.633377
 20
-250.098083
 30
0.0
 40
280.0
210
0.0
220
0.0
230
1.0
100
AcDbArc
 50
229.994794
 51
310.005204
  0
CIRCLE
  5
86
100
AcDbEntity
  8
0
370
    35
390
0
 62
     7
100
AcDbCircle
 10
-158.366638
 20
-484.574188
 30
0.0
 40
3.5
210
0.0
220
0.0
230
1.0
  0
CIRCLE
  5
87
100
AcDbEntity
  8
0
370
    35
390
0
 62
     7
100
AcDbCircle
 10
-108.366638
 20
-484.574188
 30
0.0
 40
3.5
210
0.0
220
0.0
230
1.0
  0
CIRCLE
  5
88
100
AcDbEntity
  8
0
370
    35
390
0
 62
     7
100
AcDbCircle
 10
321.633362
 20
-484.574188
 30
0.0
 40
3.5
210
0.0
220
0.0
230
1.0
  0
CIRCLE
  5
89
100
AcDbEntity
  8
0
370
    35
390
0
 62
     7
100
AcDbCircle
 10
342.338928
 20
-561.848267
 30
0.0
 40
3.5
210
0.0
220
0.0
230
1.0
  0
CIRCLE
  5
8A
100
AcDbEntity
  8
0
370
    35
390
0
 62
     7
100
AcDbCircle
 10
-162.601563
 20
-517.046082
 30
0.0
 40
3.5
210
0.0
220
0.0
230
1.0
  0
CIRCLE
  5
8B
100
AcDbEntity
  8
0
370
    35
390
0
 62
     7
100
AcDbCircle
 10
-175.542542
 20
-565.342346
 30
0.0
 40
3.5
210
0.0
220
0.0
230
1.0
  0
CIRCLE
  5
8C
100
AcDbEntity
  8
0
370
    35
390
0
 62
     7
100
AcDbCircle
 10
-108.366638
 20
-744.574219
 30
0.0
 40
3.0
210
0.0
220
0.0
230
1.0
  0
CIRCLE
  5
8D
100
AcDbEntity
  8
0
370
    35
390
0
 62
     7
100
AcDbCircle
 10
271.633392
 20
-744.574158
 30
0.0
 40
3.0
210
0.0
220
0.0
230
1.0
  0
ARC
  5
8E
100
AcDbEntity
  8
0
370
    35
390
0
 62
     7
100
AcDbCircle
 10
81.633377
 20
-2182.072021
 30
0.0
 40
1476.0
210
0.0
220
0.0
230
1.0
100
AcDbArc
 50
86.101112
 51
93.898893
  0
ARC
  5
8F
100
AcDbEntity
  8
0
370
    35
390
0
 62
     7
100
AcDbCircle
 10
185.395218
 20
-659.603821
 30
0.0
 40
50.0
210
0.0
220
0.0
230
1.0
100
AcDbArc
 50
266.101114
 51
354.450722
  0
ARC
  5
90
100
AcDbEntity
  8
0
370
    35
390
0
 62
     7
100
AcDbCircle
 10
430.24234
 20
-683.392456
 30
0.0
 40
196.0
210
0.0
220
0.0
230
1.0
100
AcDbArc
 50
167.706785
 51
174.450722
  0
ARC
  5
91
100
AcDbEntity
  8
0
370
    35
390
0
 62
     7
100
AcDbCircle
 10
189.882889
 20
-631.015442
 30
0.0
 40
50.0
210
0.0
220
0.0
230
1.0
100
AcDbArc
 50
347.706785
 51
105.864155
  0
ARC
  5
92
100
AcDbEntity
  8
0
370
    35
390
0
 62
     7
100
AcDbCircle
 10
81.633377
 20
-250.098083
 30
0.0
 40
346.0
210
0.0
220
0.0
230
1.0
100
AcDbArc
 50
254.135852
 51
285.86415
  0
ARC
  5
93
100
AcDbEntity
  8
0
370
    35
390
0
 62
     7
100
AcDbCircle
 10
-26.61615
 20
-631.015442
 30
0.0
 40
50.0
210
0.0
220
0.0
230
1.0
100
AcDbArc
 50
74.13585
 51
192.293215
  0
ARC
  5
94
100
AcDbEntity
  8
0
370
    35
390
0
 62
     7
100
AcDbCircle
 10
-266.975586
 20
-683.392456
 30
0.0
 40
196.0
210
0.0
220
0.0
230
1.0
100
AcDbArc
 50
5.549274
 51
12.293212
  0
ARC
  5
95
100
AcDbEntity
  8
0
370
    35
390
0
 62
     7
100
AcDbCircle
 10
-22.128479
 20
-659.603821
 30
0.0
 40
50.0
210
0.0
220
0.0
230
1.0
100
AcDbArc
 50
185.549278
 51
273.898895
  0
CIRCLE
  5
96
100
AcDbEntity
  8
0
370
    35
390
0
 62
     7
100
AcDbCircle
 10
-523.446045
 20
-325.569092
 30
0.0
 40
4.5
210
0.0
220
0.0
230
1.0
  0
ARC
  5
97
100
AcDbEntity
  8
0
370
    35
390
0
 62
     7
100
AcDbCircle
 10
-277.215698
 20
-325.569092
 30
0.0
 40
330.0
210
0.0
220
0.0
230
1.0
100
AcDbArc
 50
189.242074
 51
191.71422
  0
ARC
  5
98
100
AcDbEntity
  8
0
370
    35
390
0
 62
     7
100
AcDbCircle
 10
-769.676392
 20
-325.569092
 30
0.0
 40
330.0
210
0.0
220
0.0
230
1.0
100
AcDbArc
 50
348.285788
 51
350.757935
  0
ARC
  5
99
100
AcDbEntity
  8
0
370
    35
390
0
 62
     7
100
AcDbCircle
 10
-277.215698
 20
-325.569092
 30
0.0
 40
330.0
210
0.0
220
0.0
230
1.0
100
AcDbArc
 50
168.28578
 51
170.757926
  0
ARC
  5
9A
100
AcDbEntity
  8
0
370
    35
390
0
 62
     7
100
AcDbCircle
 10
-769.676392
 20
-325.569092
 30
0.0
 40
330.0
210
0.0
220
0.0
230
1.0
100
AcDbArc
 50
9.242066
 51
11.714212
  0
LINE
  5
9B
100
AcDbEntity
  8
0
370
    35
390
0
 62
     7
 48
0.174656
100
AcDbLine
 10
-485.346039
 20
-158.069092
 30
0.0
 11
-492.332275
 21
-158.069092
 31
0.0
210
0.0
220
0.0
230
1.0
  0
LINE
  5
9C
100
AcDbEntity
  8
0
370
    35
390
0
 62
     7
 48
0.153252
100
AcDbLine
 10
-452.679535
 20
-258.569092
 30
0.0
 11
-446.549469
 21
-258.569092
 31
0.0
210
0.0
220
0.0
230
1.0
  0
ARC
  5
9D
100
AcDbEntity
  8
0
370
    35
390
0
 62
     7
100
AcDbCircle
 10
-769.676392
 20
-325.569092
 30
0.0
 40
330.0
210
0.0
220
0.0
230
1.0
100
AcDbArc
 50
11.714212
 51
30.502477
  0
LINE
  5
9E
100
AcDbEntity
  8
0
370
    35
390
0
 62
     7
 48
0.15201
100
AcDbLine
 10
-443.960266
 20
-272.569092
 30
0.0
 11
-450.040649
 21
-272.569092
 31
0.0
210
0.0
220
0.0
230
1.0
  0
LINE
  5
9F
100
AcDbEntity
  8
0
370
    35
390
0
 62
     7
 48
0.15201
100
AcDbLine
 10
-443.960266
 20
-378.569092
 30
0.0
 11
-450.040649
 21
-378.569092
 31
0.0
210
0.0
220
0.0
230
1.0
  0
ARC
  5
A0
100
AcDbEntity
  8
0
370
    35
390
0
 62
     7
100
AcDbCircle
 10
-769.676392
 20
-325.569092
 30
0.0
 40
330.0
210
0.0
220
0.0
230
1.0
100
AcDbArc
 50
350.757935
 51
9.242066
  0
LINE
  5
A1
100
AcDbEntity
  8
0
370
    35
390
0
 62
     7
 48
0.153252
100
AcDbLine
 10
-452.679535
 20
-392.569092
 30
0.0
 11
-446.549469
 21
-392.569092
 31
0.0
210
0.0
220
0.0
230
1.0
  0
LINE
  5
A2
100
AcDbEntity
  8
0
370
    35
390
0
 62
     7
 48
0.174656
100
AcDbLine
 10
-485.346039
 20
-493.069092
 30
0.0
 11
-492.332275
 21
-493.069092
 31
0.0
210
0.0
220
0.0
230
1.0
  0
ARC
  5
A3
100
AcDbEntity
  8
0
370
    35
390
0
 62
     7
100
AcDbCircle
 10
-769.676392
 20
-325.569092
 30
0.0
 40
330.0
210
0.0
220
0.0
230
1.0
100
AcDbArc
 50
329.497523
 51
348.285788
  0
LINE
  5
A4
100
AcDbEntity
  8
0
370
    35
390
0
 62
     7
 48
0.153252
100
AcDbLine
 10
-594.212524
 20
-392.569092
 30
0.0
 11
-600.34259
 21
-392.569092
 31
0.0
210
0.0
220
0.0
230
1.0
  0
LINE
  5
A5
100
AcDbEntity
  8
0
370
    35
390
0
 62
     7
100
AcDbLine
 10
-452.679535
 20
-392.569092
 30
0.0
 11
-594.212524
 21
-392.569092
 31
0.0
210
0.0
220
0.0
230
1.0
  0
LINE
  5
A6
100
AcDbEntity
  8
0
370
    35
390
0
 62
     7
100
AcDbLine
 10
-492.332275
 20
-493.069092
 30
0.0
 11
-554.559814
 21
-493.069092
 31
0.0
210
0.0
220
0.0
230
1.0
  0
LINE
  5
A7
100
AcDbEntity
  8
0
370
    35
390
0
 62
     7
 48
0.174655
100
AcDbLine
 10
-561.546021
 20
-493.069092
 30
0.0
 11
-554.559814
 21
-493.069092
 31
0.0
210
0.0
220
0.0
230
1.0
  0
ARC
  5
A8
100
AcDbEntity
  8
0
370
    35
390
0
 62
     7
100
AcDbCircle
 10
-277.215698
 20
-325.569092
 30
0.0
 40
330.0
210
0.0
220
0.0
230
1.0
100
AcDbArc
 50
191.71422
 51
210.502486
  0
LINE
  5
A9
100
AcDbEntity
  8
0
370
    35
390
0
 62
     7
100
AcDbLine
 10
-450.040649
 20
-378.569092
 30
0.0
 11
-596.85144
 21
-378.569092
 31
0.0
210
0.0
220
0.0
230
1.0
  0
LINE
  5
AA
100
AcDbEntity
  8
0
370
    35
390
0
 62
     7
100
AcDbLine
 10
-450.040649
 20
-272.569092
 30
0.0
 11
-596.85144
 21
-272.569092
 31
0.0
210
0.0
220
0.0
230
1.0
  0
LINE
  5
AB
100
AcDbEntity
  8
0
370
    35
390
0
 62
     7
 48
0.15201
100
AcDbLine
 10
-602.931824
 20
-272.569092
 30
0.0
 11
-596.85144
 21
-272.569092
 31
0.0
210
0.0
220
0.0
230
1.0
  0
LINE
  5
AC
100
AcDbEntity
  8
0
370
    35
390
0
 62
     7
 48
0.15201
100
AcDbLine
 10
-602.931824
 20
-378.569092
 30
0.0
 11
-596.85144
 21
-378.569092
 31
0.0
210
0.0
220
0.0
230
1.0
  0
ARC
  5
AD
100
AcDbEntity
  8
0
370
    35
390
0
 62
     7
100
AcDbCircle
 10
-277.215698
 20
-325.569092
 30
0.0
 40
330.0
210
0.0
220
0.0
230
1.0
100
AcDbArc
 50
170.757926
 51
189.242074
  0
LINE
  5
AE
100
AcDbEntity
  8
0
370
    35
390
0
 62
     7
100
AcDbLine
 10
-452.679535
 20
-258.569092
 30
0.0
 11
-594.212524
 21
-258.569092
 31
0.0
210
0.0
220
0.0
230
1.0
  0
LINE
  5
AF
100
AcDbEntity
  8
0
370
    35
390
0
 62
     7
 48
0.153252
100
AcDbLine
 10
-594.212524
 20
-258.569092
 30
0.0
 11
-600.34259
 21
-258.569092
 31
0.0
210
0.0
220
0.0
230
1.0
  0
LINE
  5
B0
100
AcDbEntity
  8
0
370
    35
390
0
 62
     7
100
AcDbLine
 10
-554.559814
 20
-158.069092
 30
0.0
 11
-492.332275
 21
-158.069092
 31
0.0
210
0.0
220
0.0
230
1.0
  0
LINE
  5
B1
100
AcDbEntity
  8
0
370
    35
390
0
 62
     7
 48
0.174655
100
AcDbLine
 10
-561.546021
 20
-158.069092
 30
0.0
 11
-554.559814
 21
-158.069092
 31
0.0
210
0.0
220
0.0
230
1.0
  0
ARC
  5
B2
100
AcDbEntity
  8
0
370
    35
390
0
 62
     7
100
AcDbCircle
 10
-277.215698
 20
-325.569092
 30
0.0
 40
330.0
210
0.0
220
0.0
230
1.0
100
AcDbArc
 50
149.497514
 51
168.28578
  0
CIRCLE
  5
B3
100
AcDbEntity
  8
0
370
    35
390
0
 62
     7
100
AcDbCircle
 10
-831.573914
 20
-777.207581
 30
0.0
 40
3.0
210
0.0
220
0.0
230
1.0
  0
ARC
  5
B4
100
AcDbEntity
  8
0
370
    35
390
0
 62
     7
100
AcDbCircle
 10
-769.633362
 20
-395.491333
 30
0.0
 40
150.0
210
0.0
220
0.0
230
1.0
100
AcDbArc
 50
342.919637
 51
5.960187
  0
ARC
  5
B5
100
AcDbEntity
  8
0
370
    35
390
0
 62
     7
100
AcDbCircle
 10
-224.773956
 20
-562.907593
 30
0.0
 40
420.0
210
0.0
220
0.0
230
1.0
100
AcDbArc
 50
162.919642
 51
197.080372
  0
ARC
  5
B6
100
AcDbEntity
  8
0
370
    35
390
0
 62
     7
100
AcDbCircle
 10
-769.633362
 20
-730.323853
 30
0.0
 40
150.0
210
0.0
220
0.0
230
1.0
100
AcDbArc
 50
354.039814
 51
17.080363
  0
ARC
  5
B7
100
AcDbEntity
  8
0
370
    35
390
0
 62
     7
100
AcDbCircle
 10
-670.17395
 20
-740.707581
 30
0.0
 40
50.0
210
0.0
220
0.0
230
1.0
100
AcDbArc
 50
248.704622
 51
354.039814
  0
ARC
  5
B8
100
AcDbEntity
  8
0
370
    35
390
0
 62
     7
100
AcDbCircle
 10
-724.65033
 20
-880.465698
 30
0.0
 40
100.0
210
0.0
220
0.0
230
1.0
100
AcDbArc
 50
68.704627
 51
121.746196
  0
ARC
  5
B9
100
AcDbEntity
  8
0
370
    35
390
0
 62
     7
100
AcDbCircle
 10
-803.573975
 20
-752.907593
 30
0.0
 40
50.0
210
0.0
220
0.0
230
1.0
100
AcDbArc
 50
270.000004
 51
301.746191
  0
LINE
  5
BA
100
AcDbEntity
  8
0
370
    35
390
0
 62
     7
100
AcDbLine
 10
-803.573914
 20
-802.907593
 30
0.0
 11
-841.573914
 21
-802.907593
 31
0.0
210
0.0
220
0.0
230
1.0
  0
ARC
  5
BB
100
AcDbEntity
  8
0
370
    35
390
0
 62
     7
100
AcDbCircle
 10
-841.573975
 20
-752.907593
 30
0.0
 40
50.0
210
0.0
220
0.0
230
1.0
100
AcDbArc
 50
238.253804
 51
270.000004
  0
ARC
  5
BC
100
AcDbEntity
  8
0
370
    35
390
0
 62
     7
100
AcDbCircle
 10
-920.497559
 20
-880.465698
 30
0.0
 40
100.0
210
0.0
220
0.0
230
1.0
100
AcDbArc
 50
58.253809
 51
111.295371
  0
ARC
  5
BD
100
AcDbEntity
  8
0
370
    35
390
0
 62
     7
100
AcDbCircle
 10
-974.973938
 20
-740.707581
 30
0.0
 40
50.0
210
0.0
220
0.0
230
1.0
100
AcDbArc
 50
185.960196
 51
291.295373
  0
ARC
  5
BE
100
AcDbEntity
  8
0
370
    35
390
0
 62
     7
100
AcDbCircle
 10
-875.514526
 20
-730.323853
 30
0.0
 40
150.0
210
0.0
220
0.0
230
1.0
100
AcDbArc
 50
162.919642
 51
185.960196
  0
ARC
  5
BF
100
AcDbEntity
  8
0
370
    35
390
0
 62
     7
100
AcDbCircle
 10
-1420.374023
 20
-562.907593
 30
0.0
 40
420.0
210
0.0
220
0.0
230
1.0
100
AcDbArc
 50
342.919637
 51
17.080363
  0
ARC
  5
C0
100
AcDbEntity
  8
0
370
    35
390
0
 62
     7
100
AcDbCircle
 10
-875.514526
 20
-395.491333
 30
0.0
 40
150.0
210
0.0
220
0.0
230
1.0
100
AcDbArc
 50
174.039804
 51
197.080372
  0
ARC
  5
C1
100
AcDbEntity
  8
0
370
    35
390
0
 62
     7
100
AcDbCircle
 10
-974.973938
 20
-385.107605
 30
0.0
 40
50.0
210
0.0
220
0.0
230
1.0
100
AcDbArc
 50
46.826851
 51
174.039804
  0
ARC
  5
C2
100
AcDbEntity
  8
0
370
    35
390
0
 62
     7
100
AcDbCircle
 10
-1043.394531
 20
-458.03653
 30
0.0
 40
150.0
210
0.0
220
0.0
230
1.0
100
AcDbArc
 50
334.656446
 51
46.826851
  0
ARC
  5
C3
100
AcDbEntity
  8
0
370
    35
390
0
 62
     7
100
AcDbCircle
 10
-821.973938
 20
-562.907593
 30
0.0
 40
95.0
210
0.0
220
0.0
230
1.0
100
AcDbArc
 50
154.656438
 51
205.343562
  0
ARC
  5
C4
100
AcDbEntity
  8
0
370
    35
390
0
 62
     7
100
AcDbCircle
 10
-1043.394531
 20
-667.778687
 30
0.0
 40
150.0
210
0.0
220
0.0
230
1.0
100
AcDbArc
 50
11.703994
 51
25.343554
  0
ARC
  5
C5
100
AcDbEntity
  8
0
370
    35
390
0
 62
     7
100
AcDbCircle
 10
-847.552734
 20
-627.207581
 30
0.0
 40
50.0
210
0.0
220
0.0
230
1.0
100
AcDbArc
 50
191.703989
 51
270.000004
  0
LINE
  5
C6
100
AcDbEntity
  8
0
370
    35
390
0
 62
     7
100
AcDbLine
 10
-797.595154
 20
-677.207581
 30
0.0
 11
-847.552734
 21
-677.207581
 31
0.0
210
0.0
220
0.0
230
1.0
  0
ARC
  5
C7
100
AcDbEntity
  8
0
370
    35
390
0
 62
     7
100
AcDbCircle
 10
-797.595154
 20
-627.207581
 30
0.0
 40
50.0
210
0.0
220
0.0
230
1.0
100
AcDbArc
 50
269.999991
 51
348.296006
  0
ARC
  5
C8
100
AcDbEntity
  8
0
370
    35
390
0
 62
     7
100
AcDbCircle
 10
-601.753418
 20
-667.778687
 30
0.0
 40
150.0
210
0.0
220
0.0
230
1.0
100
AcDbArc
 50
154.656438
 51
168.296011
  0
ARC
  5
C9
100
AcDbEntity
  8
0
370
    35
390
0
 62
     7
100
AcDbCircle
 10
-823.17395
 20
-562.907593
 30
0.0
 40
95.0
210
0.0
220
0.0
230
1.0
100
AcDbArc
 50
334.656446
 51
25.343554
  0
ARC
  5
CA
100
AcDbEntity
  8
0
370
    35
390
0
 62
     7
100
AcDbCircle
 10
-601.753418
 20
-458.03653
 30
0.0
 40
150.0
210
0.0
220
0.0
230
1.0
100
AcDbArc
 50
133.173157
 51
205.343562
  0
ARC
  5
CB
100
AcDbEntity
  8
0
370
    35
390
0
 62
     7
100
AcDbCircle
 10
-670.17395
 20
-385.107605
 30
0.0
 40
50.0
210
0.0
220
0.0
230
1.0
100
AcDbArc
 50
5.960187
 51
133.173157
  0
CIRCLE
  5
CC
100
AcDbEntity
  8
0
370
    35
390
0
 62
     7
100
AcDbCircle
 10
-813.573914
 20
-777.207581
 30
0.0
 40
3.0
210
0.0
220
0.0
230
1.0
  0
CIRCLE
  5
CD
100
AcDbEntity
  8
0
370
    35
390
0
 62
     7
100
AcDbCircle
 10
-831.573975
 20
-702.207581
 30
0.0
 40
3.0
210
0.0
220
0.0
230
1.0
  0
CIRCLE
  5
CE
100
AcDbEntity
  8
0
370
    35
390
0
 62
     7
100
AcDbCircle
 10
-813.573975
 20
-702.207581
 30
0.0
 40
3.0
210
0.0
220
0.0
230
1.0
  0
CIRCLE
  5
CF
100
AcDbEntity
  8
0
370
    35
390
0
 62
     7
100
AcDbCircle
 10
-974.973938
 20
-372.407593
 30
0.0
 40
3.0
210
0.0
220
0.0
230
1.0
  0
CIRCLE
  5
D0
100
AcDbEntity
  8
0
370
    35
390
0
 62
     7
100
AcDbCircle
 10
-974.973938
 20
-499.407593
 30
0.0
 40
3.0
210
0.0
220
0.0
230
1.0
  0
CIRCLE
  5
D1
100
AcDbEntity
  8
0
370
    35
390
0
 62
     7
100
AcDbCircle
 10
-974.973938
 20
-626.407593
 30
0.0
 40
3.0
210
0.0
220
0.0
230
1.0
  0
CIRCLE
  5
D2
100
AcDbEntity
  8
0
370
    35
390
0
 62
     7
100
AcDbCircle
 10
-974.973938
 20
-753.407593
 30
0.0
 40
3.0
210
0.0
220
0.0
230
1.0
  0
CIRCLE
  5
D3
100
AcDbEntity
  8
0
370
    35
390
0
 62
     7
100
AcDbCircle
 10
-670.17395
 20
-753.407593
 30
0.0
 40
3.0
210
0.0
220
0.0
230
1.0
  0
CIRCLE
  5
D4
100
AcDbEntity
  8
0
370
    35
390
0
 62
     7
100
AcDbCircle
 10
-670.17395
 20
-626.407593
 30
0.0
 40
3.0
210
0.0
220
0.0
230
1.0
  0
CIRCLE
  5
D5
100
AcDbEntity
  8
0
370
    35
390
0
 62
     7
100
AcDbCircle
 10
-670.17395
 20
-499.407593
 30
0.0
 40
3.0
210
0.0
220
0.0
230
1.0
  0
CIRCLE
  5
D6
100
AcDbEntity
  8
0
370
    35
390
0
 62
     7
100
AcDbCircle
 10
-670.17395
 20
-372.407593
 30
0.0
 40
3.0
210
0.0
220
0.0
230
1.0
  0
CIRCLE
  5
D7
100
AcDbEntity
  8
0
370
    35
390
0
 62
     7
100
AcDbCircle
 10
-949.573975
 20
-435.907593
 30
0.0
 40
3.5
210
0.0
220
0.0
230
1.0
  0
CIRCLE
  5
D8
100
AcDbEntity
  8
0
370
    35
390
0
 62
     7
100
AcDbCircle
 10
-949.573975
 20
-562.907593
 30
0.0
 40
3.5
210
0.0
220
0.0
230
1.0
  0
CIRCLE
  5
D9
100
AcDbEntity
  8
0
370
    35
390
0
 62
     7
100
AcDbCircle
 10
-949.573975
 20
-689.907593
 30
0.0
 40
3.5
210
0.0
220
0.0
230
1.0
  0
CIRCLE
  5
DA
100
AcDbEntity
  8
0
370
    35
390
0
 62
     7
100
AcDbCircle
 10
-695.573975
 20
-689.907593
 30
0.0
 40
3.5
210
0.0
220
0.0
230
1.0
  0
CIRCLE
  5
DB
100
AcDbEntity
  8
0
370
    35
390
0
 62
     7
100
AcDbCircle
 10
-695.573975
 20
-562.907593
 30
0.0
 40
3.5
210
0.0
220
0.0
230
1.0
  0
CIRCLE
  5
DC
100
AcDbEntity
  8
0
370
    35
390
0
 62
     7
100
AcDbCircle
 10
-695.573975
 20
-435.907593
 30
0.0
 40
3.5
210
0.0
220
0.0
230
1.0
  0
POINT
  5
DD
100
AcDbEntity
  8
0
370
     5
390
0
 62
     7
100
AcDbPoint
 10
50.262695
 20
-495.015167
 30
0.0
210
0.0
220
0.0
230
1.0
  0
POINT
  5
DE
100
AcDbEntity
  8
0
370
     5
390
0
 62
     7
100
AcDbPoint
 10
-309.737305
 20
-495.015167
 30
0.0
210
0.0
220
0.0
230
1.0
  0
LINE
  5
DF
100
AcDbEntity
  8
0
370
    35
390
0
 62
     7
 48
0.168614
100
AcDbLine
 10
137.825012
 20
-495.015167
 30
0.0
 11
131.080444
 21
-495.015167
 31
0.0
210
0.0
220
0.0
230
1.0
  0
LINE
  5
E0
100
AcDbEntity
  8
0
370
    35
390
0
 62
     7
100
AcDbLine
 10
131.080444
 20
-495.015167
 30
0.0
 11
59.460999
 21
-495.015167
 31
0.0
210
0.0
220
0.0
230
1.0
  0
LINE
  5
E1
100
AcDbEntity
  8
0
370
    35
390
0
 62
     7
 48
0.229958
100
AcDbLine
 10
50.262695
 20
-495.015167
 30
0.0
 11
59.460999
 21
-495.015167
 31
0.0
210
0.0
220
0.0
230
1.0
  0
ARC
  5
E2
100
AcDbEntity
  8
0
370
    35
390
0
 62
     7
100
AcDbCircle
 10
-55.031799
 20
-397.741089
 30
0.0
 40
216.0
210
0.0
220
0.0
230
1.0
100
AcDbArc
 50
333.234302
 51
0.00001
  0
ARC
  5
E3
100
AcDbEntity
  8
0
370
    35
390
0
 62
     7
100
AcDbCircle
 10
130.968201
 20
-397.741089
 30
0.0
 40
30.0
210
0.0
220
0.0
230
1.0
100
AcDbArc
 50
0.0
 51
54.124728
  0
ARC
  5
E4
100
AcDbEntity
  8
0
370
    35
390
0
 62
     7
100
AcDbCircle
 10
218.871643
 20
-276.196899
 30
0.0
 40
120.0
210
0.0
220
0.0
230
1.0
100
AcDbArc
 50
158.9064
 51
234.124736
  0
ARC
  5
E5
100
AcDbEntity
  8
0
370
    35
390
0
 62
     7
100
AcDbCircle
 10
60.262695
 20
-215.015167
 30
0.0
 40
50.0
210
0.0
220
0.0
230
1.0
100
AcDbArc
 50
338.906392
 51
97.529378
  0
ARC
  5
E6
100
AcDbEntity
  8
0
370
    35
390
0
 62
     7
100
AcDbCircle
 10
-129.73732
 20
1222.482666
 30
0.0
 40
1400.0
210
0.0
220
0.0
230
1.0
100
AcDbArc
 50
262.470616
 51
277.529379
  0
ARC
  5
E7
100
AcDbEntity
  8
0
370
    35
390
0
 62
     7
100
AcDbCircle
 10
-319.737305
 20
-215.015167
 30
0.0
 40
50.0
210
0.0
220
0.0
230
1.0
100
AcDbArc
 50
82.470627
 51
201.0936
  0
ARC
  5
E8
100
AcDbEntity
  8
0
370
    35
390
0
 62
     7
100
AcDbCircle
 10
-478.346252
 20
-276.196899
 30
0.0
 40
120.0
210
0.0
220
0.0
230
1.0
100
AcDbArc
 50
305.875269
 51
21.093601
  0
ARC
  5
E9
100
AcDbEntity
  8
0
370
    35
390
0
 62
     7
100
AcDbCircle
 10
-390.442871
 20
-397.741089
 30
0.0
 40
30.0
210
0.0
220
0.0
230
1.0
100
AcDbArc
 50
125.875277
 51
180.000009
  0
ARC
  5
EA
100
AcDbEntity
  8
0
370
    35
390
0
 62
     7
100
AcDbCircle
 10
-204.442841
 20
-397.741089
 30
0.0
 40
216.0
210
0.0
220
0.0
230
1.0
100
AcDbArc
 50
180.000009
 51
206.76569
  0
LINE
  5
EB
100
AcDbEntity
  8
0
370
    35
390
0
 62
     7
 48
0.168616
100
AcDbLine
 10
-397.299683
 20
-495.015167
 30
0.0
 11
-390.555054
 21
-495.015167
 31
0.0
210
0.0
220
0.0
230
1.0
  0
LINE
  5
EC
100
AcDbEntity
  8
0
370
    35
390
0
 62
     7
 48
0.229958
100
AcDbLine
 10
-309.737305
 20
-495.015167
 30
0.0
 11
-318.935608
 21
-495.015167
 31
0.0
210
0.0
220
0.0
230
1.0
  0
LINE
  5
ED
100
AcDbEntity
  8
0
370
    35
390
0
 62
     7
100
AcDbLine
 10
-318.935608
 20
-495.015167
 30
0.0
 11
-390.555054
 21
-495.015167
 31
0.0
210
0.0
220
0.0
230
1.0
  0
ARC
  5
EE
100
AcDbEntity
  8
0
370
    35
390
0
 62
     7
100
AcDbCircle
 10
-129.73732
 20
-709.491272
 30
0.0
 40
280.0
210
0.0
220
0.0
230
1.0
100
AcDbArc
 50
49.994799
 51
130.005206
  0
CIRCLE
  5
EF
100
AcDbEntity
  8
0
370
    35
390
0
 62
     7
100
AcDbCircle
 10
110.262695
 20
-475.015167
 30
0.0
 40
3.5
210
0.0
220
0.0
230
1.0
  0
CIRCLE
  5
F0
100
AcDbEntity
  8
0
370
    35
390
0
 62
     7
100
AcDbCircle
 10
60.262695
 20
-475.015167
 30
0.0
 40
3.5
210
0.0
220
0.0
230
1.0
  0
CIRCLE
  5
F1
100
AcDbEntity
  8
0
370
    35
390
0
 62
     7
100
AcDbCircle
 10
-369.737305
 20
-475.015167
 30
0.0
 40
3.5
210
0.0
220
0.0
230
1.0
  0
CIRCLE
  5
F2
100
AcDbEntity
  8
0
370
    35
390
0
 62
     7
100
AcDbCircle
 10
-390.442871
 20
-397.741089
 30
0.0
 40
3.5
210
0.0
220
0.0
230
1.0
  0
CIRCLE
  5
F3
100
AcDbEntity
  8
0
370
    35
390
0
 62
     7
100
AcDbCircle
 10
114.49762
 20
-442.543304
 30
0.0
 40
3.5
210
0.0
220
0.0
230
1.0
  0
CIRCLE
  5
F4
100
AcDbEntity
  8
0
370
    35
390
0
 62
     7
100
AcDbCircle
 10
127.438599
 20
-394.247009
 30
0.0
 40
3.5
210
0.0
220
0.0
230
1.0
  0
CIRCLE
  5
F5
100
AcDbEntity
  8
0
370
    35
390
0
 62
     7
100
AcDbCircle
 10
60.262695
 20
-215.015167
 30
0.0
 40
3.0
210
0.0
220
0.0
230
1.0
  0
CIRCLE
  5
F6
100
AcDbEntity
  8
0
370
    35
390
0
 62
     7
100
AcDbCircle
 10
-319.737305
 20
-215.015167
 30
0.0
 40
3.0
210
0.0
220
0.0
230
1.0
  0
ARC
  5
F7
100
AcDbEntity
  8
0
370
    35
390
0
 62
     7
100
AcDbCircle
 10
-129.73732
 20
1222.482666
 30
0.0
 40
1476.0
210
0.0
220
0.0
230
1.0
100
AcDbArc
 50
266.101107
 51
273.898888
  0
ARC
  5
F8
100
AcDbEntity
  8
0
370
    35
390
0
 62
     7
100
AcDbCircle
 10
-233.499161
 20
-299.985565
 30
0.0
 40
50.0
210
0.0
220
0.0
230
1.0
100
AcDbArc
 50
86.101112
 51
174.450722
  0
ARC
  5
F9
100
AcDbEntity
  8
0
370
    35
390
0
 62
     7
100
AcDbCircle
 10
-478.346252
 20
-276.196899
 30
0.0
 40
196.0
210
0.0
220
0.0
230
1.0
100
AcDbArc
 50
347.70679
 51
354.450727
  0
ARC
  5
FA
100
AcDbEntity
  8
0
370
    35
390
0
 62
     7
100
AcDbCircle
 10
-237.986832
 20
-328.573914
 30
0.0
 40
50.0
210
0.0
220
0.0
230
1.0
100
AcDbArc
 50
167.706785
 51
285.86415
  0
ARC
  5
FB
100
AcDbEntity
  8
0
370
    35
390
0
 62
     7
100
AcDbCircle
 10
-129.73732
 20
-709.491272
 30
0.0
 40
346.0
210
0.0
220
0.0
230
1.0
100
AcDbArc
 50
74.13585
 51
105.864148
  0
ARC
  5
FC
100
AcDbEntity
  8
0
370
    35
390
0
 62
     7
100
AcDbCircle
 10
-21.487793
 20
-328.573914
 30
0.0
 40
50.0
210
0.0
220
0.0
230
1.0
100
AcDbArc
 50
254.135852
 51
12.29321
  0
ARC
  5
FD
100
AcDbEntity
  8
0
370
    35
390
0
 62
     7
100
AcDbCircle
 10
218.871643
 20
-276.196899
 30
0.0
 40
196.0
210
0.0
220
0.0
230
1.0
100
AcDbArc
 50
185.549278
 51
192.293215
  0
ARC
  5
FE
100
AcDbEntity
  8
0
370
    35
390
0
 62
     7
100
AcDbCircle
 10
-25.975464
 20
-299.985565
 30
0.0
 40
50.0
210
0.0
220
0.0
230
1.0
100
AcDbArc
 50
5.549279
 51
93.898893
  0
LINE
  5
FF
100
AcDbEntity
  8
0
370
    35
390
0
 62
     7
 48
0.15
100
AcDbLine
 10
153.042816
 20
-171.418365
 30
0.0
 11
159.042816
 21
-171.418365
 31
0.0
210
0.0
220
0.0
230
1.0
  0
LINE
  5
100
100
AcDbEntity
  8
0
370
    35
390
0
 62
     7
100
AcDbLine
 10
159.042816
 20
-171.418365
 30
0.0
 11
547.042847
 21
-171.418365
 31
0.0
210
0.0
220
0.0
230
1.0
  0
LINE
  5
101
100
AcDbEntity
  8
0
370
    35
390
0
 62
     7
 48
0.15
100
AcDbLine
 10
553.042847
 20
-171.418365
 30
0.0
 11
547.042847
 21
-171.418365
 31
0.0
210
0.0
220
0.0
230
1.0
  0
ARC
  5
102
100
AcDbEntity
  8
0
370
    35
390
0
 62
     7
100
AcDbCircle
 10
305.042816
 20
-171.418365
 30
0.0
 40
152.0
210
0.0
220
0.0
230
1.0
100
AcDbArc
 50
180.000009
 51
202.695607
  0
ARC
  5
103
100
AcDbEntity
  8
0
370
    35
390
0
 62
     7
100
AcDbCircle
 10
-116.570618
 20
-347.745117
 30
0.0
 40
305.0
210
0.0
220
0.0
230
1.0
100
AcDbArc
 50
343.071113
 51
22.695609
  0
ARC
  5
104
100
AcDbEntity
  8
0
370
    35
390
0
 62
     7
100
AcDbCircle
 10
201.042816
 20
-444.418335
 30
0.0
 40
27.0
210
0.0
220
0.0
230
1.0
100
AcDbArc
 50
163.071122
 51
299.487126
  0
ARC
  5
105
100
AcDbEntity
  8
0
370
    35
390
0
 62
     7
100
AcDbCircle
 10
353.042816
 20
-713.218323
 30
0.0
 40
281.799988
210
0.0
220
0.0
230
1.0
100
AcDbArc
 50
60.512874
 51
119.487124
  0
ARC
  5
106
100
AcDbEntity
  8
0
370
    35
390
0
 62
     7
100
AcDbCircle
 10
505.042816
 20
-444.418335
 30
0.0
 40
27.0
210
0.0
220
0.0
230
1.0
100
AcDbArc
 50
240.512876
 51
16.928878
  0
ARC
  5
107
100
AcDbEntity
  8
0
370
    35
390
0
 62
     7
100
AcDbCircle
 10
822.65625
 20
-347.745117
 30
0.0
 40
305.0
210
0.0
220
0.0
230
1.0
100
AcDbArc
 50
157.304393
 51
196.928878
  0
ARC
  5
108
100
AcDbEntity
  8
0
370
    35
390
0
 62
     7
100
AcDbCircle
 10
401.042816
 20
-171.418365
 30
0.0
 40
152.0
210
0.0
220
0.0
230
1.0
100
AcDbArc
 50
337.304384
 51
0.00001
  0
CIRCLE
  5
109
100
AcDbEntity
  8
0
370
    35
390
0
 62
     7
100
AcDbCircle
 10
453.042816
 20
-411.418335
 30
0.0
 40
3.5
210
0.0
220
0.0
230
1.0
  0
CIRCLE
  5
10A
100
AcDbEntity
  8
0
370
    35
390
0
 62
     7
100
AcDbCircle
 10
373.042816
 20
-411.418335
 30
0.0
 40
3.5
210
0.0
220
0.0
230
1.0
  0
CIRCLE
  5
10B
100
AcDbEntity
  8
0
370
    35
390
0
 62
     7
100
AcDbCircle
 10
201.042816
 20
-444.418335
 30
0.0
 40
3.0
210
0.0
220
0.0
230
1.0
  0
CIRCLE
  5
10C
100
AcDbEntity
  8
0
370
    35
390
0
 62
     7
100
AcDbCircle
 10
505.042816
 20
-444.418335
 30
0.0
 40
3.0
210
0.0
220
0.0
230
1.0
  0
LINE
  5
10D
100
AcDbEntity
  8
0
370
    35
390
0
 62
     7
100
AcDbLine
 10
406.913818
 20
-231.418365
 30
0.0
 11
299.171814
 21
-231.418365
 31
0.0
210
0.0
220
0.0
230
1.0
  0
ARC
  5
10E
100
AcDbEntity
  8
0
370
    35
390
0
 62
     7
100
AcDbCircle
 10
299.171814
 20
-281.418335
 30
0.0
 40
50.0
210
0.0
220
0.0
230
1.0
100
AcDbArc
 50
90.000003
 51
189.064476
  0
ARC
  5
10F
100
AcDbEntity
  8
0
370
    35
390
0
 62
     7
100
AcDbCircle
 10
-116.570618
 20
-347.745117
 30
0.0
 40
371.0
210
0.0
220
0.0
230
1.0
100
AcDbArc
 50
3.979722
 51
9.064471
  0
ARC
  5
110
100
AcDbEntity
  8
0
370
    35
390
0
 62
     7
100
AcDbCircle
 10
303.414246
 20
-318.526245
 30
0.0
 40
50.0
210
0.0
220
0.0
230
1.0
100
AcDbArc
 50
183.979728
 51
277.166751
  0
ARC
  5
111
100
AcDbEntity
  8
0
370
    35
390
0
 62
     7
100
AcDbCircle
 10
353.042816
 20
-713.218323
 30
0.0
 40
347.799988
210
0.0
220
0.0
230
1.0
100
AcDbArc
 50
82.833242
 51
97.166756
  0
ARC
  5
112
100
AcDbEntity
  8
0
370
    35
390
0
 62
     7
100
AcDbCircle
 10
402.671387
 20
-318.526245
 30
0.0
 40
50.0
210
0.0
220
0.0
230
1.0
100
AcDbArc
 50
262.833244
 51
356.020278
  0
ARC
  5
113
100
AcDbEntity
  8
0
370
    35
390
0
 62
     7
100
AcDbCircle
 10
822.65625
 20
-347.745117
 30
0.0
 40
371.0
210
0.0
220
0.0
230
1.0
100
AcDbArc
 50
170.935524
 51
176.020272
  0
ARC
  5
114
100
AcDbEntity
  8
0
370
    35
390
0
 62
     7
100
AcDbCircle
 10
406.913818
 20
-281.418335
 30
0.0
 40
50.0
210
0.0
220
0.0
230
1.0
100
AcDbArc
 50
350.93553
 51
90.000003
  0
CIRCLE
  5
115
100
AcDbEntity
  8
0
370
    35
390
0
 62
     7
100
AcDbCircle
 10
-265.329651
 20
-892.167175
 30
0.0
 40
4.0
210
0.0
220
0.0
230
1.0
  0
ARC
  5
116
100
AcDbEntity
  8
0
370
    35
390
0
 62
     7
100
AcDbCircle
 10
102.970337
 20
-892.167175
 30
0.0
 40
50.0
210
0.0
220
0.0
230
1.0
100
AcDbArc
 50
275.960184
 51
43.173154
  0
ARC
  5
117
100
AcDbEntity
  8
0
370
    35
390
0
 62
     7
100
AcDbCircle
 10
30.041412
 20
-960.587769
 30
0.0
 40
150.0
210
0.0
220
0.0
230
1.0
100
AcDbArc
 50
43.173154
 51
115.343563
  0
ARC
  5
118
100
AcDbEntity
  8
0
370
    35
390
0
 62
     7
100
AcDbCircle
 10
-74.829651
 20
-739.167175
 30
0.0
 40
95.0
210
0.0
220
0.0
230
1.0
100
AcDbArc
 50
244.656451
 51
295.343551
  0
ARC
  5
119
100
AcDbEntity
  8
0
370
    35
390
0
 62
     7
100
AcDbCircle
 10
-179.700714
 20
-960.587769
 30
0.0
 40
150.0
210
0.0
220
0.0
230
1.0
100
AcDbArc
 50
64.656435
 51
136.826844
  0
ARC
  5
11A
100
AcDbEntity
  8
0
370
    35
390
0
 62
     7
100
AcDbCircle
 10
-252.629654
 20
-892.167175
 30
0.0
 40
50.0
210
0.0
220
0.0
230
1.0
100
AcDbArc
 50
136.826844
 51
264.039811
  0
ARC
  5
11B
100
AcDbEntity
  8
0
370
    35
390
0
 62
     7
100
AcDbCircle
 10
-242.245911
 20
-792.707764
 30
0.0
 40
150.0
210
0.0
220
0.0
230
1.0
100
AcDbArc
 50
264.039811
 51
287.080361
  0
ARC
  5
11C
100
AcDbEntity
  8
0
370
    35
390
0
 62
     7
100
AcDbCircle
 10
-74.829651
 20
-1337.567139
 30
0.0
 40
420.0
210
0.0
220
0.0
230
1.0
100
AcDbArc
 50
72.919639
 51
107.080366
  0
ARC
  5
11D
100
AcDbEntity
  8
0
370
    35
390
0
 62
     7
100
AcDbCircle
 10
92.586609
 20
-792.707764
 30
0.0
 40
150.0
210
0.0
220
0.0
230
1.0
100
AcDbArc
 50
252.919634
 51
275.960184
  0
CIRCLE
  5
11E
100
AcDbEntity
  8
0
370
    35
390
0
 62
     7
100
AcDbCircle
 10
-138.329651
 20
-892.167175
 30
0.0
 40
4.0
210
0.0
220
0.0
230
1.0
  0
CIRCLE
  5
11F
100
AcDbEntity
  8
0
370
    35
390
0
 62
     7
100
AcDbCircle
 10
-11.329651
 20
-892.167175
 30
0.0
 40
4.0
210
0.0
220
0.0
230
1.0
  0
CIRCLE
  5
120
100
AcDbEntity
  8
0
370
    35
390
0
 62
     7
100
AcDbCircle
 10
115.670349
 20
-892.167175
 30
0.0
 40
4.0
210
0.0
220
0.0
230
1.0
  0
ENDSEC
  0
SECTION
  2
OBJECTS
  0
DICTIONARY
  5
19
100
AcDbDictionary
280
     0
281
     1
  3
ACAD_GROUP
350
1A
  3
ACAD_MLINESTYLE
350
1B
  3
ACAD_LAYOUT
350
1E
  3
ACAD_PLOTSETTINGS
350
22
  3
ACAD_PLOTSTYLENAME
350
1F
  3
ACAD_WIPEOUT_VARS
350
23
  0
DICTIONARY
  5
1A
102
{ACAD_REACTORS
330
19
102
}
100
AcDbDictionary
280
     0
281
     1
  0
DICTIONARY
  5
1B
102
{ACAD_REACTORS
330
19
102
}
100
AcDbDictionary
280
     0
281
     1
  3
Standard
350
1C
  0
MLINESTYLE
  5
1C
102
{ACAD_REACTORS
330
1B
102
}
100
AcDbMlineStyle
  2
Standard
 70
     0
  3

 62
     0
 51
90.0
 52
90.0
 71
     2
 49
0.5
 62
   256
  6
ByLayer
 49
-0.5
 62
   256
  6
ByLayer
  0
ACDBDICTIONARYWDFLT
  5
1F
102
{ACAD_REACTORS
330
19
102
}
100
AcDbDictionary
281
     1
  3
Normal
350
1D
100
AcDbDictionaryWithDefault
340
1D
  0
ACDBPLACEHOLDER
  5
1D
102
{ACAD_REACTORS
330
1F
102
}
  0
LAYOUT
  5
20
102
{ACAD_REACTORS
330
1E
102
}
100
AcDbPlotSettings
  1

  2

  4

  6

 40
0.0
 41
0.0
 42
0.0
 43
0.0
 44
0.0
 45
0.0
 46
0.0
 47
0.0
 48
0.0
 49
0.0
140
0.0
141
0.0
142
1.0
143
1.0
 70
  1024
 72
     0
 73
     0
 74
     0
  7

 75
     0
147
1.0
148
0.0
149
0.0
100
AcDbLayout
  1
Model
 70
     0
 71
     0
 10
0.0
 20
0.0
 11
0.0
 21
0.0
 12
0.0
 22
0.0
 32
0.0
 14
0.0
 24
0.0
 34
0.0
 15
0.0
 25
0.0
 35
0.0
146
0.0
 13
0.0
 23
0.0
 33
0.0
 16
0.0
 26
0.0
 36
0.0
 17
0.0
 27
0.0
 37
0.0
 76
     0
330
A
331
0
345
0
346
0
  0
LAYOUT
  5
21
102
{ACAD_REACTORS
330
1E
102
}
100
AcDbPlotSettings
  1

  2

  4

  6

 40
0.0
 41
0.0
 42
0.0
 43
0.0
 44
0.0
 45
0.0
 46
0.0
 47
0.0
 48
0.0
 49
0.0
140
0.0
141
0.0
142
1.0
143
1.0
 70
     0
 72
     0
 73
     0
 74
     0
  7

 75
     0
147
1.0
148
0.0
149
0.0
100
AcDbLayout
  1
Layout1
 70
     0
 71
     0
 10
0.0
 20
0.0
 11
0.0
 21
0.0
 12
0.0
 22
0.0
 32
0.0
 14
0.0
 24
0.0
 34
0.0
 15
0.0
 25
0.0
 35
0.0
146
0.0
 13
0.0
 23
0.0
 33
0.0
 16
0.0
 26
0.0
 36
0.0
 17
0.0
 27
0.0
 37
0.0
 76
     0
330
B
331
0
345
0
346
0
  0
DICTIONARY
  5
1E
102
{ACAD_REACTORS
330
19
102
}
100
AcDbDictionary
280
     0
281
     1
  3
Layout1
350
21
  3
Model
350
20
  0
DICTIONARY
  5
22
102
{ACAD_REACTORS
330
19
102
}
100
AcDbDictionary
280
     0
281
     1
  0
WIPEOUTVARIABLES
  5
23
100
AcDbWipeoutVariables
 70
     1
  0
ENDSEC
  0
EOF
