ISO-10303-21;
HEADER;
/* Generated by software containing ST-Developer
 * from STEP Tools, Inc. (www.steptools.com) 
 */
/* OPTION: using custom renumber hook */

FILE_DESCRIPTION(
/* description */ ('STEP AP214'),
/* implementation_level */ '2;1');

FILE_NAME(
/* name */ '61444b4e05805a1b035cf4b2',
/* time_stamp */ '2021-09-17T08:01:19+00:00',
/* author */ (''),
/* organization */ (''),
/* preprocessor_version */ 'ST-DEVELOPER v18.1',
/* originating_system */ '  ',
/* authorisation */ '  ');

FILE_SCHEMA (('AUTOMOTIVE_DESIGN {1 0 10303 214 3 1 1}'));
ENDSEC;

DATA;
#10=PROPERTY_DEFINITION_REPRESENTATION(#14,#12);
#11=PROPERTY_DEFINITION_REPRESENTATION(#15,#13);
#12=REPRESENTATION('',(#16),#671);
#13=REPRESENTATION('',(#17),#671);
#14=PROPERTY_DEFINITION('pmi validation property','',#676);
#15=PROPERTY_DEFINITION('pmi validation property','',#676);
#16=VALUE_REPRESENTATION_ITEM('number of annotations',COUNT_MEASURE(0.));
#17=VALUE_REPRESENTATION_ITEM('number of views',COUNT_MEASURE(0.));
#18=SHAPE_REPRESENTATION_RELATIONSHIP('','',#405,#19);
#19=ADVANCED_BREP_SHAPE_REPRESENTATION('',(#403),#671);
#20=CONICAL_SURFACE('',#439,0.0045,0.785398163397448);
#21=CONICAL_SURFACE('',#440,0.004,0.785398163397448);
#22=CONICAL_SURFACE('',#443,0.0045,0.785398163397448);
#23=CONICAL_SURFACE('',#444,0.0045,0.785398163397448);
#24=CIRCLE('',#410,0.008);
#25=CIRCLE('',#411,0.008);
#26=CIRCLE('',#413,0.008);
#27=CIRCLE('',#414,0.008);
#28=CIRCLE('',#416,0.0045);
#29=CIRCLE('',#417,0.0045);
#30=CIRCLE('',#418,0.004);
#31=CIRCLE('',#419,0.004);
#32=CIRCLE('',#422,0.004);
#33=CIRCLE('',#425,0.004);
#34=CIRCLE('',#427,0.0045);
#35=CIRCLE('',#428,0.0045);
#36=CIRCLE('',#431,0.005);
#37=CIRCLE('',#432,0.005);
#38=CIRCLE('',#435,0.005);
#39=CIRCLE('',#436,0.005);
#40=CYLINDRICAL_SURFACE('',#409,0.008);
#41=CYLINDRICAL_SURFACE('',#412,0.008);
#42=CYLINDRICAL_SURFACE('',#421,0.004);
#43=CYLINDRICAL_SURFACE('',#424,0.004);
#44=CYLINDRICAL_SURFACE('',#430,0.005);
#45=CYLINDRICAL_SURFACE('',#434,0.005);
#46=ORIENTED_EDGE('',*,*,#150,.F.);
#47=ORIENTED_EDGE('',*,*,#151,.T.);
#48=ORIENTED_EDGE('',*,*,#152,.T.);
#49=ORIENTED_EDGE('',*,*,#153,.F.);
#50=ORIENTED_EDGE('',*,*,#154,.F.);
#51=ORIENTED_EDGE('',*,*,#155,.T.);
#52=ORIENTED_EDGE('',*,*,#156,.T.);
#53=ORIENTED_EDGE('',*,*,#157,.F.);
#54=ORIENTED_EDGE('',*,*,#158,.F.);
#55=ORIENTED_EDGE('',*,*,#150,.T.);
#56=ORIENTED_EDGE('',*,*,#159,.T.);
#57=ORIENTED_EDGE('',*,*,#155,.F.);
#58=ORIENTED_EDGE('',*,*,#152,.F.);
#59=ORIENTED_EDGE('',*,*,#160,.T.);
#60=ORIENTED_EDGE('',*,*,#157,.T.);
#61=ORIENTED_EDGE('',*,*,#161,.F.);
#62=ORIENTED_EDGE('',*,*,#162,.T.);
#63=ORIENTED_EDGE('',*,*,#163,.T.);
#64=ORIENTED_EDGE('',*,*,#164,.T.);
#65=ORIENTED_EDGE('',*,*,#165,.T.);
#66=ORIENTED_EDGE('',*,*,#166,.T.);
#67=ORIENTED_EDGE('',*,*,#167,.T.);
#68=ORIENTED_EDGE('',*,*,#168,.F.);
#69=ORIENTED_EDGE('',*,*,#169,.F.);
#70=ORIENTED_EDGE('',*,*,#170,.T.);
#71=ORIENTED_EDGE('',*,*,#171,.T.);
#72=ORIENTED_EDGE('',*,*,#172,.F.);
#73=ORIENTED_EDGE('',*,*,#166,.F.);
#74=ORIENTED_EDGE('',*,*,#173,.T.);
#75=ORIENTED_EDGE('',*,*,#174,.T.);
#76=ORIENTED_EDGE('',*,*,#170,.F.);
#77=ORIENTED_EDGE('',*,*,#169,.T.);
#78=ORIENTED_EDGE('',*,*,#175,.T.);
#79=ORIENTED_EDGE('',*,*,#176,.T.);
#80=ORIENTED_EDGE('',*,*,#173,.F.);
#81=ORIENTED_EDGE('',*,*,#168,.T.);
#82=ORIENTED_EDGE('',*,*,#172,.T.);
#83=ORIENTED_EDGE('',*,*,#177,.T.);
#84=ORIENTED_EDGE('',*,*,#175,.F.);
#85=ORIENTED_EDGE('',*,*,#167,.F.);
#86=ORIENTED_EDGE('',*,*,#178,.T.);
#87=ORIENTED_EDGE('',*,*,#179,.T.);
#88=ORIENTED_EDGE('',*,*,#180,.T.);
#89=ORIENTED_EDGE('',*,*,#181,.T.);
#90=ORIENTED_EDGE('',*,*,#159,.F.);
#91=ORIENTED_EDGE('',*,*,#153,.T.);
#92=ORIENTED_EDGE('',*,*,#161,.T.);
#93=ORIENTED_EDGE('',*,*,#156,.F.);
#94=ORIENTED_EDGE('',*,*,#182,.T.);
#95=ORIENTED_EDGE('',*,*,#183,.T.);
#96=ORIENTED_EDGE('',*,*,#184,.F.);
#97=ORIENTED_EDGE('',*,*,#185,.T.);
#98=ORIENTED_EDGE('',*,*,#184,.T.);
#99=ORIENTED_EDGE('',*,*,#186,.T.);
#100=ORIENTED_EDGE('',*,*,#187,.F.);
#101=ORIENTED_EDGE('',*,*,#188,.T.);
#102=ORIENTED_EDGE('',*,*,#187,.T.);
#103=ORIENTED_EDGE('',*,*,#189,.T.);
#104=ORIENTED_EDGE('',*,*,#190,.F.);
#105=ORIENTED_EDGE('',*,*,#191,.T.);
#106=ORIENTED_EDGE('',*,*,#190,.T.);
#107=ORIENTED_EDGE('',*,*,#192,.T.);
#108=ORIENTED_EDGE('',*,*,#182,.F.);
#109=ORIENTED_EDGE('',*,*,#193,.T.);
#110=ORIENTED_EDGE('',*,*,#188,.F.);
#111=ORIENTED_EDGE('',*,*,#191,.F.);
#112=ORIENTED_EDGE('',*,*,#193,.F.);
#113=ORIENTED_EDGE('',*,*,#185,.F.);
#114=ORIENTED_EDGE('',*,*,#158,.T.);
#115=ORIENTED_EDGE('',*,*,#154,.T.);
#116=ORIENTED_EDGE('',*,*,#160,.F.);
#117=ORIENTED_EDGE('',*,*,#151,.F.);
#118=ORIENTED_EDGE('',*,*,#194,.F.);
#119=ORIENTED_EDGE('',*,*,#171,.F.);
#120=ORIENTED_EDGE('',*,*,#195,.F.);
#121=ORIENTED_EDGE('',*,*,#181,.F.);
#122=ORIENTED_EDGE('',*,*,#195,.T.);
#123=ORIENTED_EDGE('',*,*,#174,.F.);
#124=ORIENTED_EDGE('',*,*,#196,.F.);
#125=ORIENTED_EDGE('',*,*,#178,.F.);
#126=ORIENTED_EDGE('',*,*,#194,.T.);
#127=ORIENTED_EDGE('',*,*,#180,.F.);
#128=ORIENTED_EDGE('',*,*,#197,.F.);
#129=ORIENTED_EDGE('',*,*,#177,.F.);
#130=ORIENTED_EDGE('',*,*,#196,.T.);
#131=ORIENTED_EDGE('',*,*,#176,.F.);
#132=ORIENTED_EDGE('',*,*,#197,.T.);
#133=ORIENTED_EDGE('',*,*,#179,.F.);
#134=ORIENTED_EDGE('',*,*,#198,.F.);
#135=ORIENTED_EDGE('',*,*,#189,.F.);
#136=ORIENTED_EDGE('',*,*,#199,.F.);
#137=ORIENTED_EDGE('',*,*,#165,.F.);
#138=ORIENTED_EDGE('',*,*,#199,.T.);
#139=ORIENTED_EDGE('',*,*,#186,.F.);
#140=ORIENTED_EDGE('',*,*,#200,.F.);
#141=ORIENTED_EDGE('',*,*,#162,.F.);
#142=ORIENTED_EDGE('',*,*,#198,.T.);
#143=ORIENTED_EDGE('',*,*,#164,.F.);
#144=ORIENTED_EDGE('',*,*,#201,.F.);
#145=ORIENTED_EDGE('',*,*,#192,.F.);
#146=ORIENTED_EDGE('',*,*,#200,.T.);
#147=ORIENTED_EDGE('',*,*,#183,.F.);
#148=ORIENTED_EDGE('',*,*,#201,.T.);
#149=ORIENTED_EDGE('',*,*,#163,.F.);
#150=EDGE_CURVE('',#202,#203,#234,.T.);
#151=EDGE_CURVE('',#202,#204,#235,.T.);
#152=EDGE_CURVE('',#204,#205,#236,.T.);
#153=EDGE_CURVE('',#203,#205,#237,.T.);
#154=EDGE_CURVE('',#206,#207,#238,.T.);
#155=EDGE_CURVE('',#206,#208,#239,.T.);
#156=EDGE_CURVE('',#208,#209,#240,.T.);
#157=EDGE_CURVE('',#207,#209,#241,.T.);
#158=EDGE_CURVE('',#202,#206,#24,.F.);
#159=EDGE_CURVE('',#203,#208,#25,.T.);
#160=EDGE_CURVE('',#204,#207,#26,.T.);
#161=EDGE_CURVE('',#205,#209,#27,.T.);
#162=EDGE_CURVE('',#210,#211,#28,.F.);
#163=EDGE_CURVE('',#211,#212,#242,.T.);
#164=EDGE_CURVE('',#212,#213,#29,.F.);
#165=EDGE_CURVE('',#213,#210,#243,.T.);
#166=EDGE_CURVE('',#214,#215,#244,.T.);
#167=EDGE_CURVE('',#215,#216,#30,.T.);
#168=EDGE_CURVE('',#217,#216,#245,.T.);
#169=EDGE_CURVE('',#214,#217,#31,.T.);
#170=EDGE_CURVE('',#214,#218,#246,.T.);
#171=EDGE_CURVE('',#218,#219,#247,.T.);
#172=EDGE_CURVE('',#215,#219,#248,.T.);
#173=EDGE_CURVE('',#217,#220,#249,.T.);
#174=EDGE_CURVE('',#220,#218,#32,.T.);
#175=EDGE_CURVE('',#216,#221,#250,.T.);
#176=EDGE_CURVE('',#221,#220,#251,.T.);
#177=EDGE_CURVE('',#219,#221,#33,.T.);
#178=EDGE_CURVE('',#222,#223,#34,.F.);
#179=EDGE_CURVE('',#223,#224,#252,.T.);
#180=EDGE_CURVE('',#224,#225,#35,.F.);
#181=EDGE_CURVE('',#225,#222,#253,.T.);
#182=EDGE_CURVE('',#226,#227,#254,.T.);
#183=EDGE_CURVE('',#227,#228,#255,.T.);
#184=EDGE_CURVE('',#229,#228,#256,.T.);
#185=EDGE_CURVE('',#229,#226,#257,.T.);
#186=EDGE_CURVE('',#228,#230,#36,.T.);
#187=EDGE_CURVE('',#231,#230,#258,.T.);
#188=EDGE_CURVE('',#231,#229,#37,.F.);
#189=EDGE_CURVE('',#230,#232,#259,.T.);
#190=EDGE_CURVE('',#233,#232,#260,.T.);
#191=EDGE_CURVE('',#233,#231,#261,.T.);
#192=EDGE_CURVE('',#232,#227,#38,.T.);
#193=EDGE_CURVE('',#226,#233,#39,.F.);
#194=EDGE_CURVE('',#219,#225,#262,.T.);
#195=EDGE_CURVE('',#222,#218,#263,.T.);
#196=EDGE_CURVE('',#223,#220,#264,.T.);
#197=EDGE_CURVE('',#221,#224,#265,.T.);
#198=EDGE_CURVE('',#232,#213,#266,.T.);
#199=EDGE_CURVE('',#210,#230,#267,.T.);
#200=EDGE_CURVE('',#211,#228,#268,.T.);
#201=EDGE_CURVE('',#227,#212,#269,.T.);
#202=VERTEX_POINT('',#565);
#203=VERTEX_POINT('',#566);
#204=VERTEX_POINT('',#568);
#205=VERTEX_POINT('',#570);
#206=VERTEX_POINT('',#574);
#207=VERTEX_POINT('',#575);
#208=VERTEX_POINT('',#577);
#209=VERTEX_POINT('',#579);
#210=VERTEX_POINT('',#589);
#211=VERTEX_POINT('',#590);
#212=VERTEX_POINT('',#592);
#213=VERTEX_POINT('',#594);
#214=VERTEX_POINT('',#597);
#215=VERTEX_POINT('',#598);
#216=VERTEX_POINT('',#600);
#217=VERTEX_POINT('',#602);
#218=VERTEX_POINT('',#606);
#219=VERTEX_POINT('',#608);
#220=VERTEX_POINT('',#612);
#221=VERTEX_POINT('',#616);
#222=VERTEX_POINT('',#622);
#223=VERTEX_POINT('',#623);
#224=VERTEX_POINT('',#625);
#225=VERTEX_POINT('',#627);
#226=VERTEX_POINT('',#631);
#227=VERTEX_POINT('',#632);
#228=VERTEX_POINT('',#634);
#229=VERTEX_POINT('',#636);
#230=VERTEX_POINT('',#640);
#231=VERTEX_POINT('',#642);
#232=VERTEX_POINT('',#646);
#233=VERTEX_POINT('',#648);
#234=LINE('',#564,#270);
#235=LINE('',#567,#271);
#236=LINE('',#569,#272);
#237=LINE('',#571,#273);
#238=LINE('',#573,#274);
#239=LINE('',#576,#275);
#240=LINE('',#578,#276);
#241=LINE('',#580,#277);
#242=LINE('',#591,#278);
#243=LINE('',#595,#279);
#244=LINE('',#596,#280);
#245=LINE('',#601,#281);
#246=LINE('',#605,#282);
#247=LINE('',#607,#283);
#248=LINE('',#609,#284);
#249=LINE('',#611,#285);
#250=LINE('',#615,#286);
#251=LINE('',#617,#287);
#252=LINE('',#624,#288);
#253=LINE('',#628,#289);
#254=LINE('',#630,#290);
#255=LINE('',#633,#291);
#256=LINE('',#635,#292);
#257=LINE('',#637,#293);
#258=LINE('',#641,#294);
#259=LINE('',#645,#295);
#260=LINE('',#647,#296);
#261=LINE('',#649,#297);
#262=LINE('',#655,#298);
#263=LINE('',#656,#299);
#264=LINE('',#658,#300);
#265=LINE('',#660,#301);
#266=LINE('',#663,#302);
#267=LINE('',#664,#303);
#268=LINE('',#666,#304);
#269=LINE('',#668,#305);
#270=VECTOR('',#450,1.);
#271=VECTOR('',#451,1.);
#272=VECTOR('',#452,1.);
#273=VECTOR('',#453,1.);
#274=VECTOR('',#456,1.);
#275=VECTOR('',#457,1.);
#276=VECTOR('',#458,1.);
#277=VECTOR('',#459,1.);
#278=VECTOR('',#476,1.);
#279=VECTOR('',#479,1.);
#280=VECTOR('',#480,1.);
#281=VECTOR('',#483,1.);
#282=VECTOR('',#488,1.);
#283=VECTOR('',#489,1.);
#284=VECTOR('',#490,1.);
#285=VECTOR('',#493,1.);
#286=VECTOR('',#498,1.);
#287=VECTOR('',#499,1.);
#288=VECTOR('',#508,1.);
#289=VECTOR('',#511,1.);
#290=VECTOR('',#514,1.);
#291=VECTOR('',#515,1.);
#292=VECTOR('',#516,1.);
#293=VECTOR('',#517,1.);
#294=VECTOR('',#522,1.);
#295=VECTOR('',#527,1.);
#296=VECTOR('',#528,1.);
#297=VECTOR('',#529,1.);
#298=VECTOR('',#540,1.);
#299=VECTOR('',#541,1.);
#300=VECTOR('',#544,1.);
#301=VECTOR('',#547,1.);
#302=VECTOR('',#552,1.);
#303=VECTOR('',#553,1.);
#304=VECTOR('',#556,1.);
#305=VECTOR('',#559,1.);
#306=EDGE_LOOP('',(#46,#47,#48,#49));
#307=EDGE_LOOP('',(#50,#51,#52,#53));
#308=EDGE_LOOP('',(#54,#55,#56,#57));
#309=EDGE_LOOP('',(#58,#59,#60,#61));
#310=EDGE_LOOP('',(#62,#63,#64,#65));
#311=EDGE_LOOP('',(#66,#67,#68,#69));
#312=EDGE_LOOP('',(#70,#71,#72,#73));
#313=EDGE_LOOP('',(#74,#75,#76,#77));
#314=EDGE_LOOP('',(#78,#79,#80,#81));
#315=EDGE_LOOP('',(#82,#83,#84,#85));
#316=EDGE_LOOP('',(#86,#87,#88,#89));
#317=EDGE_LOOP('',(#90,#91,#92,#93));
#318=EDGE_LOOP('',(#94,#95,#96,#97));
#319=EDGE_LOOP('',(#98,#99,#100,#101));
#320=EDGE_LOOP('',(#102,#103,#104,#105));
#321=EDGE_LOOP('',(#106,#107,#108,#109));
#322=EDGE_LOOP('',(#110,#111,#112,#113));
#323=EDGE_LOOP('',(#114,#115,#116,#117));
#324=EDGE_LOOP('',(#118,#119,#120,#121));
#325=EDGE_LOOP('',(#122,#123,#124,#125));
#326=EDGE_LOOP('',(#126,#127,#128,#129));
#327=EDGE_LOOP('',(#130,#131,#132,#133));
#328=EDGE_LOOP('',(#134,#135,#136,#137));
#329=EDGE_LOOP('',(#138,#139,#140,#141));
#330=EDGE_LOOP('',(#142,#143,#144,#145));
#331=EDGE_LOOP('',(#146,#147,#148,#149));
#332=FACE_BOUND('',#306,.T.);
#333=FACE_BOUND('',#307,.T.);
#334=FACE_BOUND('',#308,.T.);
#335=FACE_BOUND('',#309,.T.);
#336=FACE_BOUND('',#310,.T.);
#337=FACE_BOUND('',#311,.T.);
#338=FACE_BOUND('',#312,.T.);
#339=FACE_BOUND('',#313,.T.);
#340=FACE_BOUND('',#314,.T.);
#341=FACE_BOUND('',#315,.T.);
#342=FACE_BOUND('',#316,.T.);
#343=FACE_BOUND('',#317,.T.);
#344=FACE_BOUND('',#318,.T.);
#345=FACE_BOUND('',#319,.T.);
#346=FACE_BOUND('',#320,.T.);
#347=FACE_BOUND('',#321,.T.);
#348=FACE_BOUND('',#322,.T.);
#349=FACE_BOUND('',#323,.T.);
#350=FACE_BOUND('',#324,.T.);
#351=FACE_BOUND('',#325,.T.);
#352=FACE_BOUND('',#326,.T.);
#353=FACE_BOUND('',#327,.T.);
#354=FACE_BOUND('',#328,.T.);
#355=FACE_BOUND('',#329,.T.);
#356=FACE_BOUND('',#330,.T.);
#357=FACE_BOUND('',#331,.T.);
#358=PLANE('',#407);
#359=PLANE('',#408);
#360=PLANE('',#415);
#361=PLANE('',#420);
#362=PLANE('',#423);
#363=PLANE('',#426);
#364=PLANE('',#429);
#365=PLANE('',#433);
#366=PLANE('',#437);
#367=PLANE('',#438);
#368=PLANE('',#441);
#369=PLANE('',#442);
#370=PLANE('',#445);
#371=ADVANCED_FACE('',(#332),#358,.T.);
#372=ADVANCED_FACE('',(#333),#359,.F.);
#373=ADVANCED_FACE('',(#334),#40,.T.);
#374=ADVANCED_FACE('',(#335),#41,.T.);
#375=ADVANCED_FACE('',(#336,#337),#360,.F.);
#376=ADVANCED_FACE('',(#338),#361,.F.);
#377=ADVANCED_FACE('',(#339),#42,.F.);
#378=ADVANCED_FACE('',(#340),#362,.T.);
#379=ADVANCED_FACE('',(#341),#43,.F.);
#380=ADVANCED_FACE('',(#342,#343),#363,.T.);
#381=ADVANCED_FACE('',(#344),#364,.T.);
#382=ADVANCED_FACE('',(#345),#44,.T.);
#383=ADVANCED_FACE('',(#346),#365,.T.);
#384=ADVANCED_FACE('',(#347),#45,.T.);
#385=ADVANCED_FACE('',(#348,#349),#366,.F.);
#386=ADVANCED_FACE('',(#350),#367,.T.);
#387=ADVANCED_FACE('',(#351),#20,.F.);
#388=ADVANCED_FACE('',(#352),#21,.F.);
#389=ADVANCED_FACE('',(#353),#368,.F.);
#390=ADVANCED_FACE('',(#354),#369,.T.);
#391=ADVANCED_FACE('',(#355),#22,.T.);
#392=ADVANCED_FACE('',(#356),#23,.T.);
#393=ADVANCED_FACE('',(#357),#370,.T.);
#394=CLOSED_SHELL('',(#371,#372,#373,#374,#375,#376,#377,#378,#379,#380,
#381,#382,#383,#384,#385,#386,#387,#388,#389,#390,#391,#392,#393));
#395=STYLED_ITEM('',(#396),#403);
#396=PRESENTATION_STYLE_ASSIGNMENT((#397));
#397=SURFACE_STYLE_USAGE(.BOTH.,#398);
#398=SURFACE_SIDE_STYLE('',(#399));
#399=SURFACE_STYLE_FILL_AREA(#400);
#400=FILL_AREA_STYLE('',(#401));
#401=FILL_AREA_STYLE_COLOUR('',#402);
#402=COLOUR_RGB('',0.768627450980392,0.886274509803922,0.952941176470588);
#403=MANIFOLD_SOLID_BREP('slider',#394);
#404=SHAPE_DEFINITION_REPRESENTATION(#676,#405);
#405=SHAPE_REPRESENTATION('slider',(#406),#671);
#406=AXIS2_PLACEMENT_3D('',#562,#446,#447);
#407=AXIS2_PLACEMENT_3D('',#563,#448,#449);
#408=AXIS2_PLACEMENT_3D('',#572,#454,#455);
#409=AXIS2_PLACEMENT_3D('',#581,#460,#461);
#410=AXIS2_PLACEMENT_3D('',#582,#462,#463);
#411=AXIS2_PLACEMENT_3D('',#583,#464,#465);
#412=AXIS2_PLACEMENT_3D('',#584,#466,#467);
#413=AXIS2_PLACEMENT_3D('',#585,#468,#469);
#414=AXIS2_PLACEMENT_3D('',#586,#470,#471);
#415=AXIS2_PLACEMENT_3D('',#587,#472,#473);
#416=AXIS2_PLACEMENT_3D('',#588,#474,#475);
#417=AXIS2_PLACEMENT_3D('',#593,#477,#478);
#418=AXIS2_PLACEMENT_3D('',#599,#481,#482);
#419=AXIS2_PLACEMENT_3D('',#603,#484,#485);
#420=AXIS2_PLACEMENT_3D('',#604,#486,#487);
#421=AXIS2_PLACEMENT_3D('',#610,#491,#492);
#422=AXIS2_PLACEMENT_3D('',#613,#494,#495);
#423=AXIS2_PLACEMENT_3D('',#614,#496,#497);
#424=AXIS2_PLACEMENT_3D('',#618,#500,#501);
#425=AXIS2_PLACEMENT_3D('',#619,#502,#503);
#426=AXIS2_PLACEMENT_3D('',#620,#504,#505);
#427=AXIS2_PLACEMENT_3D('',#621,#506,#507);
#428=AXIS2_PLACEMENT_3D('',#626,#509,#510);
#429=AXIS2_PLACEMENT_3D('',#629,#512,#513);
#430=AXIS2_PLACEMENT_3D('',#638,#518,#519);
#431=AXIS2_PLACEMENT_3D('',#639,#520,#521);
#432=AXIS2_PLACEMENT_3D('',#643,#523,#524);
#433=AXIS2_PLACEMENT_3D('',#644,#525,#526);
#434=AXIS2_PLACEMENT_3D('',#650,#530,#531);
#435=AXIS2_PLACEMENT_3D('',#651,#532,#533);
#436=AXIS2_PLACEMENT_3D('',#652,#534,#535);
#437=AXIS2_PLACEMENT_3D('',#653,#536,#537);
#438=AXIS2_PLACEMENT_3D('',#654,#538,#539);
#439=AXIS2_PLACEMENT_3D('',#657,#542,#543);
#440=AXIS2_PLACEMENT_3D('',#659,#545,#546);
#441=AXIS2_PLACEMENT_3D('',#661,#548,#549);
#442=AXIS2_PLACEMENT_3D('',#662,#550,#551);
#443=AXIS2_PLACEMENT_3D('',#665,#554,#555);
#444=AXIS2_PLACEMENT_3D('',#667,#557,#558);
#445=AXIS2_PLACEMENT_3D('',#669,#560,#561);
#446=DIRECTION('',(0.,0.,1.));
#447=DIRECTION('',(1.,0.,0.));
#448=DIRECTION('',(0.,1.,0.));
#449=DIRECTION('',(0.,0.,1.));
#450=DIRECTION('',(0.,0.,1.));
#451=DIRECTION('',(-1.,0.,0.));
#452=DIRECTION('',(0.,0.,1.));
#453=DIRECTION('',(-1.,0.,0.));
#454=DIRECTION('',(0.,1.,0.));
#455=DIRECTION('',(0.,0.,1.));
#456=DIRECTION('',(-1.,0.,0.));
#457=DIRECTION('',(0.,0.,1.));
#458=DIRECTION('',(-1.,0.,0.));
#459=DIRECTION('',(0.,0.,1.));
#460=DIRECTION('',(0.,0.,1.));
#461=DIRECTION('',(1.,0.,0.));
#462=DIRECTION('',(0.,0.,1.));
#463=DIRECTION('',(1.,0.,0.));
#464=DIRECTION('',(0.,0.,-1.));
#465=DIRECTION('',(1.,0.,0.));
#466=DIRECTION('',(0.,0.,1.));
#467=DIRECTION('',(1.,0.,0.));
#468=DIRECTION('',(0.,0.,1.));
#469=DIRECTION('',(1.,0.,0.));
#470=DIRECTION('',(0.,0.,1.));
#471=DIRECTION('',(1.,0.,0.));
#472=DIRECTION('',(0.,0.,1.));
#473=DIRECTION('',(1.,0.,0.));
#474=DIRECTION('',(0.,0.,1.));
#475=DIRECTION('',(1.,0.,0.));
#476=DIRECTION('',(-1.,0.,0.));
#477=DIRECTION('',(0.,0.,1.));
#478=DIRECTION('',(1.,0.,0.));
#479=DIRECTION('',(1.,0.,0.));
#480=DIRECTION('',(-1.,1.23908819712629E-16,0.));
#481=DIRECTION('',(0.,0.,1.));
#482=DIRECTION('',(1.,0.,0.));
#483=DIRECTION('',(-1.,1.23908819712629E-16,0.));
#484=DIRECTION('',(0.,0.,-1.));
#485=DIRECTION('',(1.,0.,0.));
#486=DIRECTION('',(1.23908819712629E-16,1.,0.));
#487=DIRECTION('',(-1.,1.23908819712629E-16,0.));
#488=DIRECTION('',(0.,0.,1.));
#489=DIRECTION('',(-1.,1.23908819712629E-16,0.));
#490=DIRECTION('',(0.,0.,1.));
#491=DIRECTION('',(0.,0.,1.));
#492=DIRECTION('',(1.,0.,0.));
#493=DIRECTION('',(0.,0.,1.));
#494=DIRECTION('',(0.,0.,1.));
#495=DIRECTION('',(1.,0.,0.));
#496=DIRECTION('',(1.23908819712629E-16,1.,0.));
#497=DIRECTION('',(-1.,1.23908819712629E-16,0.));
#498=DIRECTION('',(0.,0.,1.));
#499=DIRECTION('',(1.,-1.23908819712629E-16,0.));
#500=DIRECTION('',(0.,0.,1.));
#501=DIRECTION('',(1.,0.,0.));
#502=DIRECTION('',(0.,0.,1.));
#503=DIRECTION('',(1.,0.,0.));
#504=DIRECTION('',(0.,0.,1.));
#505=DIRECTION('',(1.,0.,0.));
#506=DIRECTION('',(0.,0.,1.));
#507=DIRECTION('',(1.,0.,0.));
#508=DIRECTION('',(-1.,1.23908819712629E-16,0.));
#509=DIRECTION('',(0.,0.,1.));
#510=DIRECTION('',(1.,0.,0.));
#511=DIRECTION('',(1.,-1.23908819712629E-16,0.));
#512=DIRECTION('',(0.,-1.,0.));
#513=DIRECTION('',(0.,0.,-1.));
#514=DIRECTION('',(0.,0.,-1.));
#515=DIRECTION('',(1.,0.,0.));
#516=DIRECTION('',(0.,0.,-1.));
#517=DIRECTION('',(-1.,0.,0.));
#518=DIRECTION('',(0.,0.,-1.));
#519=DIRECTION('',(-1.,0.,0.));
#520=DIRECTION('',(0.,0.,1.));
#521=DIRECTION('',(1.,0.,0.));
#522=DIRECTION('',(0.,0.,-1.));
#523=DIRECTION('',(0.,0.,1.));
#524=DIRECTION('',(1.,0.,0.));
#525=DIRECTION('',(0.,1.,0.));
#526=DIRECTION('',(0.,0.,1.));
#527=DIRECTION('',(-1.,0.,0.));
#528=DIRECTION('',(0.,0.,-1.));
#529=DIRECTION('',(1.,0.,0.));
#530=DIRECTION('',(0.,0.,-1.));
#531=DIRECTION('',(-1.,0.,0.));
#532=DIRECTION('',(0.,0.,1.));
#533=DIRECTION('',(1.,0.,0.));
#534=DIRECTION('',(0.,0.,1.));
#535=DIRECTION('',(1.,0.,0.));
#536=DIRECTION('',(0.,0.,1.));
#537=DIRECTION('',(1.,0.,0.));
#538=DIRECTION('',(-8.76167666676214E-17,-0.707106781186548,0.707106781186548));
#539=DIRECTION('',(1.,-1.23908819712629E-16,0.));
#540=DIRECTION('',(0.,0.707106781186547,0.707106781186548));
#541=DIRECTION('',(0.,-0.707106781186548,-0.707106781186548));
#542=DIRECTION('',(0.,0.,1.));
#543=DIRECTION('',(1.,0.,0.));
#544=DIRECTION('',(0.,0.707106781186548,-0.707106781186548));
#545=DIRECTION('',(0.,0.,1.));
#546=DIRECTION('',(1.,0.,0.));
#547=DIRECTION('',(0.,-0.707106781186548,0.707106781186548));
#548=DIRECTION('',(-8.76167666676214E-17,-0.707106781186548,-0.707106781186548));
#549=DIRECTION('',(-1.,1.23908819712629E-16,0.));
#550=DIRECTION('',(0.,0.707106781186545,-0.707106781186551));
#551=DIRECTION('',(-1.,0.,0.));
#552=DIRECTION('',(0.,-0.707106781186551,-0.707106781186545));
#553=DIRECTION('',(0.,0.707106781186551,0.707106781186545));
#554=DIRECTION('',(0.,0.,1.));
#555=DIRECTION('',(1.,0.,0.));
#556=DIRECTION('',(0.,-0.707106781186547,0.707106781186548));
#557=DIRECTION('',(0.,0.,1.));
#558=DIRECTION('',(1.,0.,0.));
#559=DIRECTION('',(0.,0.707106781186547,-0.707106781186548));
#560=DIRECTION('',(0.,-0.707106781186545,-0.707106781186551));
#561=DIRECTION('',(1.,0.,0.));
#562=CARTESIAN_POINT('',(0.,0.,0.));
#563=CARTESIAN_POINT('',(-1.7347234759768E-18,0.008,-0.006));
#564=CARTESIAN_POINT('',(0.0105,0.008,-0.006));
#565=CARTESIAN_POINT('',(0.0105,0.008,-0.001));
#566=CARTESIAN_POINT('',(0.0105,0.008,0.));
#567=CARTESIAN_POINT('',(-1.7347234759768E-18,0.008,-0.001));
#568=CARTESIAN_POINT('',(-0.0105,0.008,-0.001));
#569=CARTESIAN_POINT('',(-0.0105,0.008,-0.006));
#570=CARTESIAN_POINT('',(-0.0105,0.008,0.));
#571=CARTESIAN_POINT('',(-1.7347234759768E-18,0.008,0.));
#572=CARTESIAN_POINT('',(1.7347234759768E-18,-0.008,-0.006));
#573=CARTESIAN_POINT('',(1.7347234759768E-18,-0.008,-0.001));
#574=CARTESIAN_POINT('',(0.0105,-0.008,-0.001));
#575=CARTESIAN_POINT('',(-0.0105,-0.008,-0.001));
#576=CARTESIAN_POINT('',(0.0105,-0.008,-0.006));
#577=CARTESIAN_POINT('',(0.0105,-0.008,0.));
#578=CARTESIAN_POINT('',(1.7347234759768E-18,-0.008,0.));
#579=CARTESIAN_POINT('',(-0.0105,-0.008,0.));
#580=CARTESIAN_POINT('',(-0.0105,-0.008,-0.006));
#581=CARTESIAN_POINT('',(0.0105,-3.46944695195361E-18,-0.006));
#582=CARTESIAN_POINT('',(0.0105,-3.46944695195361E-18,-0.001));
#583=CARTESIAN_POINT('',(0.0105,-3.46944695195361E-18,0.));
#584=CARTESIAN_POINT('',(-0.0105,0.,-0.006));
#585=CARTESIAN_POINT('',(-0.0105,0.,-0.001));
#586=CARTESIAN_POINT('',(-0.0105,0.,0.));
#587=CARTESIAN_POINT('',(0.,0.0032618080303073,-0.006));
#588=CARTESIAN_POINT('',(0.0105,-3.46944695195361E-18,-0.006));
#589=CARTESIAN_POINT('',(0.0105,0.0045,-0.006));
#590=CARTESIAN_POINT('',(0.0105,-0.0045,-0.006));
#591=CARTESIAN_POINT('',(-0.0105,-0.0045,-0.006));
#592=CARTESIAN_POINT('',(-0.0105,-0.0045,-0.006));
#593=CARTESIAN_POINT('',(-0.0105,0.,-0.006));
#594=CARTESIAN_POINT('',(-0.0105,0.0045,-0.006));
#595=CARTESIAN_POINT('',(0.0105,0.0045,-0.006));
#596=CARTESIAN_POINT('',(-8.67361737988404E-19,0.004,-0.006));
#597=CARTESIAN_POINT('',(0.0105,0.004,-0.006));
#598=CARTESIAN_POINT('',(-0.0105,0.004,-0.006));
#599=CARTESIAN_POINT('',(-0.0105,0.,-0.006));
#600=CARTESIAN_POINT('',(-0.0105,-0.004,-0.006));
#601=CARTESIAN_POINT('',(0.,-0.004,-0.006));
#602=CARTESIAN_POINT('',(0.0105,-0.004,-0.006));
#603=CARTESIAN_POINT('',(0.0105,-1.7347234759768E-18,-0.006));
#604=CARTESIAN_POINT('',(-8.67361737988404E-19,0.004,-0.006));
#605=CARTESIAN_POINT('',(0.0105,0.004,-0.006));
#606=CARTESIAN_POINT('',(0.0105,0.004,-0.0005));
#607=CARTESIAN_POINT('',(-0.0105,0.004,-0.0005));
#608=CARTESIAN_POINT('',(-0.0105,0.004,-0.0005));
#609=CARTESIAN_POINT('',(-0.0105,0.004,-0.006));
#610=CARTESIAN_POINT('',(0.0105,-1.7347234759768E-18,-0.006));
#611=CARTESIAN_POINT('',(0.0105,-0.004,-0.006));
#612=CARTESIAN_POINT('',(0.0105,-0.004,-0.0005));
#613=CARTESIAN_POINT('',(0.0105,-1.7347234759768E-18,-0.0005));
#614=CARTESIAN_POINT('',(0.,-0.004,-0.006));
#615=CARTESIAN_POINT('',(-0.0105,-0.004,-0.006));
#616=CARTESIAN_POINT('',(-0.0105,-0.004,-0.0005));
#617=CARTESIAN_POINT('',(0.,-0.004,-0.0005));
#618=CARTESIAN_POINT('',(-0.0105,0.,-0.006));
#619=CARTESIAN_POINT('',(-0.0105,0.,-0.0005));
#620=CARTESIAN_POINT('',(0.,0.0032618080303073,0.));
#621=CARTESIAN_POINT('',(0.0105,-1.7347234759768E-18,0.));
#622=CARTESIAN_POINT('',(0.0105,0.0045,0.));
#623=CARTESIAN_POINT('',(0.0105,-0.0045,0.));
#624=CARTESIAN_POINT('',(-9.61756471871383E-19,-0.0045,0.));
#625=CARTESIAN_POINT('',(-0.0105,-0.0045,0.));
#626=CARTESIAN_POINT('',(-0.0105,0.,0.));
#627=CARTESIAN_POINT('',(-0.0105,0.0045,0.));
#628=CARTESIAN_POINT('',(0.0105,0.0045,0.));
#629=CARTESIAN_POINT('',(0.,-0.005,0.252817621135332));
#630=CARTESIAN_POINT('',(-0.0105,-0.005,0.252817621135332));
#631=CARTESIAN_POINT('',(-0.0105,-0.005,-0.001));
#632=CARTESIAN_POINT('',(-0.0105,-0.005,-0.0055));
#633=CARTESIAN_POINT('',(0.0105,-0.005,-0.0055));
#634=CARTESIAN_POINT('',(0.0105,-0.005,-0.0055));
#635=CARTESIAN_POINT('',(0.0105,-0.005,0.252817621135332));
#636=CARTESIAN_POINT('',(0.0105,-0.005,-0.001));
#637=CARTESIAN_POINT('',(0.,-0.005,-0.001));
#638=CARTESIAN_POINT('',(0.0105,-3.46944695195361E-18,0.252817621135332));
#639=CARTESIAN_POINT('',(0.0105,-3.46944695195361E-18,-0.0055));
#640=CARTESIAN_POINT('',(0.0105,0.005,-0.0055));
#641=CARTESIAN_POINT('',(0.0105,0.005,0.252817621135332));
#642=CARTESIAN_POINT('',(0.0105,0.005,-0.001));
#643=CARTESIAN_POINT('',(0.0105,-3.46944695195361E-18,-0.001));
#644=CARTESIAN_POINT('',(0.,0.005,0.252817621135332));
#645=CARTESIAN_POINT('',(-0.0105,0.005,-0.0055));
#646=CARTESIAN_POINT('',(-0.0105,0.005,-0.0055));
#647=CARTESIAN_POINT('',(-0.0105,0.005,0.252817621135332));
#648=CARTESIAN_POINT('',(-0.0105,0.005,-0.001));
#649=CARTESIAN_POINT('',(0.,0.005,-0.001));
#650=CARTESIAN_POINT('',(-0.0105,0.,0.252817621135332));
#651=CARTESIAN_POINT('',(-0.0105,0.,-0.0055));
#652=CARTESIAN_POINT('',(-0.0105,0.,-0.001));
#653=CARTESIAN_POINT('',(0.,0.0032618080303073,-0.001));
#654=CARTESIAN_POINT('',(-8.67361737988404E-19,0.004,-0.0005));
#655=CARTESIAN_POINT('',(-0.0105,0.004,-0.0005));
#656=CARTESIAN_POINT('',(0.0105,0.0045,0.));
#657=CARTESIAN_POINT('',(0.0105,-1.7347234759768E-18,0.));
#658=CARTESIAN_POINT('',(0.0105,-0.0045,0.));
#659=CARTESIAN_POINT('',(-0.0105,0.,-0.0005));
#660=CARTESIAN_POINT('',(-0.0105,-0.004,-0.0005));
#661=CARTESIAN_POINT('',(-9.61756471871383E-19,-0.0045,0.));
#662=CARTESIAN_POINT('',(0.,0.0045,-0.006));
#663=CARTESIAN_POINT('',(-0.0105,0.005,-0.0055));
#664=CARTESIAN_POINT('',(0.0105,0.0045,-0.006));
#665=CARTESIAN_POINT('',(0.0105,-3.46944695195361E-18,-0.006));
#666=CARTESIAN_POINT('',(0.0105,-0.0045,-0.006));
#667=CARTESIAN_POINT('',(-0.0105,0.,-0.006));
#668=CARTESIAN_POINT('',(-0.0105,-0.005,-0.0055));
#669=CARTESIAN_POINT('',(0.,-0.0045,-0.006));
#670=MECHANICAL_DESIGN_GEOMETRIC_PRESENTATION_REPRESENTATION('',(#395),
#671);
#671=(
GEOMETRIC_REPRESENTATION_CONTEXT(3)
GLOBAL_UNCERTAINTY_ASSIGNED_CONTEXT((#672))
GLOBAL_UNIT_ASSIGNED_CONTEXT((#675,#674,#673))
REPRESENTATION_CONTEXT('slider','TOP_LEVEL_ASSEMBLY_PART')
);
#672=UNCERTAINTY_MEASURE_WITH_UNIT(LENGTH_MEASURE(5.E-6),#675,
'DISTANCE_ACCURACY_VALUE','Maximum Tolerance applied to model');
#673=(
NAMED_UNIT(*)
SI_UNIT($,.STERADIAN.)
SOLID_ANGLE_UNIT()
);
#674=(
NAMED_UNIT(*)
PLANE_ANGLE_UNIT()
SI_UNIT($,.RADIAN.)
);
#675=(
LENGTH_UNIT()
NAMED_UNIT(*)
SI_UNIT($,.METRE.)
);
#676=PRODUCT_DEFINITION_SHAPE('','',#677);
#677=PRODUCT_DEFINITION('','',#679,#678);
#678=PRODUCT_DEFINITION_CONTEXT('',#685,'design');
#679=PRODUCT_DEFINITION_FORMATION_WITH_SPECIFIED_SOURCE('','',#681,
 .NOT_KNOWN.);
#680=PRODUCT_RELATED_PRODUCT_CATEGORY('','',(#681));
#681=PRODUCT('slider','slider','slider',(#683));
#682=PRODUCT_CATEGORY('','');
#683=PRODUCT_CONTEXT('',#685,'mechanical');
#684=APPLICATION_PROTOCOL_DEFINITION('international standard',
'automotive_design',2010,#685);
#685=APPLICATION_CONTEXT(
'core data for automotive mechanical design processes');
ENDSEC;
END-ISO-10303-21;
