  0
SECTION
  2
HEADER
  9
$ACADVER
  1
AC1009
  9
$INSBASE
 10
0.0
 20
0.0
 30
0.0
  9
$EXTMIN
 10
0.0
 20
0.0
 30
0.0
  9
$EXTMAX
 10
0.0
 20
0.0
 30
0.0
  0
ENDSEC
  0
SECTION
  2
TABLES
  0
TABLE
  2
VPORT
 70
0
  0
ENDTAB
  0
TABLE
  2
LTYPE
 70
1
  0
LTYPE
  2
CONTINUOUS
 70
0
  3
Solid line
 72
65
 73
0
 40
0.0
  0
ENDTAB
  0
TABLE
  2
LAYER
 70
1
  0
LAYER
  2
0
 70
64
 62
7
  6
continuous
  0
ENDTAB
  0
TABLE
  2
STYLE
 70
1
  0
STYLE
  2
STANDARD
 70
0
 40
0
 41
1.0
 50
0.0
 71
0
 42
1
 3
ARIAL.TTF
 4

  0
ENDTAB
  0
TABLE
  2
VIEW
 70
0
  0
ENDTAB
  0
ENDSEC
  0
SECTION
  2
BLOCKS
  0
BLOCK
  8
0
  2
FILLET002
 70
0
 10
0.0
 20
0.0
 30
0.0
  3
FILLET002
  0
LINE
  8
0
 62
0
 10
8.56617806811
 20
72.39828387
 30
0.0
 11
10.0
 21
72.0
 31
0.0
  0
ARC
  8
0
 62
0
 10
8.7
 20
72.8800428248
 30
0.0
 40
0.5
 50
-180.0
 51
-105.524110997
  0
LINE
  8
0
 62
0
 10
10.0
 20
72.0
 30
0.0
 11
10.0
 21
-80.0
 31
0.0
  0
LINE
  8
0
 62
0
 10
8.2
 20
80.0
 30
0.0
 11
8.2
 21
72.8800428248
 31
0.0
  0
LINE
  8
0
 62
0
 10
10.0
 20
-80.0
 30
0.0
 11
6.35
 21
-80.0
 31
0.0
  0
LINE
  8
0
 62
0
 10
5.0
 20
80.0
 30
0.0
 11
8.2
 21
80.0
 31
0.0
  0
LINE
  8
0
 62
0
 10
6.35
 20
-80.0
 30
0.0
 11
6.35
 21
-73.5
 31
0.0
  0
LINE
  8
0
 62
0
 10
5.0
 20
80.0
 30
0.0
 11
5.0
 21
73.5
 31
0.0
  0
ARC
  8
0
 62
0
 10
5.85
 20
-73.5
 30
0.0
 40
0.5
 50
-0.0
 51
90.0
  0
ARC
  8
0
 62
0
 10
4.5
 20
73.5
 30
0.0
 40
0.5
 50
-90.0
 51
-0.0
  0
LINE
  8
0
 62
0
 10
5.85
 20
-73.0
 30
0.0
 11
-5.85
 21
-73.0
 31
0.0
  0
LINE
  8
0
 62
0
 10
4.5
 20
73.0
 30
0.0
 11
-4.5
 21
73.0
 31
0.0
  0
ARC
  8
0
 62
0
 10
-5.85
 20
-73.5
 30
0.0
 40
0.5
 50
90.0
 51
-180.0
  0
ARC
  8
0
 62
0
 10
-4.5
 20
73.5
 30
0.0
 40
0.5
 50
-180.0
 51
-90.0
  0
LINE
  8
0
 62
0
 10
-6.35
 20
-73.5
 30
0.0
 11
-6.35
 21
-80.0
 31
0.0
  0
LINE
  8
0
 62
0
 10
-5.0
 20
73.5
 30
0.0
 11
-5.0
 21
80.0
 31
0.0
  0
LINE
  8
0
 62
0
 10
-6.35
 20
-80.0
 30
0.0
 11
-10.0
 21
-80.0
 31
0.0
  0
LINE
  8
0
 62
0
 10
-8.2
 20
80.0
 30
0.0
 11
-5.0
 21
80.0
 31
0.0
  0
LINE
  8
0
 62
0
 10
-10.0
 20
-80.0
 30
0.0
 11
-10.0
 21
72.0
 31
0.0
  0
LINE
  8
0
 62
0
 10
-8.2
 20
72.8800428248
 30
0.0
 11
-8.2
 21
80.0
 31
0.0
  0
LINE
  8
0
 62
0
 10
-10.0
 20
72.0
 30
0.0
 11
-8.56617806811
 21
72.39828387
 31
0.0
  0
ARC
  8
0
 62
0
 10
-8.7
 20
72.8800428248
 30
0.0
 40
0.5
 50
-74.4758890032
 51
-0.0
  0
ENDBLK
  0
ENDSEC
  0
SECTION
  2
ENTITIES
  0
INSERT
  2
FILLET002
  8
0
 10
0.0
 20
0.0
 30
0.0
  0
ENDSEC
  0
EOF
