  0
SECTION
  2
HEADER
  9
$ACADVER
  1
AC1015
  9
$ACADMAINTVER
 70
     6
  9
$DWGCODEPAGE
  3
ANSI_1252
  9
$INSBASE
 10
0.0
 20
0.0
 30
0.0
  9
$EXTMIN
 10
-76.3623093404
 20
-3.3594899009
 30
0.0
  9
$EXTMAX
 10
13.6376906596
 20
69.6405100991
 30
0.0
  9
$LIMMIN
 10
0.0
 20
0.0
  9
$LIMMAX
 10
420.0
 20
297.0
  9
$ORTHOMODE
 70
     0
  9
$REGENMODE
 70
     1
  9
$FILLMODE
 70
     1
  9
$QTEXTMODE
 70
     0
  9
$MIRRTEXT
 70
     1
  9
$LTSCALE
 40
1.0
  9
$ATTMODE
 70
     1
  9
$TEXTSIZE
 40
3.175
  9
$TRACEWID
 40
1.0
  9
$TEXTSTYLE
  7
Standard
  9
$CLAYER
  8
0
  9
$CELTYPE
  6
ByLayer
  9
$CECOLOR
 62
   256
  9
$CELTSCALE
 40
1.0
  9
$DISPSILH
 70
     0
  9
$DIMSCALE
 40
1.0
  9
$DIMASZ
 40
3.302
  9
$DIMEXO
 40
0.0
  9
$DIMDLI
 40
3.75
  9
$DIMRND
 40
0.0
  9
$DIMDLE
 40
0.0
  9
$DIMEXE
 40
3.175
  9
$DIMTP
 40
0.0
  9
$DIMTM
 40
0.0
  9
$DIMTXT
 40
3.175
  9
$DIMCEN
 40
2.5
  9
$DIMTSZ
 40
0.0
  9
$DIMTOL
 70
     0
  9
$DIMLIM
 70
     0
  9
$DIMTIH
 70
     1
  9
$DIMTOH
 70
     1
  9
$DIMSE1
 70
     0
  9
$DIMSE2
 70
     0
  9
$DIMTAD
 70
     0
  9
$DIMZIN
 70
     0
  9
$DIMBLK
  1

  9
$DIMASO
 70
     1
  9
$DIMSHO
 70
     1
  9
$DIMPOST
  1

  9
$DIMAPOST
  1

  9
$DIMALT
 70
     0
  9
$DIMALTD
 70
     3
  9
$DIMALTF
 40
0.0393700787
  9
$DIMLFAC
 40
1.0
  9
$DIMTOFL
 70
     1
  9
$DIMTVP
 40
0.0
  9
$DIMTIX
 70
     0
  9
$DIMSOXD
 70
     0
  9
$DIMSAH
 70
     0
  9
$DIMBLK1
  1

  9
$DIMBLK2
  1

  9
$DIMSTYLE
  2
ISO-25
  9
$DIMCLRD
 70
     0
  9
$DIMCLRE
 70
     0
  9
$DIMCLRT
 70
     0
  9
$DIMTFAC
 40
1.0
  9
$DIMGAP
 40
1.524
  9
$DIMJUST
 70
     0
  9
$DIMSD1
 70
     0
  9
$DIMSD2
 70
     0
  9
$DIMTOLJ
 70
     0
  9
$DIMTZIN
 70
     0
  9
$DIMALTZ
 70
     0
  9
$DIMALTTZ
 70
     0
  9
$DIMUPT
 70
     0
  9
$DIMDEC
 70
     2
  9
$DIMTDEC
 70
     2
  9
$DIMALTU
 70
     2
  9
$DIMALTTD
 70
     3
  9
$DIMTXSTY
  7
Standard
  9
$DIMAUNIT
 70
     0
  9
$DIMADEC
 70
     2
  9
$DIMALTRND
 40
0.0
  9
$DIMAZIN
 70
     0
  9
$DIMDSEP
 70
    44
  9
$DIMATFIT
 70
     3
  9
$DIMFRAC
 70
     0
  9
$DIMLDRBLK
  1

  9
$DIMLUNIT
 70
     2
  9
$DIMLWD
 70
    -2
  9
$DIMLWE
 70
    -2
  9
$DIMTMOVE
 70
     0
  9
$LUNITS
 70
     2
  9
$LUPREC
 70
     2
  9
$SKETCHINC
 40
1.0
  9
$FILLETRAD
 40
10.0
  9
$AUNITS
 70
     0
  9
$AUPREC
 70
     2
  9
$MENU
  1
.
  9
$ELEVATION
 40
0.0
  9
$PELEVATION
 40
0.0
  9
$THICKNESS
 40
0.0
  9
$LIMCHECK
 70
     0
  9
$CHAMFERA
 40
0.0
  9
$CHAMFERB
 40
0.0
  9
$CHAMFERC
 40
0.0
  9
$CHAMFERD
 40
0.0
  9
$SKPOLY
 70
     0
  9
$TDCREATE
 40
2459458.200559815
  9
$TDUCREATE
 40
2459458.117226481
  9
$TDUPDATE
 40
2459458.200608391
  9
$TDUUPDATE
 40
2459458.117275058
  9
$TDINDWG
 40
0.0000000116
  9
$TDUSRTIMER
 40
0.0000000116
  9
$USRTIMER
 70
     1
  9
$ANGBASE
 50
0.0
  9
$ANGDIR
 70
     0
  9
$PDMODE
 70
     0
  9
$PDSIZE
 40
-1.0
  9
$PLINEWID
 40
0.0
  9
$SPLFRAME
 70
     0
  9
$SPLINETYPE
 70
     6
  9
$SPLINESEGS
 70
     8
  9
$HANDSEED
  5
117
  9
$SURFTAB1
 70
     6
  9
$SURFTAB2
 70
     6
  9
$SURFTYPE
 70
     6
  9
$SURFU
 70
     6
  9
$SURFV
 70
     6
  9
$UCSBASE
  2

  9
$UCSNAME
  2

  9
$UCSORG
 10
0.0
 20
0.0
 30
0.0
  9
$UCSXDIR
 10
1.0
 20
0.0
 30
0.0
  9
$UCSYDIR
 10
0.0
 20
1.0
 30
0.0
  9
$UCSORTHOREF
  2

  9
$UCSORTHOVIEW
 70
     0
  9
$UCSORGTOP
 10
0.0
 20
0.0
 30
0.0
  9
$UCSORGBOTTOM
 10
0.0
 20
0.0
 30
0.0
  9
$UCSORGLEFT
 10
0.0
 20
0.0
 30
0.0
  9
$UCSORGRIGHT
 10
0.0
 20
0.0
 30
0.0
  9
$UCSORGFRONT
 10
0.0
 20
0.0
 30
0.0
  9
$UCSORGBACK
 10
0.0
 20
0.0
 30
0.0
  9
$PUCSBASE
  2

  9
$PUCSNAME
  2

  9
$PUCSORG
 10
0.0
 20
0.0
 30
0.0
  9
$PUCSXDIR
 10
1.0
 20
0.0
 30
0.0
  9
$PUCSYDIR
 10
0.0
 20
1.0
 30
0.0
  9
$PUCSORTHOREF
  2

  9
$PUCSORTHOVIEW
 70
     0
  9
$PUCSORGTOP
 10
0.0
 20
0.0
 30
0.0
  9
$PUCSORGBOTTOM
 10
0.0
 20
0.0
 30
0.0
  9
$PUCSORGLEFT
 10
0.0
 20
0.0
 30
0.0
  9
$PUCSORGRIGHT
 10
0.0
 20
0.0
 30
0.0
  9
$PUCSORGFRONT
 10
0.0
 20
0.0
 30
0.0
  9
$PUCSORGBACK
 10
0.0
 20
0.0
 30
0.0
  9
$USERI1
 70
     0
  9
$USERI2
 70
     0
  9
$USERI3
 70
     0
  9
$USERI4
 70
     0
  9
$USERI5
 70
     0
  9
$USERR1
 40
0.0
  9
$USERR2
 40
0.0
  9
$USERR3
 40
0.0
  9
$USERR4
 40
0.0
  9
$USERR5
 40
0.0
  9
$WORLDVIEW
 70
     1
  9
$SHADEDGE
 70
     3
  9
$SHADEDIF
 70
    70
  9
$TILEMODE
 70
     1
  9
$MAXACTVP
 70
    64
  9
$PINSBASE
 10
0.0
 20
0.0
 30
0.0
  9
$PLIMCHECK
 70
     0
  9
$PEXTMIN
 10
1.0000000000E+20
 20
1.0000000000E+20
 30
1.0000000000E+20
  9
$PEXTMAX
 10
-1.0000000000E+20
 20
-1.0000000000E+20
 30
-1.0000000000E+20
  9
$PLIMMIN
 10
0.0
 20
0.0
  9
$PLIMMAX
 10
420.0
 20
297.0
  9
$UNITMODE
 70
     0
  9
$VISRETAIN
 70
     1
  9
$PLINEGEN
 70
     0
  9
$PSLTSCALE
 70
     1
  9
$TREEDEPTH
 70
  3020
  9
$CMLSTYLE
  2
Standard
  9
$CMLJUST
 70
     0
  9
$CMLSCALE
 40
20.0
  9
$PROXYGRAPHICS
 70
     1
  9
$MEASUREMENT
 70
     1
  9
$CELWEIGHT
370
    -1
  9
$ENDCAPS
280
     0
  9
$JOINSTYLE
280
     0
  9
$LWDISPLAY
290
     1
  9
$INSUNITS
 70
     4
  9
$HYPERLINKBASE
  1

  9
$STYLESHEET
  1

  9
$XEDIT
290
     1
  9
$CEPSNTYPE
380
     0
  9
$PSTYLEMODE
290
     1
  9
$FINGERPRINTGUID
  2
{960bb794-c7df-46e8-a566-98bba9561b99}
  9
$VERSIONGUID
  2
{FAEB1C32-E019-11D5-929B-00C0DF256EC4}
  9
$EXTNAMES
290
     1
  9
$PSVPSCALE
 40
0.0
  9
$OLESTARTUP
290
     0
  0
ENDSEC
  0
SECTION
  2
CLASSES
  0
CLASS
  1
ACDBDICTIONARYWDFLT
  2
AcDbDictionaryWithDefault
  3
ObjectDBX Classes
 90
        0
280
     0
281
     0
  0
CLASS
  1
VISUALSTYLE
  2
AcDbVisualStyle
  3
ObjectDBX Classes
 90
     4095
280
     0
281
     0
  0
CLASS
  1
MATERIAL
  2
AcDbMaterial
  3
ObjectDBX Classes
 90
     1153
280
     0
281
     0
  0
CLASS
  1
SCALE
  2
AcDbScale
  3
ObjectDBX Classes
 90
     1153
280
     0
281
     0
  0
CLASS
  1
TABLESTYLE
  2
AcDbTableStyle
  3
ObjectDBX Classes
 90
     4095
280
     0
281
     0
  0
CLASS
  1
MLEADERSTYLE
  2
AcDbMLeaderStyle
  3
ACDB_MLEADERSTYLE_CLASS
 90
     4095
280
     0
281
     0
  0
CLASS
  1
SUN
  2
AcDbSun
  3
SCENEOE
 90
     1153
280
     0
281
     0
  0
CLASS
  1
ACDBPLACEHOLDER
  2
AcDbPlaceHolder
  3
ObjectDBX Classes
 90
        0
280
     0
281
     0
  0
CLASS
  1
LAYOUT
  2
AcDbLayout
  3
ObjectDBX Classes
 90
        0
280
     0
281
     0
  0
ENDSEC
  0
SECTION
  2
TABLES
  0
TABLE
  2
VPORT
  5
8
330
0
100
AcDbSymbolTable
 70
     1
  0
VPORT
  5
29
330
8
100
AcDbSymbolTableRecord
100
AcDbViewportTableRecord
  2
*Active
 70
     0
 10
0.0
 20
0.0
 11
1.0
 21
1.0
 12
-31.3623093404
 22
33.1405100991
 13
0.0
 23
0.0
 14
10.0
 24
10.0
 15
10.0
 25
10.0
 16
0.0
 26
0.0
 36
1.0
 17
0.0
 27
0.0
 37
0.0
 40
74.46
 41
1.2328767123
 42
50.0
 43
0.0
 44
0.0
 50
0.0
 51
0.0
 71
     0
 72
   100
 73
     1
 74
     3
 75
     0
 76
     0
 77
     0
 78
     0
281
     0
 65
     1
110
0.0
120
0.0
130
0.0
111
1.0
121
0.0
131
0.0
112
0.0
122
1.0
132
0.0
 79
     0
146
0.0
  0
ENDTAB
  0
TABLE
  2
LTYPE
  5
5
330
0
100
AcDbSymbolTable
 70
     6
  0
LTYPE
  5
14
330
5
100
AcDbSymbolTableRecord
100
AcDbLinetypeTableRecord
  2
ByBlock
 70
     0
  3

 72
    65
 73
     0
 40
0.0
  0
LTYPE
  5
15
330
5
100
AcDbSymbolTableRecord
100
AcDbLinetypeTableRecord
  2
ByLayer
 70
     0
  3

 72
    65
 73
     0
 40
0.0
  0
LTYPE
  5
16
330
5
100
AcDbSymbolTableRecord
100
AcDbLinetypeTableRecord
  2
Continuous
 70
     0
  3
Solid line
 72
    65
 73
     0
 40
0.0
  0
LTYPE
  5
6E
330
5
100
AcDbSymbolTableRecord
100
AcDbLinetypeTableRecord
  2
HIDDEN
 70
     0
  3
Hidden __ __ __ __ __ __ __ __ __ __ __ __ __ __
 72
    65
 73
     2
 40
1.905
 49
1.27
 74
     0
 49
-0.635
 74
     0
  0
LTYPE
  5
6F
330
5
100
AcDbSymbolTableRecord
100
AcDbLinetypeTableRecord
  2
PHANTOM
 70
     0
  3
Phantom ______  __  __  ______  __  __  ______
 72
    65
 73
     6
 40
12.7
 49
6.35
 74
     0
 49
-1.27
 74
     0
 49
1.27
 74
     0
 49
-1.27
 74
     0
 49
1.27
 74
     0
 49
-1.27
 74
     0
  0
LTYPE
  5
70
330
5
100
AcDbSymbolTableRecord
100
AcDbLinetypeTableRecord
  2
CENTER
 70
     0
  3
Center ____ _ ____ _ ____ _ ____ _ ____ _ ____
 72
    65
 73
     4
 40
10.16
 49
6.35
 74
     0
 49
-1.27
 74
     0
 49
1.27
 74
     0
 49
-1.27
 74
     0
  0
LTYPE
  5
71
330
5
100
AcDbSymbolTableRecord
100
AcDbLinetypeTableRecord
  2
CENTERX2
 70
     0
  3
Center (2x) ________  __  ________  __  _____
 72
    65
 73
     4
 40
20.32
 49
12.7
 74
     0
 49
-2.54
 74
     0
 49
2.54
 74
     0
 49
-2.54
 74
     0
  0
LTYPE
  5
72
330
5
100
AcDbSymbolTableRecord
100
AcDbLinetypeTableRecord
  2
DOT2
 70
     0
  3
Dot (.5x) ........................................
 72
    65
 73
     2
 40
0.635
 49
0.0
 74
     0
 49
-0.635
 74
     0
  0
ENDTAB
  0
TABLE
  2
LAYER
  5
2
330
0
100
AcDbSymbolTable
 70
     1
  0
LAYER
  5
10
330
2
100
AcDbSymbolTableRecord
100
AcDbLayerTableRecord
  2
0
 70
     0
 62
     7
  6
Continuous
370
    -3
390
F
  0
ENDTAB
  0
TABLE
  2
STYLE
  5
3
330
0
100
AcDbSymbolTable
 70
     1
  0
STYLE
  5
11
330
3
100
AcDbSymbolTableRecord
100
AcDbTextStyleTableRecord
  2
Standard
 70
     0
 40
0.0
 41
1.0
 50
0.0
 71
     0
 42
3.175
  3
txt
  4

  0
ENDTAB
  0
TABLE
  2
VIEW
  5
6
330
0
100
AcDbSymbolTable
 70
     0
  0
ENDTAB
  0
TABLE
  2
UCS
  5
7
330
0
100
AcDbSymbolTable
 70
     0
  0
ENDTAB
  0
TABLE
  2
APPID
  5
9
330
0
100
AcDbSymbolTable
 70
     1
  0
APPID
  5
12
330
9
100
AcDbSymbolTableRecord
100
AcDbRegAppTableRecord
  2
ACAD
 70
     0
  0
ENDTAB
  0
TABLE
  2
DIMSTYLE
  5
A
330
0
100
AcDbSymbolTable
 70
     1
100
AcDbDimStyleTable
  0
DIMSTYLE
105
27
330
A
100
AcDbSymbolTableRecord
100
AcDbDimStyleTableRecord
  2
ISO-25
 70
     0
 41
2.5
 42
0.625
 43
3.75
 44
1.25
 73
     0
 74
     0
 77
     1
 78
     8
140
2.5
141
2.5
143
0.0393700787
147
0.625
171
     3
172
     1
178
     0
271
     2
272
     2
274
     3
278
    44
283
     0
284
     8
340
11
  0
ENDTAB
  0
TABLE
  2
BLOCK_RECORD
  5
1
330
0
100
AcDbSymbolTable
 70
     1
  0
BLOCK_RECORD
  5
1F
330
1
100
AcDbSymbolTableRecord
100
AcDbBlockTableRecord
  2
*Model_Space
340
22
  0
BLOCK_RECORD
  5
1B
330
1
100
AcDbSymbolTableRecord
100
AcDbBlockTableRecord
  2
*Paper_Space
340
1E
  0
BLOCK_RECORD
  5
23
330
1
100
AcDbSymbolTableRecord
100
AcDbBlockTableRecord
  2
*Paper_Space0
340
26
  0
ENDTAB
  0
ENDSEC
  0
SECTION
  2
BLOCKS
  0
BLOCK
  5
20
330
1F
100
AcDbEntity
  8
0
100
AcDbBlockBegin
  2
*Model_Space
 70
     0
 10
0.0
 20
0.0
 30
0.0
  3
*Model_Space
  1

  0
ENDBLK
  5
21
330
1F
100
AcDbEntity
  8
0
100
AcDbBlockEnd
  0
BLOCK
  5
1C
330
1B
100
AcDbEntity
 67
     1
  8
0
100
AcDbBlockBegin
  2
*Paper_Space
 70
     0
 10
0.0
 20
0.0
 30
0.0
  3
*Paper_Space
  1

  0
ENDBLK
  5
1D
330
1B
100
AcDbEntity
 67
     1
  8
0
100
AcDbBlockEnd
  0
BLOCK
  5
24
330
23
100
AcDbEntity
  8
0
100
AcDbBlockBegin
  2
*Paper_Space0
 70
     0
 10
0.0
 20
0.0
 30
0.0
  3
*Paper_Space0
  1

  0
ENDBLK
  5
25
330
23
100
AcDbEntity
  8
0
100
AcDbBlockEnd
  0
ENDSEC
  0
SECTION
  2
ENTITIES
  0
SPLINE
  5
73
330
1F
100
AcDbEntity
  8
0
  6
Continuous
 62
     7
370
    25
100
AcDbSpline
210
0.0
220
0.0
230
1.0
 70
     8
 71
     3
 72
    23
 73
    19
 74
     0
 42
0.00000001
 43
0.00000001
 40
0.0
 40
0.0
 40
0.0
 40
0.0
 40
0.06339559666159
 40
0.1251572666424215
 40
0.185649466526253
 40
0.245976679340815
 40
0.3061083686579561
 40
0.3673505880891743
 40
0.4299020782799137
 40
0.4945399581831936
 40
0.5593725826940479
 40
0.6224096858457364
 40
0.6843574258194747
 40
0.74580660077221
 40
0.8074302750159149
 40
0.8699955160697806
 40
0.9339278677192715
 40
0.9368652886926316
 40
0.9368652886926316
 40
0.9368652886926316
 40
0.9368652886926316
 10
-19.11484840288087
 20
36.84856565463727
 30
0.0
 10
-18.99524565953535
 20
36.84546892542837
 30
0.0
 10
-18.75912275465969
 20
36.83935528057406
 30
0.0
 10
-18.41187116952069
 20
36.78839327924827
 30
0.0
 10
-18.07723006064721
 20
36.70535800418526
 30
0.0
 10
-17.75535075178579
 20
36.58993296595686
 30
0.0
 10
-17.44703919172509
 20
36.43899186796241
 30
0.0
 10
-17.15120786236589
 20
36.2568139893681
 30
0.0
 10
-16.86891641750882
 20
36.03996083186154
 30
0.0
 10
-16.60305755352484
 20
35.79349122184557
 30
0.0
 10
-16.35735601457248
 20
35.52546628297173
 30
0.0
 10
-16.144455487566
 20
35.23688978518834
 30
0.0
 10
-15.96290172863539
 20
34.93523903544654
 30
0.0
 10
-15.81242948749278
 20
34.61970575176994
 30
0.0
 10
-15.69781686828516
 20
34.28810471569489
 30
0.0
 10
-15.61738845276177
 20
33.94212665421684
 30
0.0
 10
-15.58265780217859
 20
33.6999815006858
 30
0.0
 10
-15.57237179117263
 20
33.57433346506819
 30
0.0
 10
-15.57193407050358
 20
33.56881305047009
 30
0.0
  0
LINE
  5
74
330
1F
100
AcDbEntity
  8
0
  6
Continuous
 62
     7
370
    25
100
AcDbLine
 10
-15.5719340705
 20
33.5688130505
 30
0.0
 11
-16.8123106002
 21
33.5688130566
 31
0.0
  0
SPLINE
  5
75
330
1F
100
AcDbEntity
  8
0
  6
Continuous
 62
     7
370
    25
100
AcDbSpline
210
0.0
220
0.0
230
1.0
 70
     8
 71
     3
 72
    22
 73
    18
 74
     0
 42
0.00000001
 43
0.00000001
 40
0.0916005374754169
 40
0.0916005374754169
 40
0.0916005374754169
 40
0.0916005374754169
 40
0.1297911093795352
 40
0.1921752363053296
 40
0.2536170442157559
 40
0.3147191079962374
 40
0.3762822754113767
 40
0.4389729923739132
 40
0.5031747018386414
 40
0.5673294646239474
 40
0.629650993806032
 40
0.6906498673030989
 40
0.7512376127977876
 40
0.8117541138236058
 40
0.8727877774488535
 40
0.9355396326682294
 40
1.0
 40
1.0
 40
1.0
 40
1.0
 10
-16.81231060019118
 20
33.56881305663835
 30
0.0
 10
-16.81816913632697
 20
33.6158748310871
 30
0.0
 10
-16.83744273261285
 20
33.73937064510624
 30
0.0
 10
-16.88400634655495
 20
33.935309023352
 30
0.0
 10
-16.95869873860435
 20
34.15274413693171
 30
0.0
 10
-17.05407696799073
 20
34.36085493410479
 30
0.0
 10
-17.17202182450161
 20
34.55890957429621
 30
0.0
 10
-17.31211945423591
 20
34.74671658709376
 30
0.0
 10
-17.47114551894485
 20
34.92299613952525
 30
0.0
 10
-17.64423561643488
 20
35.08498575653772
 30
0.0
 10
-17.83006513107103
 20
35.22556329736341
 30
0.0
 10
-18.02343434445365
 20
35.34772071073301
 30
0.0
 10
-18.22878008979399
 20
35.44341389573266
 30
0.0
 10
-18.44190116503525
 20
35.51965245322881
 30
0.0
 10
-18.66409804629984
 20
35.5757956209347
 30
0.0
 10
-18.89621231788342
 20
35.60719291846863
 30
0.0
 10
-19.05412445618945
 20
35.61160683420247
 30
0.0
 10
-19.13414093760309
 20
35.61384343241504
 30
0.0
  0
SPLINE
  5
76
330
1F
100
AcDbEntity
  8
0
  6
Continuous
 62
     7
370
    25
100
AcDbSpline
210
0.0
220
0.0
230
1.0
 70
     8
 71
     3
 72
    22
 73
    18
 74
     0
 42
0.00000001
 43
0.00000001
 40
0.0
 40
0.0
 40
0.0
 40
0.0
 40
0.0646087354707743
 40
0.1275117897236759
 40
0.1885213083986481
 40
0.2487081790893708
 40
0.3085982651789134
 40
0.3688122491095535
 40
0.4298875018150756
 40
0.4928024479242459
 40
0.555743332102794
 40
0.6174852948395643
 40
0.6789689634380384
 40
0.7401976913545538
 40
0.802360101697609
 40
0.8662447764427317
 40
0.9061367830411774
 40
0.9061367830411774
 40
0.9061367830411774
 40
0.9061367830411774
 10
-19.13414093760309
 20
35.61384343241504
 30
0.0
 10
-19.21463356806138
 20
35.61168363441219
 30
0.0
 10
-19.37349381032605
 20
35.60742105742813
 30
0.0
 10
-19.60651285471599
 20
35.57494598609671
 30
0.0
 10
-19.83021936648759
 20
35.52307960586351
 30
0.0
 10
-20.04337325188249
 20
35.44795178789494
 30
0.0
 10
-20.24689833842326
 20
35.35233314313855
 30
0.0
 10
-20.44115541303302
 20
35.23655777472349
 30
0.0
 10
-20.62345441681118
 20
35.09664603390498
 30
0.0
 10
-20.79622613077057
 20
34.94010915816039
 30
0.0
 10
-20.95229694433218
 20
34.76569110419939
 30
0.0
 10
-21.09019043167274
 20
34.57877249647519
 30
0.0
 10
-21.20558507037592
 20
34.37966548596157
 30
0.0
 10
-21.30222880318036
 20
34.17021972973308
 30
0.0
 10
-21.37498011473397
 20
33.94808006566245
 30
0.0
 10
-21.41987994504462
 20
33.74610887576711
 30
0.0
 10
-21.43922673743591
 20
33.61815782580209
 30
0.0
 10
-21.44518206100047
 20
33.56881305046833
 30
0.0
  0
LINE
  5
77
330
1F
100
AcDbEntity
  8
0
  6
Continuous
 62
     7
370
    25
100
AcDbLine
 10
-21.445182061
 20
33.5688130505
 30
0.0
 11
-22.6868896555
 21
33.5688130538
 31
0.0
  0
SPLINE
  5
78
330
1F
100
AcDbEntity
  8
0
  6
Continuous
 62
     7
370
    25
100
AcDbSpline
210
0.0
220
0.0
230
1.0
 70
     8
 71
     3
 72
    30
 73
    26
 74
     0
 42
0.00000001
 43
0.00000001
 40
0.0589841357811967
 40
0.0589841357811967
 40
0.0589841357811967
 40
0.0589841357811967
 40
0.0856827648242091
 40
0.1275943241639267
 40
0.1690586225605484
 40
0.2104320288213098
 40
0.2518111664630522
 40
0.2934438397982391
 40
0.3353808532218245
 40
0.3774766059607941
 40
0.4186884906768266
 40
0.4598730336711986
 40
0.5008729046253146
 40
0.5418727755794314
 40
0.5832117768673237
 40
0.6247632017340751
 40
0.666987622382089
 40
0.7093697058942395
 40
0.7511026519448571
 40
0.7925683801202206
 40
0.8335451085502584
 40
0.8748274225565255
 40
0.9160177232110666
 40
0.9578592039763044
 40
1.0
 40
1.0
 40
1.0
 40
1.0
 10
-22.68688965548273
 20
33.56881305380606
 30
0.0
 10
-22.68236538161789
 20
33.61898227875508
 30
0.0
 10
-22.66769597504474
 20
33.74768359593755
 30
0.0
 10
-22.63609127380994
 20
33.95304463207203
 30
0.0
 10
-22.58261049808199
 20
34.18239882974996
 30
0.0
 10
-22.51764502469827
 20
34.40775662008863
 30
0.0
 10
-22.43347307686978
 20
34.62702031695824
 30
0.0
 10
-22.33766262131411
 20
34.84253225963501
 30
0.0
 10
-22.22571712491798
 20
35.05174698221493
 30
0.0
 10
-22.10124455711484
 20
35.25273953442241
 30
0.0
 10
-21.96543390350517
 20
35.44456179930145
 30
0.0
 10
-21.81794367004714
 20
35.62489436525144
 30
0.0
 10
-21.65924897164315
 20
35.79492230362165
 30
0.0
 10
-21.48880292487456
 20
35.95352800842943
 30
0.0
 10
-21.3088475714258
 20
36.10295676424379
 30
0.0
 10
-21.11589282526967
 20
36.23923921198353
 30
0.0
 10
-20.91416186039445
 20
36.36570364083691
 30
0.0
 10
-20.7047919895873
 20
36.48006323064734
 30
0.0
 10
-20.48863553814068
 20
36.57740269334079
 30
0.0
 10
-20.27014575595683
 20
36.6624075881013
 30
0.0
 10
-20.0464039142157
 20
36.7294972096611
 30
0.0
 10
-19.8198078047502
 20
36.78414100451992
 30
0.0
 10
-19.58793670713561
 20
36.82027788374667
 30
0.0
 10
-19.35288544492158
 20
36.84539418348943
 30
0.0
 10
-19.19438238671922
 20
36.84750598874304
 30
0.0
 10
-19.11484840288087
 20
36.84856565463726
 30
0.0
  0
LINE
  5
79
330
1F
100
AcDbEntity
  8
0
  6
Continuous
 62
     7
370
    25
100
AcDbLine
 10
-16.8147884821
 20
32.8688130505
 30
0.0
 11
-15.5712368631
 21
32.8688130468
 31
0.0
  0
SPLINE
  5
7A
330
1F
100
AcDbEntity
  8
0
  6
Continuous
 62
     7
370
    25
100
AcDbSpline
210
0.0
220
0.0
230
1.0
 70
     8
 71
     3
 72
    23
 73
    19
 74
     0
 42
0.00000001
 43
0.00000001
 40
0.0610486924933289
 40
0.0610486924933289
 40
0.0610486924933289
 40
0.0610486924933289
 40
0.0657223151915606
 40
0.1295079307025833
 40
0.1917221026921612
 40
0.2531611245020879
 40
0.314315703735257
 40
0.3759517397728617
 40
0.4386196008234087
 40
0.5029729018927763
 40
0.5671286457242644
 40
0.6295522895796737
 40
0.690476782434874
 40
0.751072338410828
 40
0.8116678943867821
 40
0.8729293555873903
 40
0.9355013707158066
 40
1.0
 40
1.0
 40
1.0
 40
1.0
 10
-15.57123686313329
 20
32.86881304676829
 30
0.0
 10
-15.57188814919282
 20
32.86007604146672
 30
0.0
 10
-15.58190202956937
 20
32.73212775176823
 30
0.0
 10
-15.61527900523722
 20
32.48884780651177
 30
0.0
 10
-15.69706184536031
 20
32.14657589090935
 30
0.0
 10
-15.80973054460735
 20
31.81819407181881
 30
0.0
 10
-15.95747378817842
 20
31.50529291805926
 30
0.0
 10
-16.13548705112072
 20
31.20587459935568
 30
0.0
 10
-16.34846776504392
 20
30.92271778934744
 30
0.0
 10
-16.58864768689024
 20
30.65597444074895
 30
0.0
 10
-16.85306493721427
 20
30.41384761501275
 30
0.0
 10
-17.13312478095056
 20
30.20047376797529
 30
0.0
 10
-17.4275340748322
 20
30.01966882216788
 30
0.0
 10
-17.73586189758008
 20
29.87151559501455
 30
0.0
 10
-18.05876944342112
 20
29.75653933157119
 30
0.0
 10
-18.39545909123468
 20
29.67541522313761
 30
0.0
 10
-18.74591000677367
 20
29.62611446438439
 30
0.0
 10
-18.98423362439308
 20
29.61981745284169
 30
0.0
 10
-19.10520213551976
 20
29.61662121019281
 30
0.0
  0
SPLINE
  5
7B
330
1F
100
AcDbEntity
  8
0
  6
Continuous
 62
     7
370
    25
100
AcDbSpline
210
0.0
220
0.0
230
1.0
 70
     8
 71
     3
 72
    22
 73
    18
 74
     0
 42
0.00000001
 43
0.00000001
 40
0.0
 40
0.0
 40
0.0
 40
0.0
 40
0.066748651309266
 40
0.1311519760901746
 40
0.1937321970570954
 40
0.2553255433785988
 40
0.3163881857773847
 40
0.3780268629068858
 40
0.4404056792054005
 40
0.5045574293240809
 40
0.5686582873620152
 40
0.6309861790900099
 40
0.6922881348732982
 40
0.7526154469796391
 40
0.8131995384355635
 40
0.8740161248607816
 40
0.9354321847740724
 40
0.9354321847740724
 40
0.9354321847740724
 40
0.9354321847740724
 10
-19.10520213551976
 20
29.61662121019281
 30
0.0
 10
-19.2317206934229
 20
29.61948839739045
 30
0.0
 10
-19.48031236614741
 20
29.62512202832402
 30
0.0
 10
-19.84412739202918
 20
29.67869528659786
 30
0.0
 10
-20.19269362308066
 20
29.75939532826439
 30
0.0
 10
-20.52308290225595
 20
29.87983581117674
 30
0.0
 10
-20.838659961969
 20
30.03039654225891
 30
0.0
 10
-21.13710616488541
 20
30.21582110929083
 30
0.0
 10
-21.41832121350761
 20
30.43580308385499
 30
0.0
 10
-21.68069201221591
 20
30.6847086458991
 30
0.0
 10
-21.91840059124655
 20
30.95706592400396
 30
0.0
 10
-22.12822503895469
 20
31.24478723594767
 30
0.0
 10
-22.30521661518154
 20
31.54567464393196
 30
0.0
 10
-22.4493817957038
 20
31.85986896964992
 30
0.0
 10
-22.56303583279372
 20
32.18541757183717
 30
0.0
 10
-22.64288865724862
 20
32.52296236565195
 30
0.0
 10
-22.67400982375981
 20
32.7528817390052
 30
0.0
 10
-22.68362865786982
 20
32.86881305047108
 30
0.0
  0
LINE
  5
7C
330
1F
100
AcDbEntity
  8
0
  6
Continuous
 62
     7
370
    25
100
AcDbLine
 10
-22.6836286579
 20
32.8688130505
 30
0.0
 11
-21.4451739
 21
32.8688130505
 31
0.0
  0
SPLINE
  5
7D
330
1F
100
AcDbEntity
  8
0
  6
Continuous
 62
     7
370
    25
100
AcDbSpline
210
0.0
220
0.0
230
1.0
 70
     8
 71
     3
 72
    14
 73
    10
 74
     0
 42
0.00000001
 43
0.00000001
 40
0.1671413161598043
 40
0.1671413161598043
 40
0.1671413161598043
 40
0.1671413161598043
 40
0.2641990558543185
 40
0.3884618167279413
 40
0.5099420983643725
 40
0.6304096106127701
 40
0.7506710345119783
 40
0.8734547255294212
 40
1.0
 40
1.0
 40
1.0
 40
1.0
 10
-21.44517390003087
 20
32.8688130504706
 30
0.0
 10
-21.43740823485903
 20
32.80135910362122
 30
0.0
 10
-21.41329483320484
 20
32.6482033918429
 30
0.0
 10
-21.35305060512961
 20
32.41555902126359
 30
0.0
 10
-21.25785368928173
 20
32.17720402129104
 30
0.0
 10
-21.13978453842774
 20
31.95243568239886
 30
0.0
 10
-20.99316139181536
 20
31.74400886008483
 30
0.0
 10
-20.82035885033823
 20
31.55067559191489
 30
0.0
 10
-20.6872331723661
 20
31.43779957706873
 30
0.0
 10
-20.6196661112142
 20
31.3805100990817
 30
0.0
  0
SPLINE
  5
7E
330
1F
100
AcDbEntity
  8
0
  6
Continuous
 62
     7
370
    25
100
AcDbSpline
210
0.0
220
0.0
230
1.0
 70
     8
 71
     3
 72
    15
 73
    11
 74
     0
 42
0.00000001
 43
0.00000001
 40
0.0
 40
0.0
 40
0.0
 40
0.0
 40
0.127991025562372
 40
0.253098391501704
 40
0.3761840584327904
 40
0.4989363124701254
 40
0.6215258806257287
 40
0.7457068938016922
 40
0.8715753502968723
 40
1.0
 40
1.0
 40
1.0
 40
1.0
 10
-20.6196661112142
 20
31.3805100990817
 30
0.0
 10
-20.56431578876903
 20
31.33818683308676
 30
0.0
 10
-20.4548621960783
 20
31.25449385149409
 30
0.0
 10
-20.28015043219408
 20
31.1472241263719
 30
0.0
 10
-20.10023171773917
 20
31.05528327115404
 30
0.0
 10
-19.91374834044888
 20
30.98099614778739
 30
0.0
 10
-19.72109414361958
 20
30.92256314522446
 30
0.0
 10
-19.52229554604785
 20
30.88164347436319
 30
0.0
 10
-19.31763422852723
 20
30.85596284211153
 30
0.0
 10
-19.17923265417764
 20
30.85289352007876
 30
0.0
 10
-19.10933625010309
 20
30.85134343241504
 30
0.0
  0
SPLINE
  5
7F
330
1F
100
AcDbEntity
  8
0
  6
Continuous
 62
     7
370
    25
100
AcDbSpline
210
0.0
220
0.0
230
1.0
 70
     8
 71
     3
 72
    22
 73
    18
 74
     0
 42
0.00000001
 43
0.00000001
 40
0.0
 40
0.0
 40
0.0
 40
0.0
 40
0.0641474448766722
 40
0.1262121152536836
 40
0.1868412890216916
 40
0.2469358694509791
 40
0.3072563614860042
 40
0.3681505022006767
 40
0.4300707669516576
 40
0.4938754417369556
 40
0.5579806818508457
 40
0.6208695259285357
 40
0.6825247313751592
 40
0.7440356981057709
 40
0.8058886825781878
 40
0.8689681377436682
 40
0.9025226036210343
 40
0.9025226036210343
 40
0.9025226036210343
 40
0.9025226036210343
 10
-19.10933625010309
 20
30.85134343241504
 30
0.0
 10
-19.03022769239827
 20
30.85352154311008
 30
0.0
 10
-18.87457911712313
 20
30.85780704440489
 30
0.0
 10
-18.64589784806256
 20
30.88988232979939
 30
0.0
 10
-18.42681424669178
 20
30.94416529352149
 30
0.0
 10
-18.21596822346625
 20
31.01863406365934
 30
0.0
 10
-18.01396776405905
 20
31.11545328321478
 30
0.0
 10
-17.82180009990631
 20
31.234819640359
 30
0.0
 10
-17.63912830862782
 20
31.37526746991891
 30
0.0
 10
-17.46657670356054
 20
31.53386001764655
 30
0.0
 10
-17.30885637981428
 20
31.70896515821585
 30
0.0
 10
-17.1712506476729
 20
31.89688077048432
 30
0.0
 10
-17.05218703609482
 20
32.093466511137
 30
0.0
 10
-16.95755301116106
 20
32.30150475323209
 30
0.0
 10
-16.88192745967695
 20
32.51903171313217
 30
0.0
 10
-16.83904574445695
 20
32.70999077920843
 30
0.0
 10
-16.82026395478451
 20
32.82778704494134
 30
0.0
 10
-16.81478848207968
 20
32.8688130504706
 30
0.0
  0
CIRCLE
  5
80
330
1F
100
AcDbEntity
  8
0
  6
Continuous
 62
     7
370
    25
100
AcDbCircle
 10
10.1376906596
 20
33.1930100991
 30
0.0
 40
2.100000000000001
  0
LINE
  5
81
330
1F
100
AcDbEntity
  8
0
  6
Continuous
 62
     7
370
    25
100
AcDbLine
 10
-42.7206426737
 20
29.7930100991
 30
0.0
 11
-46.4248093404
 21
29.7930100991
 31
0.0
  0
LINE
  5
82
330
1F
100
AcDbEntity
  8
0
  6
Continuous
 62
     7
370
    25
100
AcDbLine
 10
-46.4248093404
 20
29.7930100991
 30
0.0
 11
-46.4248093404
 21
36.6721767657
 31
0.0
  0
LINE
  5
83
330
1F
100
AcDbEntity
  8
0
  6
Continuous
 62
     7
370
    25
100
AcDbLine
 10
-46.4248093404
 20
36.6721767657
 30
0.0
 11
-42.7206426737
 21
36.6721767657
 31
0.0
  0
LINE
  5
84
330
1F
100
AcDbEntity
  8
0
  6
Continuous
 62
     7
370
    25
100
AcDbLine
 10
-42.7206426737
 20
36.6721767657
 30
0.0
 11
-42.7206426737
 21
35.4374545435
 31
0.0
  0
LINE
  5
85
330
1F
100
AcDbEntity
  8
0
  6
Continuous
 62
     7
370
    25
100
AcDbLine
 10
-42.7206426737
 20
35.4374545435
 30
0.0
 11
-45.1900871182
 21
35.4374545435
 31
0.0
  0
LINE
  5
86
330
1F
100
AcDbEntity
  8
0
  6
Continuous
 62
     7
370
    25
100
AcDbLine
 10
-45.1900871182
 20
35.4374545435
 30
0.0
 11
-45.1900871182
 21
34.1145378769
 31
0.0
  0
LINE
  5
87
330
1F
100
AcDbEntity
  8
0
  6
Continuous
 62
     7
370
    25
100
AcDbLine
 10
-45.1900871182
 20
34.1145378769
 30
0.0
 11
-42.7206426737
 21
34.1145378769
 31
0.0
  0
LINE
  5
88
330
1F
100
AcDbEntity
  8
0
  6
Continuous
 62
     7
370
    25
100
AcDbLine
 10
-42.7206426737
 20
34.1145378769
 30
0.0
 11
-42.7206426737
 21
32.8798156546
 31
0.0
  0
LINE
  5
89
330
1F
100
AcDbEntity
  8
0
  6
Continuous
 62
     7
370
    25
100
AcDbLine
 10
-42.7206426737
 20
32.8798156546
 30
0.0
 11
-45.1900871182
 21
32.8798156546
 31
0.0
  0
LINE
  5
8A
330
1F
100
AcDbEntity
  8
0
  6
Continuous
 62
     7
370
    25
100
AcDbLine
 10
-45.1900871182
 20
32.8798156546
 30
0.0
 11
-45.1900871182
 21
31.0277323213
 31
0.0
  0
LINE
  5
8B
330
1F
100
AcDbEntity
  8
0
  6
Continuous
 62
     7
370
    25
100
AcDbLine
 10
-45.1900871182
 20
31.0277323213
 30
0.0
 11
-42.7206426737
 21
31.0277323213
 31
0.0
  0
LINE
  5
8C
330
1F
100
AcDbEntity
  8
0
  6
Continuous
 62
     7
370
    25
100
AcDbLine
 10
-42.7206426737
 20
31.0277323213
 30
0.0
 11
-42.7206426737
 21
29.7930100991
 31
0.0
  0
LINE
  5
8D
330
1F
100
AcDbEntity
  8
0
  6
Continuous
 62
     7
370
    25
100
AcDbLine
 10
-40.2511982293
 20
29.7930100991
 30
0.0
 11
-41.4859204515
 21
29.7930100991
 31
0.0
  0
LINE
  5
8E
330
1F
100
AcDbEntity
  8
0
  6
Continuous
 62
     7
370
    25
100
AcDbLine
 10
-41.4859204515
 20
29.7930100991
 30
0.0
 11
-41.4859204515
 21
34.381898988
 31
0.0
  0
LINE
  5
8F
330
1F
100
AcDbEntity
  8
0
  6
Continuous
 62
     7
370
    25
100
AcDbLine
 10
-41.4859204515
 20
34.381898988
 30
0.0
 11
-40.2511982293
 21
34.381898988
 31
0.0
  0
LINE
  5
90
330
1F
100
AcDbEntity
  8
0
  6
Continuous
 62
     7
370
    25
100
AcDbLine
 10
-40.2511982293
 20
34.381898988
 30
0.0
 11
-40.2511982293
 21
34.0263434324
 31
0.0
  0
LINE
  5
91
330
1F
100
AcDbEntity
  8
0
  6
Continuous
 62
     7
370
    25
100
AcDbLine
 10
-40.2511982293
 20
34.0263434324
 30
0.0
 11
-39.7702628994
 21
34.0263434324
 31
0.0
  0
SPLINE
  5
92
330
1F
100
AcDbEntity
  8
0
  6
Continuous
 62
     7
370
    25
100
AcDbSpline
210
0.0
220
0.0
230
1.0
 70
     8
 71
     3
 72
    23
 73
    19
 74
     0
 42
0.00000001
 43
0.00000001
 40
0.0
 40
0.0
 40
0.0
 40
0.0
 40
0.1055399964402555
 40
0.2020864154635871
 40
0.2906848989424221
 40
0.3705526096211907
 40
0.4426702615663753
 40
0.5076749275738733
 40
0.5655732034810467
 40
0.6164546657486227
 40
0.6633313570051034
 40
0.7088620244966155
 40
0.7534118003496281
 40
0.7985150107871104
 40
0.8450643214401212
 40
0.8938731190084073
 40
0.9447078060036517
 40
1.0
 40
1.0
 40
1.0
 40
1.0
 10
-39.77026289940865
 20
34.02634343241503
 30
0.0
 10
-39.71146455755385
 20
34.02700565885958
 30
0.0
 10
-39.59887836709132
 20
34.02827368020614
 30
0.0
 10
-39.43696463800067
 20
34.03415528881671
 30
0.0
 10
-39.28990835761785
 20
34.04832705925268
 30
0.0
 10
-39.15707801664774
 20
34.06623256154904
 30
0.0
 10
-39.03780522488376
 20
34.08690704974934
 30
0.0
 10
-38.93315385355034
 20
34.11653484657644
 30
0.0
 10
-38.84151138474397
 20
34.14828178088445
 30
0.0
 10
-38.76396378515135
 20
34.18773498501399
 30
0.0
 10
-38.69770889790893
 20
34.23260183515397
 30
0.0
 10
-38.64050204339463
 20
34.28357169224113
 30
0.0
 10
-38.59318377224757
 20
34.34256281170282
 30
0.0
 10
-38.55423842153029
 20
34.40797206938326
 30
0.0
 10
-38.5239431728599
 20
34.48037799406247
 30
0.0
 10
-38.50182996222534
 20
34.55898573274906
 30
0.0
 10
-38.48947194756135
 20
34.64469072870114
 30
0.0
 10
-38.48805011587949
 20
34.70383884576608
 30
0.0
 10
-38.48730934038088
 20
34.73465506435948
 30
0.0
  0
SPLINE
  5
93
330
1F
100
AcDbEntity
  8
0
  6
Continuous
 62
     7
370
    25
100
AcDbSpline
210
0.0
220
0.0
230
1.0
 70
     8
 71
     3
 72
    23
 73
    19
 74
     0
 42
0.00000001
 43
0.00000001
 40
0.0
 40
0.0
 40
0.0
 40
0.0
 40
0.0637689599577403
 40
0.1252623047603781
 40
0.1854135826663933
 40
0.2468067624960868
 40
0.3094223888496988
 40
0.3725326822170099
 40
0.4377332507368583
 40
0.5057495167426344
 40
0.5440132631112699
 40
0.5883695992066297
 40
0.640389019394512
 40
0.6978974005877074
 40
0.7632716192950978
 40
0.8349786038393139
 40
0.9138736558434373
 40
1.0
 40
1.0
 40
1.0
 40
1.0
 10
-38.48730934038088
 20
34.73465506435948
 30
0.0
 10
-38.48870984433217
 20
34.77111290065236
 30
0.0
 10
-38.491460874816
 20
34.84272756401915
 30
0.0
 10
-38.5187596437854
 20
34.94582756807721
 30
0.0
 10
-38.56221338727886
 20
35.04125367578155
 30
0.0
 10
-38.62177656789358
 20
35.12857472833815
 30
0.0
 10
-38.69678865016518
 20
35.20512639094636
 30
0.0
 10
-38.78287093283653
 20
35.27260729118419
 30
0.0
 10
-38.88188127933842
 20
35.32596613788251
 30
0.0
 10
-38.97355740955975
 20
35.36116106503054
 30
0.0
 10
-39.05696125953435
 20
35.38221855301584
 30
0.0
 10
-39.13223060278792
 20
35.39791040683472
 30
0.0
 10
-39.2193929554542
 20
35.40903167403557
 30
0.0
 10
-39.3185141203446
 20
35.42082775751292
 30
0.0
 10
-39.4293414342366
 20
35.42847692054669
 30
0.0
 10
-39.55247897227768
 20
35.4340592848984
 30
0.0
 10
-39.68757308437556
 20
35.43634330439812
 30
0.0
 10
-39.78174651119912
 20
35.43707346518772
 30
0.0
 10
-39.8308965799642
 20
35.43745454352615
 30
0.0
  0
LINE
  5
94
330
1F
100
AcDbEntity
  8
0
  6
Continuous
 62
     7
370
    25
100
AcDbLine
 10
-39.83089658
 20
35.4374545435
 30
0.0
 11
-40.2511982293
 21
35.4374545435
 31
0.0
  0
LINE
  5
95
330
1F
100
AcDbEntity
  8
0
  6
Continuous
 62
     7
370
    25
100
AcDbLine
 10
-40.2511982293
 20
35.4374545435
 30
0.0
 11
-40.2511982293
 21
35.081898988
 31
0.0
  0
LINE
  5
96
330
1F
100
AcDbEntity
  8
0
  6
Continuous
 62
     7
370
    25
100
AcDbLine
 10
-40.2511982293
 20
35.081898988
 30
0.0
 11
-41.4859204515
 21
35.081898988
 31
0.0
  0
LINE
  5
97
330
1F
100
AcDbEntity
  8
0
  6
Continuous
 62
     7
370
    25
100
AcDbLine
 10
-41.4859204515
 20
35.081898988
 30
0.0
 11
-41.4859204515
 21
36.6721767657
 31
0.0
  0
LINE
  5
98
330
1F
100
AcDbEntity
  8
0
  6
Continuous
 62
     7
370
    25
100
AcDbLine
 10
-41.4859204515
 20
36.6721767657
 30
0.0
 11
-40.0472485765
 21
36.6721767657
 31
0.0
  0
SPLINE
  5
99
330
1F
100
AcDbEntity
  8
0
  6
Continuous
 62
     7
370
    25
100
AcDbSpline
210
0.0
220
0.0
230
1.0
 70
     8
 71
     3
 72
    31
 73
    27
 74
     0
 42
0.00000001
 43
0.00000001
 40
0.0
 40
0.0
 40
0.0
 40
0.0
 40
0.0728890266200394
 40
0.1401861299444952
 40
0.2022774341249581
 40
0.2588951317514617
 40
0.310482942465478
 40
0.3570952441313356
 40
0.3985135666534669
 40
0.4350375108701149
 40
0.4692514858292871
 40
0.5028050278902758
 40
0.5362104463185611
 40
0.5693793599392062
 40
0.6028014750483925
 40
0.6366657983367756
 40
0.6709286568940431
 40
0.7058030002293129
 40
0.741189061245877
 40
0.7763043110764617
 40
0.8120043009129352
 40
0.847968975808895
 40
0.884521761196478
 40
0.9219741585442042
 40
0.9601981758096071
 40
1.0
 40
1.0
 40
1.0
 40
1.0
 10
-40.04724857649199
 20
36.67217676574837
 30
0.0
 10
-39.95215280348081
 20
36.67183923033131
 30
0.0
 10
-39.76925684491616
 20
36.67119005464559
 30
0.0
 10
-39.50553086227678
 20
36.66094778189652
 30
0.0
 10
-39.26326227898158
 20
36.64669481871341
 30
0.0
 10
-39.04209239447957
 20
36.62494441859727
 30
0.0
 10
-38.84211582889239
 20
36.59610601715942
 30
0.0
 10
-38.66313215896093
 20
36.56211031398842
 30
0.0
 10
-38.50514661620127
 20
36.52336492175056
 30
0.0
 10
-38.36682681075101
 20
36.47508510610627
 30
0.0
 10
-38.24200002610948
 20
36.4206262060234
 30
0.0
 10
-38.12564410857503
 20
36.35805193123623
 30
0.0
 10
-38.01519207358027
 20
36.28805906608401
 30
0.0
 10
-37.91138217368737
 20
36.20880590882805
 30
0.0
 10
-37.81331227645941
 20
36.12171820424257
 30
0.0
 10
-37.72079736715559
 20
36.02670829000174
 30
0.0
 10
-37.63514476719413
 20
35.92297052116433
 30
0.0
 10
-37.55688484095088
 20
35.81116038878377
 30
0.0
 10
-37.48555721769754
 20
35.69353869347967
 30
0.0
 10
-37.42251855871464
 20
35.56994393989679
 30
0.0
 10
-37.37125541645273
 20
35.44029017611584
 30
0.0
 10
-37.32595893497732
 20
35.30645117932819
 30
0.0
 10
-37.29333334682075
 20
35.16651369481734
 30
0.0
 10
-37.27064272752879
 20
35.021840037617
 30
0.0
 10
-37.2540295437416
 20
34.87192094109349
 30
0.0
 10
-37.25307436509802
 20
34.77007256324707
 30
0.0
 10
-37.25258711815865
 20
34.71811860602615
 30
0.0
  0
SPLINE
  5
9A
330
1F
100
AcDbEntity
  8
0
  6
Continuous
 62
     7
370
    25
100
AcDbSpline
210
0.0
220
0.0
230
1.0
 70
     8
 71
     3
 72
    23
 73
    19
 74
     0
 42
0.00000001
 43
0.00000001
 40
0.0
 40
0.0
 40
0.0
 40
0.0
 40
0.0687412630793637
 40
0.1347890881950344
 40
0.198536049560691
 40
0.2603856506059192
 40
0.3209615782321969
 40
0.3799038495841507
 40
0.4385029357752677
 40
0.4961543439762687
 40
0.5542654832085006
 40
0.612748760815695
 40
0.67251344252618
 40
0.7336464018979731
 40
0.7967896194814555
 40
0.8619356990410254
 40
0.9293977347748995
 40
1.0
 40
1.0
 40
1.0
 40
1.0
 10
-37.25258711815865
 20
34.71811860602615
 30
0.0
 10
-37.25385281048665
 20
34.66389060968005
 30
0.0
 10
-37.25633460245822
 20
34.55755939237766
 30
0.0
 10
-37.26970288416721
 20
34.40136750648849
 30
0.0
 10
-37.29413590373532
 20
34.25193403522049
 30
0.0
 10
-37.33114326641013
 20
34.10969650139303
 30
0.0
 10
-37.37367842296689
 20
33.97288459307531
 30
0.0
 10
-37.43023927030728
 20
33.84402257552649
 30
0.0
 10
-37.4940737768141
 20
33.72123633738805
 30
0.0
 10
-37.56988815514462
 20
33.60626273653678
 30
0.0
 10
-37.65309073157691
 20
33.49654797959188
 30
0.0
 10
-37.74985357775336
 20
33.39629564591323
 30
0.0
 10
-37.85390794756152
 20
33.30011755215988
 30
0.0
 10
-37.97110311608754
 20
33.21403796782317
 30
0.0
 10
-38.09627301143617
 20
33.1322365024619
 30
0.0
 10
-38.23190462773511
 20
33.05810259028446
 30
0.0
 10
-38.37711278654083
 20
32.98977267543505
 30
0.0
 10
-38.47920131334185
 20
32.95166719492144
 30
0.0
 10
-38.5314065626031
 20
32.93218110602615
 30
0.0
  0
LINE
  5
9B
330
1F
100
AcDbEntity
  8
0
  6
Continuous
 62
     7
370
    25
100
AcDbLine
 10
-38.5314065626
 20
32.932181106
 30
0.0
 11
-36.9439065626
 21
29.7930100991
 31
0.0
  0
LINE
  5
9C
330
1F
100
AcDbEntity
  8
0
  6
Continuous
 62
     7
370
    25
100
AcDbLine
 10
-36.9439065626
 20
29.7930100991
 30
0.0
 11
-38.3164326043
 21
29.7930100991
 31
0.0
  0
LINE
  5
9D
330
1F
100
AcDbEntity
  8
0
  6
Continuous
 62
     7
370
    25
100
AcDbLine
 10
-38.3164326043
 20
29.7930100991
 30
0.0
 11
-39.8322746182
 21
32.7916212102
 31
0.0
  0
LINE
  5
9E
330
1F
100
AcDbEntity
  8
0
  6
Continuous
 62
     7
370
    25
100
AcDbLine
 10
-39.8322746182
 20
32.7916212102
 30
0.0
 11
-40.2511982293
 21
32.7916212102
 31
0.0
  0
LINE
  5
9F
330
1F
100
AcDbEntity
  8
0
  6
Continuous
 62
     7
370
    25
100
AcDbLine
 10
-40.2511982293
 20
32.7916212102
 30
0.0
 11
-40.2511982293
 21
29.7930100991
 31
0.0
  0
LINE
  5
A0
330
1F
100
AcDbEntity
  8
0
  6
Continuous
 62
     7
370
    25
100
AcDbLine
 10
-3.6257856983
 20
26.5880100991
 30
0.0
 11
-59.0988329825
 21
26.5880100991
 31
0.0
  0
ARC
  5
A1
330
1F
100
AcDbEntity
  8
0
  6
Continuous
 62
     7
370
    25
100
AcDbCircle
 10
-31.3623093404
 20
33.1405100991
 30
0.0
 40
28.5
100
AcDbArc
 50
193.2919074023
 51
346.7080925977
  0
LINE
  5
A2
330
1F
100
AcDbEntity
  8
0
  6
Continuous
 62
     7
370
    25
100
AcDbLine
 10
-59.0988329825
 20
39.6930100991
 30
0.0
 11
-3.6257856983
 21
39.6930100991
 31
0.0
  0
ARC
  5
A3
330
1F
100
AcDbEntity
  8
0
  6
Continuous
 62
     7
370
    25
100
AcDbCircle
 10
-31.3623093404
 20
33.1405100991
 30
0.0
 40
28.5
100
AcDbArc
 50
13.2919074023
 51
166.7080925977
  0
ARC
  5
A4
330
1F
100
AcDbEntity
  8
0
  6
Continuous
 62
     7
370
    25
100
AcDbCircle
 10
-31.3623093404
 20
33.1405100991
 30
0.0
 40
36.49999999999998
100
AcDbArc
 50
190.3418343325
 51
349.6578589151
  0
LINE
  5
A5
330
1F
100
AcDbEntity
  8
0
  6
Continuous
 62
     7
370
    25
100
AcDbLine
 10
4.5446847472
 20
26.5878178587
 30
0.0
 11
13.6376906596
 21
26.5880100991
 31
0.0
  0
LINE
  5
A6
330
1F
100
AcDbEntity
  8
0
  6
Continuous
 62
     7
370
    25
100
AcDbLine
 10
13.6376906596
 20
26.5880100991
 30
0.0
 11
13.6376906596
 21
39.6930100991
 31
0.0
  0
LINE
  5
A7
330
1F
100
AcDbEntity
  8
0
  6
Continuous
 62
     7
370
    25
100
AcDbLine
 10
13.6376906596
 20
39.6930100991
 30
0.0
 11
4.5447198287
 21
39.6930100991
 31
0.0
  0
ARC
  5
A8
330
1F
100
AcDbEntity
  8
0
  6
Continuous
 62
     7
370
    25
100
AcDbCircle
 10
-31.3623093404
 20
33.1405100991
 30
0.0
 40
36.49999999999999
100
AcDbArc
 50
10.3418343325
 51
169.6581656675
  0
LINE
  5
A9
330
1F
100
AcDbEntity
  8
0
  6
Continuous
 62
     7
370
    25
100
AcDbLine
 10
-67.2693385095
 20
39.6930100991
 30
0.0
 11
-76.3623093404
 21
39.6930100991
 31
0.0
  0
LINE
  5
AA
330
1F
100
AcDbEntity
  8
0
  6
Continuous
 62
     7
370
    25
100
AcDbLine
 10
-76.3623093404
 20
39.6930100991
 30
0.0
 11
-76.3623093404
 21
26.5880100991
 31
0.0
  0
LINE
  5
AB
330
1F
100
AcDbEntity
  8
0
  6
Continuous
 62
     7
370
    25
100
AcDbLine
 10
-76.3623093404
 20
26.5880100991
 30
0.0
 11
-74.8623093404
 21
26.5880100991
 31
0.0
  0
ARC
  5
AC
330
1F
100
AcDbEntity
  8
0
  6
Continuous
 62
     7
370
    25
100
AcDbCircle
 10
-71.8158239249
 20
26.2373905477
 30
0.0
 40
3.066595417785755
100
AcDbArc
 50
6.5652772156
 51
173.4347227844
  0
LINE
  5
AD
330
1F
100
AcDbEntity
  8
0
  6
Continuous
 62
     7
370
    25
100
AcDbLine
 10
-68.7693385095
 20
26.5880100991
 30
0.0
 11
-67.2693385095
 21
26.5880100991
 31
0.0
  0
LINE
  5
AE
330
1F
100
AcDbEntity
  8
0
  6
Continuous
 62
     7
370
    25
100
AcDbLine
 10
0.3981724305
 20
29.7930100991
 30
0.0
 11
-1.1810593404
 21
29.7930100991
 31
0.0
  0
LINE
  5
AF
330
1F
100
AcDbEntity
  8
0
  6
Continuous
 62
     7
370
    25
100
AcDbLine
 10
-1.1810593404
 20
29.7930100991
 30
0.0
 11
-1.1810593404
 21
32.8825934324
 31
0.0
  0
LINE
  5
B0
330
1F
100
AcDbEntity
  8
0
  6
Continuous
 62
     7
370
    25
100
AcDbLine
 10
-1.1810593404
 20
32.8825934324
 30
0.0
 11
0.0536628818
 21
32.8825934324
 31
0.0
  0
LINE
  5
B1
330
1F
100
AcDbEntity
  8
0
  6
Continuous
 62
     7
370
    25
100
AcDbLine
 10
0.0536628818
 20
32.8825934324
 30
0.0
 11
0.0536628818
 21
31.0277323213
 31
0.0
  0
LINE
  5
B2
330
1F
100
AcDbEntity
  8
0
  6
Continuous
 62
     7
370
    25
100
AcDbLine
 10
0.0536628818
 20
31.0277323213
 30
0.0
 11
0.6985847568
 21
31.0277323213
 31
0.0
  0
SPLINE
  5
B3
330
1F
100
AcDbEntity
  8
0
  6
Continuous
 62
     7
370
    25
100
AcDbSpline
210
0.0
220
0.0
230
1.0
 70
     8
 71
     3
 72
    31
 73
    27
 74
     0
 42
0.00000001
 43
0.00000001
 40
0.0
 40
0.0
 40
0.0
 40
0.0
 40
0.0626146479318145
 40
0.120428812549278
 40
0.1741994859485831
 40
0.2237246639590646
 40
0.2690284504243894
 40
0.3107650011525401
 40
0.3481152575356895
 40
0.3823781144346324
 40
0.4147531609533676
 40
0.4471954319285615
 40
0.4800445791734136
 40
0.5137386411999462
 40
0.5479625035502674
 40
0.5829178144656939
 40
0.6193151011155168
 40
0.657123545256097
 40
0.6956865764257765
 40
0.7355137155615767
 40
0.7758232002862917
 40
0.8176522616681756
 40
0.8607425835624201
 40
0.9053869274729264
 40
0.9519981971377806
 40
1.0
 40
1.0
 40
1.0
 40
1.0
 10
0.6985847568413556
 20
31.02773232130393
 30
0.0
 10
0.7753205554868395
 20
31.02787293306286
 30
0.0
 10
0.922909041825683
 20
31.0281433762853
 30
0.0
 10
1.135993407818245
 20
31.04102481976658
 30
0.0
 10
1.333042417071638
 20
31.0539542368745
 30
0.0
 10
1.51351364012078
 20
31.07849470293232
 30
0.0
 10
1.678720489997015
 20
31.1058310552219
 30
0.0
 10
1.826393457443018
 20
31.14387333246041
 30
0.0
 10
1.959576723999024
 20
31.18383352199339
 30
0.0
 10
2.076643481556808
 20
31.23470779617898
 30
0.0
 10
2.183867093115198
 20
31.29197017760928
 30
0.0
 10
2.28314390999237
 20
31.35905969596908
 30
0.0
 10
2.378973833540373
 20
31.43356007585854
 30
0.0
 10
2.469565246187412
 20
31.51766247946388
 30
0.0
 10
2.555261014504197
 20
31.61025323297461
 30
0.0
 10
2.635554108201576
 20
31.71180941550639
 30
0.0
 10
2.71151622765917
 20
31.82202117594317
 30
0.0
 10
2.781197568866326
 20
31.94147123136123
 30
0.0
 10
2.844872751581273
 20
32.06889816225372
 30
0.0
 10
2.901359773889507
 20
32.20306765291622
 30
0.0
 10
2.948195850642378
 20
32.3450970464261
 30
0.0
 10
2.987123130134217
 20
32.49365677640046
 30
0.0
 10
3.014941085282773
 20
32.65004022421255
 30
0.0
 10
3.037955137425194
 20
32.81308907937097
 30
0.0
 10
3.049819551899223
 20
32.98344932771375
 30
0.0
 10
3.051447868782366
 20
33.09936813429211
 30
0.0
 10
3.052273992952465
 20
33.15817936991504
 30
0.0
  0
SPLINE
  5
B4
330
1F
100
AcDbEntity
  8
0
  6
Continuous
 62
     7
370
    25
100
AcDbSpline
210
0.0
220
0.0
230
1.0
 70
     8
 71
     3
 72
    15
 73
    11
 74
     0
 42
0.00000001
 43
0.00000001
 40
0.0
 40
0.0
 40
0.0
 40
0.0
 40
0.1422766862527785
 40
0.2774285141643545
 40
0.4064771515299093
 40
0.5305950716916251
 40
0.6501429215018525
 40
0.7668506965409334
 40
0.8835020926432446
 40
1.0
 40
1.0
 40
1.0
 40
1.0
 10
3.052273992952465
 20
33.15817936991504
 30
0.0
 10
3.050628634023423
 20
33.24830202883794
 30
0.0
 10
3.047420311599185
 20
33.42403423076104
 30
0.0
 10
3.01647994440484
 20
33.6799920186264
 30
0.0
 10
2.966114928834396
 20
33.92101462015601
 30
0.0
 10
2.894248904205652
 20
34.14620753576727
 30
0.0
 10
2.803659552879297
 20
34.35620367581309
 30
0.0
 10
2.690265862573074
 20
34.54922392808709
 30
0.0
 10
2.558947861148064
 20
34.72851076708741
 30
0.0
 10
2.455105168440113
 20
34.83368617950566
 30
0.0
 10
2.403218003369123
 20
34.88623926574837
 30
0.0
  0
SPLINE
  5
B5
330
1F
100
AcDbEntity
  8
0
  6
Continuous
 62
     7
370
    25
100
AcDbSpline
210
0.0
220
0.0
230
1.0
 70
     8
 71
     3
 72
    15
 73
    11
 74
     0
 42
0.00000001
 43
0.00000001
 40
0.0
 40
0.0
 40
0.0
 40
0.0
 40
0.1016634760927237
 40
0.2076361382691226
 40
0.3187445673333733
 40
0.4366799415637004
 40
0.5635066463765703
 40
0.6986812076536845
 40
0.8444465558739948
 40
1.0
 40
1.0
 40
1.0
 40
1.0
 10
2.403218003369123
 20
34.88623926574837
 30
0.0
 10
2.352052345551765
 20
34.93102159975532
 30
0.0
 10
2.247552283095648
 20
35.02248444613096
 30
0.0
 10
2.064084513778328
 20
35.13208032627912
 30
0.0
 10
1.861912534113217
 20
35.22837104919162
 30
0.0
 10
1.636411255127282
 20
35.30471885399198
 30
0.0
 10
1.389760046723155
 20
35.36509795272021
 30
0.0
 10
1.120489849198129
 20
35.40673994077027
 30
0.0
 10
0.8300426627188184
 20
35.43349864079995
 30
0.0
 10
0.6288276194774289
 20
35.43610765867616
 30
0.0
 10
0.5249519443413508
 20
35.43745454352615
 30
0.0
  0
LINE
  5
B6
330
1F
100
AcDbEntity
  8
0
  6
Continuous
 62
     7
370
    25
100
AcDbLine
 10
0.5249519443
 20
35.4374545435
 30
0.0
 11
0.0536628818
 21
35.4374545435
 31
0.0
  0
LINE
  5
B7
330
1F
100
AcDbEntity
  8
0
  6
Continuous
 62
     7
370
    25
100
AcDbLine
 10
0.0536628818
 20
35.4374545435
 30
0.0
 11
0.0536628818
 21
33.5825934324
 31
0.0
  0
LINE
  5
B8
330
1F
100
AcDbEntity
  8
0
  6
Continuous
 62
     7
370
    25
100
AcDbLine
 10
0.0536628818
 20
33.5825934324
 30
0.0
 11
-1.1810593404
 21
33.5825934324
 31
0.0
  0
LINE
  5
B9
330
1F
100
AcDbEntity
  8
0
  6
Continuous
 62
     7
370
    25
100
AcDbLine
 10
-1.1810593404
 20
33.5825934324
 30
0.0
 11
-1.1810593404
 21
36.6721767657
 31
0.0
  0
LINE
  5
BA
330
1F
100
AcDbEntity
  8
0
  6
Continuous
 62
     7
370
    25
100
AcDbLine
 10
-1.1810593404
 20
36.6721767657
 30
0.0
 11
0.3747457811
 21
36.6721767657
 31
0.0
  0
SPLINE
  5
BB
330
1F
100
AcDbEntity
  8
0
  6
Continuous
 62
     7
370
    25
100
AcDbSpline
210
0.0
220
0.0
230
1.0
 70
     8
 71
     3
 72
    31
 73
    27
 74
     0
 42
0.00000001
 43
0.00000001
 40
0.0
 40
0.0
 40
0.0
 40
0.0
 40
0.060148161661269
 40
0.1162670765768878
 40
0.1686539552437559
 40
0.2173989688871077
 40
0.2624335227296105
 40
0.3039327010691181
 40
0.3422599668369529
 40
0.3774413393780561
 40
0.4114060993619981
 40
0.4453983512867521
 40
0.4797663873881683
 40
0.5145844824148773
 40
0.550213651223875
 40
0.5870009077288674
 40
0.6246629869919995
 40
0.6636154560171261
 40
0.7034564283616502
 40
0.7434501619923124
 40
0.7840133859909405
 40
0.8251325358492272
 40
0.8672646628279301
 40
0.910306473181935
 40
0.9544242045465899
 40
0.9999999999999999
 40
0.9999999999999999
 40
0.9999999999999999
 40
0.9999999999999999
 10
0.3747457811469068
 20
36.67217676574837
 30
0.0
 10
0.4960386852743719
 20
36.67132888684689
 30
0.0
 10
0.7304992403922518
 20
36.6696899273435
 30
0.0
 10
1.070186200447511
 20
36.65122279498392
 30
0.0
 10
1.386051847358684
 20
36.62282165644927
 30
0.0
 10
1.678299794376879
 20
36.58375074340422
 30
0.0
 10
1.94633088607419
 20
36.53204922615181
 30
0.0
 10
2.189799501521121
 20
36.46719980585519
 30
0.0
 10
2.409522779950702
 20
36.39234193884
 30
0.0
 10
2.607909941602116
 20
36.30425646802426
 30
0.0
 10
2.789018338588739
 20
36.20155755701948
 30
0.0
 10
2.960986541730988
 20
36.08715921525609
 30
0.0
 10
3.123476895360227
 20
35.95687069715719
 30
0.0
 10
3.278769694582268
 20
35.81320552785728
 30
0.0
 10
3.42486085290497
 20
35.65353539721856
 30
0.0
 10
3.564183311717873
 20
35.48050502122891
 30
0.0
 10
3.693325824590255
 20
35.29160522030713
 30
0.0
 10
3.816192090869746
 20
35.09136521641987
 30
0.0
 10
3.927308279358443
 20
34.87893641139236
 30
0.0
 10
4.024227970988759
 20
34.65612695482651
 30
0.0
 10
4.105418184261897
 20
34.42437070872681
 30
0.0
 10
4.171389437068135
 20
34.1834206812817
 30
0.0
 10
4.223976139228982
 20
33.93407675301393
 30
0.0
 10
4.260769994977158
 20
33.67583577157258
 30
0.0
 10
4.283516323128339
 20
33.40893682469688
 30
0.0
 10
4.285823747940865
 20
33.22804630365032
 30
0.0
 10
4.286996215174685
 20
33.13613075880392
 30
0.0
  0
SPLINE
  5
BC
330
1F
100
AcDbEntity
  8
0
  6
Continuous
 62
     7
370
    25
100
AcDbSpline
210
0.0
220
0.0
230
1.0
 70
     8
 71
     3
 72
    27
 73
    23
 74
     0
 42
0.00000001
 43
0.00000001
 40
0.0
 40
0.0
 40
0.0
 40
0.0
 40
0.0657729465461651
 40
0.1294778953864825
 40
0.1914300882723856
 40
0.2524456684589037
 40
0.3117869583861931
 40
0.3688175499237483
 40
0.4240915179529637
 40
0.4784921057091166
 40
0.5313937439562547
 40
0.5820039702205118
 40
0.6312012707438636
 40
0.6795030077413403
 40
0.7055613742938313
 40
0.7352217229481212
 40
0.7691324857524252
 40
0.8068583199113348
 40
0.8489297713697359
 40
0.895116661325361
 40
0.945469803768965
 40
1.0
 40
1.0
 40
1.0
 40
1.0
 10
4.286996215174685
 20
33.13613075880392
 30
0.0
 10
4.28392606301336
 20
33.00643194209972
 30
0.0
 10
4.277882288768191
 20
32.75111222931797
 30
0.0
 10
4.226972910555244
 20
32.3764334923666
 30
0.0
 10
4.144635208104942
 20
32.01726655302486
 30
0.0
 10
4.0288609201096
 20
31.67642095471003
 30
0.0
 10
3.885331795069336
 20
31.35693197719597
 30
0.0
 10
3.7138701830095
 20
31.06443367513131
 30
0.0
 10
3.516990110304681
 20
30.80049603088373
 30
0.0
 10
3.296985241548769
 20
30.56643323772128
 30
0.0
 10
3.058773550911897
 20
30.36525309474579
 30
0.0
 10
2.8112235684118
 20
30.19295702468465
 30
0.0
 10
2.55192370643472
 20
30.05708719647835
 30
0.0
 10
2.323444289839217
 20
29.97092540740788
 30
0.0
 10
2.125324131372461
 20
29.91734022901496
 30
0.0
 10
1.951376775547868
 20
29.88567087256349
 30
0.0
 10
1.753790327681069
 20
29.85662816274694
 30
0.0
 10
1.530722465955904
 20
29.83418458130184
 30
0.0
 10
1.283151740506341
 20
29.81417042213586
 30
0.0
 10
1.010091331544685
 20
29.80329550696575
 30
0.0
 10
0.7124253302828031
 20
29.79426006677101
 30
0.0
 10
0.5056681478271537
 20
29.79343767245821
 30
0.0
 10
0.3981724304524676
 20
29.79301009908171
 30
0.0
  0
LINE
  5
BD
330
1F
100
AcDbEntity
  8
0
  6
Continuous
 62
     7
370
    25
100
AcDbLine
 10
-7.0018926737
 20
29.7930100991
 30
0.0
 11
-8.2366148959
 21
29.7930100991
 31
0.0
  0
LINE
  5
BE
330
1F
100
AcDbEntity
  8
0
  6
Continuous
 62
     7
370
    25
100
AcDbLine
 10
-8.2366148959
 20
29.7930100991
 30
0.0
 11
-8.2366148959
 21
36.6721767657
 31
0.0
  0
LINE
  5
BF
330
1F
100
AcDbEntity
  8
0
  6
Continuous
 62
     7
370
    25
100
AcDbLine
 10
-8.2366148959
 20
36.6721767657
 30
0.0
 11
-7.124538073
 21
36.6721767657
 31
0.0
  0
LINE
  5
C0
330
1F
100
AcDbEntity
  8
0
  6
Continuous
 62
     7
370
    25
100
AcDbLine
 10
-7.124538073
 20
36.6721767657
 30
0.0
 11
-4.0032815626
 21
32.145321297
 31
0.0
  0
LINE
  5
C1
330
1F
100
AcDbEntity
  8
0
  6
Continuous
 62
     7
370
    25
100
AcDbLine
 10
-4.0032815626
 20
32.145321297
 30
0.0
 11
-4.0032815626
 21
36.6721767657
 31
0.0
  0
LINE
  5
C2
330
1F
100
AcDbEntity
  8
0
  6
Continuous
 62
     7
370
    25
100
AcDbLine
 10
-4.0032815626
 20
36.6721767657
 30
0.0
 11
-2.7685593404
 21
36.6721767657
 31
0.0
  0
LINE
  5
C3
330
1F
100
AcDbEntity
  8
0
  6
Continuous
 62
     7
370
    25
100
AcDbLine
 10
-2.7685593404
 20
36.6721767657
 30
0.0
 11
-2.7685593404
 21
29.7930100991
 31
0.0
  0
LINE
  5
C4
330
1F
100
AcDbEntity
  8
0
  6
Continuous
 62
     7
370
    25
100
AcDbLine
 10
-2.7685593404
 20
29.7930100991
 30
0.0
 11
-3.8889043925
 21
29.7930100991
 31
0.0
  0
LINE
  5
C5
330
1F
100
AcDbEntity
  8
0
  6
Continuous
 62
     7
370
    25
100
AcDbLine
 10
-3.8889043925
 20
29.7930100991
 30
0.0
 11
-7.0018926737
 21
34.3060851859
 31
0.0
  0
LINE
  5
C6
330
1F
100
AcDbEntity
  8
0
  6
Continuous
 62
     7
370
    25
100
AcDbLine
 10
-7.0018926737
 20
34.3060851859
 30
0.0
 11
-7.0018926737
 21
29.7930100991
 31
0.0
  0
SPLINE
  5
C7
330
1F
100
AcDbEntity
  8
0
  6
Continuous
 62
     7
370
    25
100
AcDbSpline
210
0.0
220
0.0
230
1.0
 70
     8
 71
     3
 72
    31
 73
    27
 74
     0
 42
0.00000001
 43
0.00000001
 40
0.0
 40
0.0
 40
0.0
 40
0.0
 40
0.0417149324333607
 40
0.0823027059399528
 40
0.1215718144257373
 40
0.1600671244574458
 40
0.1979937629052231
 40
0.2355661717952771
 40
0.2730048805336441
 40
0.3100903331095225
 40
0.346846143253428
 40
0.3824835718335571
 40
0.4172710082891834
 40
0.4513316191888079
 40
0.4848527413222462
 40
0.5180308512419189
 40
0.551068545791126
 40
0.5841710000647786
 40
0.6194667444415155
 40
0.6591579072517058
 40
0.7034715469577026
 40
0.7528401139219647
 40
0.8068443124206162
 40
0.866141938157022
 40
0.9305017472849205
 40
1.0
 40
1.0
 40
1.0
 40
1.0
 10
-12.06893911468643
 20
29.61662121019282
 30
0.0
 10
-12.12823853648528
 20
29.61762003063548
 30
0.0
 10
-12.24523507921051
 20
29.61959068287878
 30
0.0
 10
-12.41729902004077
 20
29.63696668810445
 30
0.0
 10
-12.58363261873004
 20
29.6625723861606
 30
0.0
 10
-12.74392333567674
 20
29.69992846279585
 30
0.0
 10
-12.89872750999146
 20
29.74818553660268
 30
0.0
 10
-13.04800401379046
 20
29.80758663374027
 30
0.0
 10
-13.19119809960973
 20
29.87780042240107
 30
0.0
 10
-13.32750847333777
 20
29.95818108766384
 30
0.0
 10
-13.45676739346371
 20
30.04509894002947
 30
0.0
 10
-13.57490337425879
 20
30.14145103817193
 30
0.0
 10
-13.68598175212181
 20
30.24011178062955
 30
0.0
 10
-13.78679351903268
 20
30.34523323021945
 30
0.0
 10
-13.87809586116002
 20
30.45571179103109
 30
0.0
 10
-13.95970074114407
 20
30.57179784364068
 30
0.0
 10
-14.0314869214143
 20
30.69348107696078
 30
0.0
 10
-14.09526014382353
 20
30.8229548238617
 30
0.0
 10
-14.14984379795783
 20
30.9667997677813
 30
0.0
 10
-14.19585986890755
 20
31.13013253241965
 30
0.0
 10
-14.23606059137469
 20
31.31551319586002
 30
0.0
 10
-14.26593539626583
 20
31.52335941084776
 30
0.0
 10
-14.29302006984281
 20
31.75298613941672
 30
0.0
 10
-14.31016317487915
 20
32.00499159427208
 30
0.0
 10
-14.31913150480284
 20
32.27938300562388
 30
0.0
 10
-14.32104045027728
 20
32.46961288272045
 30
0.0
 10
-14.3220315626031
 20
32.56837902269282
 30
0.0
  0
LINE
  5
C8
330
1F
100
AcDbEntity
  8
0
  6
Continuous
 62
     7
370
    25
100
AcDbLine
 10
-14.3220315626
 20
32.5683790227
 30
0.0
 11
-14.3220315626
 21
36.6721767657
 31
0.0
  0
LINE
  5
C9
330
1F
100
AcDbEntity
  8
0
  6
Continuous
 62
     7
370
    25
100
AcDbLine
 10
-14.3220315626
 20
36.6721767657
 30
0.0
 11
-13.0873093404
 21
36.6721767657
 31
0.0
  0
LINE
  5
CA
330
1F
100
AcDbEntity
  8
0
  6
Continuous
 62
     7
370
    25
100
AcDbLine
 10
-13.0873093404
 20
36.6721767657
 30
0.0
 11
-13.0873093404
 21
32.1963087102
 31
0.0
  0
SPLINE
  5
CB
330
1F
100
AcDbEntity
  8
0
  6
Continuous
 62
     7
370
    25
100
AcDbSpline
210
0.0
220
0.0
230
1.0
 70
     8
 71
     3
 72
    23
 73
    19
 74
     0
 42
0.00000001
 43
0.00000001
 40
0.0
 40
0.0
 40
0.0
 40
0.0
 40
0.0722187479928801
 40
0.1394897657276669
 40
0.2003699977303425
 40
0.2564327255100067
 40
0.3078035215508916
 40
0.3536585165318445
 40
0.3944199056460593
 40
0.4301557059443435
 40
0.4966662725087361
 40
0.5620176176150513
 40
0.6287545482746029
 40
0.6974096406803559
 40
0.7680791946526311
 40
0.8413381260898042
 40
0.9183362465478021
 40
1.0
 40
1.0
 40
1.0
 40
1.0
 10
-13.08730934038087
 20
32.19630871019282
 30
0.0
 10
-13.08724220227966
 20
32.14990485154449
 30
0.0
 10
-13.08711252573071
 20
32.06027627791772
 30
0.0
 10
-13.08062084977643
 20
31.93168861956301
 30
0.0
 10
-13.07468051859897
 20
31.81348963811741
 30
0.0
 10
-13.06396247508128
 20
31.70580873620876
 30
0.0
 10
-13.04812825114863
 20
31.60859985179392
 30
0.0
 10
-13.03279555563192
 20
31.52123854954003
 30
0.0
 10
-13.0120442684312
 20
31.44528893479267
 30
0.0
 10
-12.98085840141987
 20
31.35883838911436
 30
0.0
 10
-12.93281121774732
 20
31.26170647907478
 30
0.0
 10
-12.85430478549874
 20
31.16047337409881
 30
0.0
 10
-12.76371507869076
 20
31.0680834724168
 30
0.0
 10
-12.65513809741692
 20
30.99118161881854
 30
0.0
 10
-12.53310717261714
 20
30.9289749506622
 30
0.0
 10
-12.39829281002558
 20
30.88288669381081
 30
0.0
 10
-12.25088504990601
 20
30.85726774241723
 30
0.0
 10
-12.14896066982174
 20
30.85335654020011
 30
0.0
 10
-12.09649987857531
 20
30.85134343241504
 30
0.0
  0
SPLINE
  5
CC
330
1F
100
AcDbEntity
  8
0
  6
Continuous
 62
     7
370
    25
100
AcDbSpline
210
0.0
220
0.0
230
1.0
 70
     8
 71
     3
 72
    23
 73
    19
 74
     0
 42
0.00000001
 43
0.00000001
 40
0.0
 40
0.0
 40
0.0
 40
0.0
 40
0.0788326040104733
 40
0.1537102312098444
 40
0.2246777586657777
 40
0.2948087751910972
 40
0.3627147868294586
 40
0.4271032430309804
 40
0.4886497655514107
 40
0.5509002465387005
 40
0.5850458333883303
 40
0.6252721895341609
 40
0.6714658644313032
 40
0.7245499928849679
 40
0.7832647317228364
 40
0.8490731308598455
 40
0.9212962952783853
 40
1.0
 40
1.0
 40
1.0
 40
1.0
 10
-12.09649987857531
 20
30.85134343241504
 30
0.0
 10
-12.04076676186562
 20
30.85296976507144
 30
0.0
 10
-11.93209662007563
 20
30.85614083840814
 30
0.0
 10
-11.77579192108964
 20
30.88726835601472
 30
0.0
 10
-11.63097473104206
 20
30.93683402449766
 30
0.0
 10
-11.50071132372934
 20
31.00757686539836
 30
0.0
 10
-11.38513133221373
 20
31.09237455834391
 30
0.0
 10
-11.28729529134084
 20
31.18907050127788
 30
0.0
 10
-11.21008344726049
 20
31.2978575544586
 30
0.0
 10
-11.15975963990575
 20
31.39822189518605
 30
0.0
 10
-11.13150530032266
 20
31.49059853086634
 30
0.0
 10
-11.11032726528621
 20
31.5731335494815
 30
0.0
 10
-11.09480142274576
 20
31.67051670167109
 30
0.0
 10
-11.08071586810444
 20
31.78122713944659
 30
0.0
 10
-11.0722515348591
 20
31.90641160987778
 30
0.0
 10
-11.06307334532649
 20
32.04506336312727
 30
0.0
 10
-11.0597094537303
 20
32.19813109166412
 30
0.0
 10
-11.05913610291532
 20
32.30471502383603
 30
0.0
 10
-11.05883711815865
 20
32.36029525533171
 30
0.0
  0
LINE
  5
CD
330
1F
100
AcDbEntity
  8
0
  6
Continuous
 62
     7
370
    25
100
AcDbLine
 10
-11.0588371182
 20
32.3602952553
 30
0.0
 11
-11.0588371182
 21
36.6721767657
 31
0.0
  0
LINE
  5
CE
330
1F
100
AcDbEntity
  8
0
  6
Continuous
 62
     7
370
    25
100
AcDbLine
 10
-11.0588371182
 20
36.6721767657
 30
0.0
 11
-9.8241148959
 21
36.6721767657
 31
0.0
  0
LINE
  5
CF
330
1F
100
AcDbEntity
  8
0
  6
Continuous
 62
     7
370
    25
100
AcDbLine
 10
-9.8241148959
 20
36.6721767657
 30
0.0
 11
-9.8241148959
 21
32.5683790227
 31
0.0
  0
SPLINE
  5
D0
330
1F
100
AcDbEntity
  8
0
  6
Continuous
 62
     7
370
    25
100
AcDbSpline
210
0.0
220
0.0
230
1.0
 70
     8
 71
     3
 72
    27
 73
    23
 74
     0
 42
0.00000001
 43
0.00000001
 40
0.0
 40
0.0
 40
0.0
 40
0.0
 40
0.0585404168084427
 40
0.112567512340349
 40
0.1617798781047806
 40
0.2064871555823909
 40
0.246457029948098
 40
0.2819997074061412
 40
0.3132129382361463
 40
0.3398064735188104
 40
0.3894126122316826
 40
0.4404734799435057
 40
0.4939547398756063
 40
0.5499778768088323
 40
0.606488083626715
 40
0.6613185000989836
 40
0.7146910989596492
 40
0.7679184713297973
 40
0.8219387900584596
 40
0.8781073740704567
 40
0.9372026550360459
 40
1.0
 40
1.0
 40
1.0
 40
1.0
 10
-9.824114895936424
 20
32.56837902269282
 30
0.0
 10
-9.824286359559427
 20
32.48523627659142
 30
0.0
 10
-9.824616067384387
 20
32.3253608843747
 30
0.0
 10
-9.8296793855751
 20
32.09560869495291
 30
0.0
 10
-9.840458274090036
 20
31.88576692387369
 30
0.0
 10
-9.849511297133219
 20
31.69577425582515
 30
0.0
 10
-9.867031996984306
 20
31.52588664234507
 30
0.0
 10
-9.885284456063717
 20
31.37537861486365
 30
0.0
 10
-9.908548785486632
 20
31.24478353972878
 30
0.0
 10
-9.943164708785975
 20
31.09611691741613
 30
0.0
 10
-10.00290154448689
 20
30.92493274635046
 30
0.0
 10
-10.09920515522434
 20
30.72782159422575
 30
0.0
 10
-10.22145635593402
 20
30.53483783666382
 30
0.0
 10
-10.36595116558518
 20
30.34810442809912
 30
0.0
 10
-10.52909902298884
 20
30.17463510940331
 30
0.0
 10
-10.70728259097727
 20
30.02235150115895
 30
0.0
 10
-10.89767097561295
 20
29.89353598985795
 30
0.0
 10
-11.10225359902352
 20
29.79133826999663
 30
0.0
 10
-11.32085635095063
 20
29.71163175287987
 30
0.0
 10
-11.55564214244855
 20
29.65807298796022
 30
0.0
 10
-11.80645086814986
 20
29.62188801410744
 30
0.0
 10
-11.9796891955544
 20
29.61841200208413
 30
0.0
 10
-12.06893911468643
 20
29.61662121019281
 30
0.0
  0
LINE
  5
D1
330
1F
100
AcDbEntity
  8
0
  6
Continuous
 62
     7
370
    25
100
AcDbLine
 10
-26.6692537848
 20
29.7930100991
 30
0.0
 11
-27.903976007
 21
29.7930100991
 31
0.0
  0
LINE
  5
D2
330
1F
100
AcDbEntity
  8
0
  6
Continuous
 62
     7
370
    25
100
AcDbLine
 10
-27.903976007
 20
29.7930100991
 30
0.0
 11
-27.903976007
 21
34.3846550644
 31
0.0
  0
LINE
  5
D3
330
1F
100
AcDbEntity
  8
0
  6
Continuous
 62
     7
370
    25
100
AcDbLine
 10
-27.903976007
 20
34.3846550644
 30
0.0
 11
-26.6692537848
 21
34.3846550644
 31
0.0
  0
LINE
  5
D4
330
1F
100
AcDbEntity
  8
0
  6
Continuous
 62
     7
370
    25
100
AcDbLine
 10
-26.6692537848
 20
34.3846550644
 30
0.0
 11
-26.6692537848
 21
34.0263434324
 31
0.0
  0
LINE
  5
D5
330
1F
100
AcDbEntity
  8
0
  6
Continuous
 62
     7
370
    25
100
AcDbLine
 10
-26.6692537848
 20
34.0263434324
 30
0.0
 11
-26.188318455
 21
34.0263434324
 31
0.0
  0
SPLINE
  5
D6
330
1F
100
AcDbEntity
  8
0
  6
Continuous
 62
     7
370
    25
100
AcDbSpline
210
0.0
220
0.0
230
1.0
 70
     8
 71
     3
 72
    23
 73
    19
 74
     0
 42
0.00000001
 43
0.00000001
 40
0.0
 40
0.0
 40
0.0
 40
0.0
 40
0.1055399964402596
 40
0.202086415463587
 40
0.2906848989424219
 40
0.3705526096211905
 40
0.4426702615663791
 40
0.5076749275738731
 40
0.5655732034810466
 40
0.6164546657486225
 40
0.6633313570051066
 40
0.7088620244966156
 40
0.7534118003496282
 40
0.7985150107871105
 40
0.8450643214401213
 40
0.8938731190084073
 40
0.9447078060036517
 40
1.0
 40
1.0
 40
1.0
 40
1.0
 10
-26.18831845496421
 20
34.02634343241503
 30
0.0
 10
-26.12952011310941
 20
34.02700565885957
 30
0.0
 10
-26.01693392264689
 20
34.02827368020615
 30
0.0
 10
-25.8550201935562
 20
34.0341552888167
 30
0.0
 10
-25.70796391317342
 20
34.04832705925268
 30
0.0
 10
-25.5751335722033
 20
34.06623256154904
 30
0.0
 10
-25.45586078043932
 20
34.08690704974935
 30
0.0
 10
-25.35120940910589
 20
34.11653484657643
 30
0.0
 10
-25.25956694029955
 20
34.14828178088447
 30
0.0
 10
-25.1820193407069
 20
34.187734985014
 30
0.0
 10
-25.11576445346449
 20
34.23260183515396
 30
0.0
 10
-25.05855759895019
 20
34.28357169224113
 30
0.0
 10
-25.01123932780312
 20
34.34256281170282
 30
0.0
 10
-24.97229397708585
 20
34.40797206938326
 30
0.0
 10
-24.94199872841545
 20
34.48037799406246
 30
0.0
 10
-24.91988551778089
 20
34.55898573274906
 30
0.0
 10
-24.9075275031169
 20
34.64469072870114
 30
0.0
 10
-24.90610567143505
 20
34.70383884576608
 30
0.0
 10
-24.90536489593643
 20
34.73465506435948
 30
0.0
  0
SPLINE
  5
D7
330
1F
100
AcDbEntity
  8
0
  6
Continuous
 62
     7
370
    25
100
AcDbSpline
210
0.0
220
0.0
230
1.0
 70
     8
 71
     3
 72
    23
 73
    19
 74
     0
 42
0.00000001
 43
0.00000001
 40
0.0
 40
0.0
 40
0.0
 40
0.0
 40
0.0637689599577402
 40
0.1252623047603779
 40
0.1854135826663931
 40
0.2468067624960842
 40
0.3094223888496962
 40
0.3725326822170104
 40
0.4377332507368587
 40
0.5057495167426346
 40
0.5440132631112701
 40
0.5883695992066299
 40
0.6403890193945121
 40
0.6978974005877074
 40
0.7632716192950978
 40
0.8349786038393139
 40
0.9138736558434372
 40
0.9999999999999999
 40
0.9999999999999999
 40
0.9999999999999999
 40
0.9999999999999999
 10
-24.90536489593643
 20
34.73465506435948
 30
0.0
 10
-24.90676539988772
 20
34.77111290065235
 30
0.0
 10
-24.90951643037155
 20
34.84272756401914
 30
0.0
 10
-24.93681519934097
 20
34.94582756807723
 30
0.0
 10
-24.9802689428344
 20
35.04125367578154
 30
0.0
 10
-25.03983212344913
 20
35.12857472833815
 30
0.0
 10
-25.11484420572074
 20
35.20512639094638
 30
0.0
 10
-25.20092648839208
 20
35.27260729118419
 30
0.0
 10
-25.29993683489397
 20
35.32596613788251
 30
0.0
 10
-25.39161296511529
 20
35.36116106503052
 30
0.0
 10
-25.47501681508991
 20
35.38221855301584
 30
0.0
 10
-25.55028615834347
 20
35.39791040683471
 30
0.0
 10
-25.63744851100975
 20
35.40903167403557
 30
0.0
 10
-25.73656967590015
 20
35.42082775751292
 30
0.0
 10
-25.84739698979217
 20
35.4284769205467
 30
0.0
 10
-25.97053452783324
 20
35.4340592848984
 30
0.0
 10
-26.10562863993111
 20
35.43634330439811
 30
0.0
 10
-26.19980206675467
 20
35.43707346518772
 30
0.0
 10
-26.24895213551976
 20
35.43745454352615
 30
0.0
  0
LINE
  5
D8
330
1F
100
AcDbEntity
  8
0
  6
Continuous
 62
     7
370
    25
100
AcDbLine
 10
-26.2489521355
 20
35.4374545435
 30
0.0
 11
-26.6692537848
 21
35.4374545435
 31
0.0
  0
LINE
  5
D9
330
1F
100
AcDbEntity
  8
0
  6
Continuous
 62
     7
370
    25
100
AcDbLine
 10
-26.6692537848
 20
35.4374545435
 30
0.0
 11
-26.6692537848
 21
35.0846550644
 31
0.0
  0
LINE
  5
DA
330
1F
100
AcDbEntity
  8
0
  6
Continuous
 62
     7
370
    25
100
AcDbLine
 10
-26.6692537848
 20
35.0846550644
 30
0.0
 11
-27.903976007
 21
35.0846550644
 31
0.0
  0
LINE
  5
DB
330
1F
100
AcDbEntity
  8
0
  6
Continuous
 62
     7
370
    25
100
AcDbLine
 10
-27.903976007
 20
35.0846550644
 30
0.0
 11
-27.903976007
 21
36.6721767657
 31
0.0
  0
LINE
  5
DC
330
1F
100
AcDbEntity
  8
0
  6
Continuous
 62
     7
370
    25
100
AcDbLine
 10
-27.903976007
 20
36.6721767657
 30
0.0
 11
-26.465304132
 21
36.6721767657
 31
0.0
  0
SPLINE
  5
DD
330
1F
100
AcDbEntity
  8
0
  6
Continuous
 62
     7
370
    25
100
AcDbSpline
210
0.0
220
0.0
230
1.0
 70
     8
 71
     3
 72
    31
 73
    27
 74
     0
 42
0.00000001
 43
0.00000001
 40
0.0
 40
0.0
 40
0.0
 40
0.0
 40
0.0728890266200394
 40
0.1401861299444952
 40
0.2022774341249599
 40
0.2588951317514635
 40
0.310482942465478
 40
0.3570952441313356
 40
0.3985135666534652
 40
0.4350375108701166
 40
0.4692514858292871
 40
0.5028050278902743
 40
0.5362104463185611
 40
0.5693793599392062
 40
0.6028014750483925
 40
0.6366657983367756
 40
0.6709286568940431
 40
0.7058030002293129
 40
0.741189061245877
 40
0.7763043110764617
 40
0.8120043009129352
 40
0.847968975808895
 40
0.884521761196478
 40
0.9219741585442042
 40
0.9601981758096071
 40
1.0
 40
1.0
 40
1.0
 40
1.0
 10
-26.46530413204754
 20
36.67217676574837
 30
0.0
 10
-26.37020835903637
 20
36.67183923033131
 30
0.0
 10
-26.18731240047171
 20
36.67119005464559
 30
0.0
 10
-25.92358641783234
 20
36.66094778189652
 30
0.0
 10
-25.68131783453713
 20
36.64669481871341
 30
0.0
 10
-25.46014795003511
 20
36.62494441859726
 30
0.0
 10
-25.26017138444795
 20
36.59610601715942
 30
0.0
 10
-25.08118771451648
 20
36.56211031398843
 30
0.0
 10
-24.92320217175684
 20
36.52336492175055
 30
0.0
 10
-24.78488236630655
 20
36.47508510610626
 30
0.0
 10
-24.66005558166503
 20
36.42062620602341
 30
0.0
 10
-24.54369966413061
 20
36.35805193123624
 30
0.0
 10
-24.43324762913582
 20
36.28805906608401
 30
0.0
 10
-24.32943772924292
 20
36.20880590882805
 30
0.0
 10
-24.23136783201498
 20
36.12171820424257
 30
0.0
 10
-24.13885292271114
 20
36.02670829000174
 30
0.0
 10
-24.05320032274969
 20
35.92297052116433
 30
0.0
 10
-23.97494039650644
 20
35.81116038878377
 30
0.0
 10
-23.9036127732531
 20
35.69353869347967
 30
0.0
 10
-23.8405741142702
 20
35.56994393989679
 30
0.0
 10
-23.78931097200829
 20
35.44029017611584
 30
0.0
 10
-23.74401449053287
 20
35.30645117932819
 30
0.0
 10
-23.7113889023763
 20
35.16651369481734
 30
0.0
 10
-23.68869828308434
 20
35.021840037617
 30
0.0
 10
-23.67208509929715
 20
34.87192094109349
 30
0.0
 10
-23.67112992065359
 20
34.77007256324707
 30
0.0
 10
-23.67064267371421
 20
34.71811860602615
 30
0.0
  0
SPLINE
  5
DE
330
1F
100
AcDbEntity
  8
0
  6
Continuous
 62
     7
370
    25
100
AcDbSpline
210
0.0
220
0.0
230
1.0
 70
     8
 71
     3
 72
    23
 73
    19
 74
     0
 42
0.00000001
 43
0.00000001
 40
0.0
 40
0.0
 40
0.0
 40
0.0
 40
0.0687412630793637
 40
0.1347890881950344
 40
0.1985360495606909
 40
0.2603856506059191
 40
0.3209615782321968
 40
0.3799038495841495
 40
0.4385029357752679
 40
0.4961543439762689
 40
0.5542654832084989
 40
0.6127487608156952
 40
0.6725134425261802
 40
0.7336464018979734
 40
0.7967896194814558
 40
0.8619356990410255
 40
0.9293977347748996
 40
1.0
 40
1.0
 40
1.0
 40
1.0
 10
-23.67064267371421
 20
34.71811860602615
 30
0.0
 10
-23.6719083660422
 20
34.66389060968005
 30
0.0
 10
-23.67439015801377
 20
34.55755939237765
 30
0.0
 10
-23.68775843972278
 20
34.40136750648852
 30
0.0
 10
-23.71219145929087
 20
34.25193403522048
 30
0.0
 10
-23.74919882196568
 20
34.10969650139302
 30
0.0
 10
-23.79173397852245
 20
33.97288459307532
 30
0.0
 10
-23.84829482586283
 20
33.84402257552649
 30
0.0
 10
-23.91212933236965
 20
33.72123633738804
 30
0.0
 10
-23.98794371070016
 20
33.60626273653678
 30
0.0
 10
-24.07114628713248
 20
33.4965479795919
 30
0.0
 10
-24.16790913330891
 20
33.39629564591321
 30
0.0
 10
-24.27196350311707
 20
33.30011755215989
 30
0.0
 10
-24.38915867164309
 20
33.21403796782316
 30
0.0
 10
-24.51432856699173
 20
33.13223650246191
 30
0.0
 10
-24.64996018329067
 20
33.05810259028446
 30
0.0
 10
-24.7951683420964
 20
32.98977267543506
 30
0.0
 10
-24.8972568688974
 20
32.95166719492143
 30
0.0
 10
-24.94946211815865
 20
32.93218110602615
 30
0.0
  0
LINE
  5
DF
330
1F
100
AcDbEntity
  8
0
  6
Continuous
 62
     7
370
    25
100
AcDbLine
 10
-24.9494621182
 20
32.932181106
 30
0.0
 11
-23.3619621182
 21
29.7930100991
 31
0.0
  0
LINE
  5
E0
330
1F
100
AcDbEntity
  8
0
  6
Continuous
 62
     7
370
    25
100
AcDbLine
 10
-23.3619621182
 20
29.7930100991
 30
0.0
 11
-24.7344881598
 21
29.7930100991
 31
0.0
  0
LINE
  5
E1
330
1F
100
AcDbEntity
  8
0
  6
Continuous
 62
     7
370
    25
100
AcDbLine
 10
-24.7344881598
 20
29.7930100991
 30
0.0
 11
-26.2503301737
 21
32.7916212102
 31
0.0
  0
LINE
  5
E2
330
1F
100
AcDbEntity
  8
0
  6
Continuous
 62
     7
370
    25
100
AcDbLine
 10
-26.2503301737
 20
32.7916212102
 30
0.0
 11
-26.6692537848
 21
32.7916212102
 31
0.0
  0
LINE
  5
E3
330
1F
100
AcDbEntity
  8
0
  6
Continuous
 62
     7
370
    25
100
AcDbLine
 10
-26.6692537848
 20
32.7916212102
 30
0.0
 11
-26.6692537848
 21
29.7930100991
 31
0.0
  0
SPLINE
  5
E4
330
1F
100
AcDbEntity
  8
0
  6
Continuous
 62
     7
370
    25
100
AcDbSpline
210
0.0
220
0.0
230
1.0
 70
     8
 71
     3
 72
    15
 73
    11
 74
     0
 42
0.00000001
 43
0.00000001
 40
0.0
 40
0.0
 40
0.0
 40
0.0
 40
0.1289756962903347
 40
0.2566142768832961
 40
0.382374861115405
 40
0.5074502079341319
 40
0.6312318059159231
 40
0.7542207153102958
 40
0.8773008482791466
 40
0.9999999999999999
 40
0.9999999999999999
 40
0.9999999999999999
 40
0.9999999999999999
 10
-32.59343998274198
 20
36.84856565463726
 30
0.0
 10
-32.51945829971594
 20
36.84742472983395
 30
0.0
 10
-32.3722619159135
 20
36.84515470841286
 30
0.0
 10
-32.15340526923868
 20
36.82944764164124
 30
0.0
 10
-31.93758978243477
 20
36.805215339888
 30
0.0
 10
-31.72572492304571
 20
36.768865503364
 30
0.0
 10
-31.51709967152767
 20
36.72403858922485
 30
0.0
 10
-31.31279392211327
 20
36.66660421722943
 30
0.0
 10
-31.11147483292148
 20
36.60134842515327
 30
0.0
 10
-30.98041686814626
 20
36.54932168675377
 30
0.0
 10
-30.91498946190865
 20
36.52334864074837
 30
0.0
  0
SPLINE
  5
E5
330
1F
100
AcDbEntity
  8
0
  6
Continuous
 62
     7
370
    25
100
AcDbSpline
210
0.0
220
0.0
230
1.0
 70
     8
 71
     3
 72
    15
 73
    11
 74
     0
 42
0.00000001
 43
0.00000001
 40
0.0
 40
0.0
 40
0.0
 40
0.0
 40
0.1117990193876816
 40
0.2273961124226535
 40
0.3456566425208984
 40
0.4673998441801994
 40
0.594208013697599
 40
0.7246775297613307
 40
0.8596471198548503
 40
1.0
 40
1.0
 40
1.0
 40
1.0
 10
-30.91498946190865
 20
36.52334864074837
 30
0.0
 10
-30.85994039293238
 20
36.49934487105861
 30
0.0
 10
-30.74797210961244
 20
36.45052186759368
 30
0.0
 10
-30.58507205767211
 20
36.36119789297523
 30
0.0
 10
-30.42177399604506
 20
36.2621720152007
 30
0.0
 10
-30.25983999423017
 20
36.149823618349
 30
0.0
 10
-30.0995167940657
 20
36.02436284616699
 30
0.0
 10
-29.93913045089277
 20
35.88777133008588
 30
0.0
 10
-29.78031824591275
 20
35.73845633487827
 30
0.0
 10
-29.67753975463163
 20
35.63218768324133
 30
0.0
 10
-29.62514571190865
 20
35.57801443935949
 30
0.0
  0
LINE
  5
E6
330
1F
100
AcDbEntity
  8
0
  6
Continuous
 62
     7
370
    25
100
AcDbLine
 10
-29.6251457119
 20
35.5780144394
 30
0.0
 11
-30.5594556077
 21
34.6836676512
 31
0.0
  0
SPLINE
  5
E7
330
1F
100
AcDbEntity
  8
0
  6
Continuous
 62
     7
370
    25
100
AcDbSpline
210
0.0
220
0.0
230
1.0
 70
     8
 71
     3
 72
    15
 73
    11
 74
     0
 42
0.00000001
 43
0.00000001
 40
0.0
 40
0.0
 40
0.0
 40
0.0
 40
0.1344469729957885
 40
0.2638071572604043
 40
0.3892412375756145
 40
0.5114964050416196
 40
0.6324272219006793
 40
0.7534387150183167
 40
0.8752597545988087
 40
1.0
 40
1.0
 40
1.0
 40
1.0
 10
-30.55945560774198
 20
34.68366765116504
 30
0.0
 10
-30.63342655251886
 20
34.75772722618239
 30
0.0
 10
-30.77856975824998
 20
34.90304433907753
 30
0.0
 10
-31.01593331471959
 20
35.09218454843202
 30
0.0
 10
-31.26176992129671
 20
35.25299111759492
 30
0.0
 10
-31.51688872518077
 20
35.38521752689537
 30
0.0
 10
-31.78164510814352
 20
35.4877838261527
 30
0.0
 10
-32.05551659267962
 20
35.56115278163493
 30
0.0
 10
-32.33894873233845
 20
35.6046691524175
 30
0.0
 10
-32.53081963936657
 20
35.6107612960794
 30
0.0
 10
-32.6278909376031
 20
35.61384343241504
 30
0.0
  0
SPLINE
  5
E8
330
1F
100
AcDbEntity
  8
0
  6
Continuous
 62
     7
370
    25
100
AcDbSpline
210
0.0
220
0.0
230
1.0
 70
     8
 71
     3
 72
    23
 73
    19
 74
     0
 42
0.00000001
 43
0.00000001
 40
0.0
 40
0.0
 40
0.0
 40
0.0
 40
0.0671875735473665
 40
0.1319286902789445
 40
0.1951888472476505
 40
0.2571283310395812
 40
0.318842593446754
 40
0.3804925116413714
 40
0.4432187279584003
 40
0.5071253041351033
 40
0.570712137012662
 40
0.63248196498376
 40
0.6932526949398455
 40
0.7531313290707895
 40
0.8134576601575652
 40
0.8738631107010352
 40
0.936110267939609
 40
1.0
 40
1.0
 40
1.0
 40
1.0
 10
-32.6278909376031
 20
35.61384343241504
 30
0.0
 10
-32.71204878531558
 20
35.61168379343039
 30
0.0
 10
-32.87730009652086
 20
35.60744315297148
 30
0.0
 10
-33.12012098287434
 20
35.57524001941105
 30
0.0
 10
-33.35215121385605
 20
35.52144613294368
 30
0.0
 10
-33.57448699629181
 20
35.44692368545414
 30
0.0
 10
-33.7857708931908
 20
35.34994642759209
 30
0.0
 10
-33.98722712257712
 20
35.23201109003051
 30
0.0
 10
-34.17761592128571
 20
35.09221545721147
 30
0.0
 10
-34.35543811458576
 20
34.9332095684943
 30
0.0
 10
-34.51734579379534
 20
34.75960724154381
 30
0.0
 10
-34.65869974694308
 20
34.57379136481735
 30
0.0
 10
-34.7791029474769
 20
34.37922538899693
 30
0.0
 10
-34.87821933727366
 20
34.17491388530105
 30
0.0
 10
-34.9536361314474
 20
33.96117043180469
 30
0.0
 10
-35.00747385368614
 20
33.73815019515845
 30
0.0
 10
-35.04164741971356
 20
33.50650130291914
 30
0.0
 10
-35.04568229699631
 20
33.34846802950553
 30
0.0
 10
-35.04772600704754
 20
33.2684224254706
 30
0.0
  0
SPLINE
  5
E9
330
1F
100
AcDbEntity
  8
0
  6
Continuous
 62
     7
370
    25
100
AcDbSpline
210
0.0
220
0.0
230
1.0
 70
     8
 71
     3
 72
    23
 73
    19
 74
     0
 42
0.00000001
 43
0.00000001
 40
0.0
 40
0.0
 40
0.0
 40
0.0
 40
0.0638792250548761
 40
0.1258508182289654
 40
0.1864720878710262
 40
0.2464764795623013
 40
0.3062584143630107
 40
0.3669511756525898
 40
0.4288608758525594
 40
0.4925686815092664
 40
0.5566061100449873
 40
0.6190867352860931
 40
0.6810492005977583
 40
0.7427850667630339
 40
0.8048964525180748
 40
0.8678490598723967
 40
0.9329329606759887
 40
1.0
 40
1.0
 40
1.0
 40
1.0
 10
-35.04772600704754
 20
33.2684224254706
 30
0.0
 10
-35.04581973208807
 20
33.18560633566234
 30
0.0
 10
-35.0420641094547
 20
33.02244730147027
 30
0.0
 10
-35.00598710787089
 20
32.78300440483294
 30
0.0
 10
-34.95040427585524
 20
32.5526430839147
 30
0.0
 10
-34.8690458297475
 20
32.33307256654535
 30
0.0
 10
-34.76891822217827
 20
32.12128504285828
 30
0.0
 10
-34.64193991865293
 20
31.92138303911227
 30
0.0
 10
-34.49387051018898
 20
31.73031383214924
 30
0.0
 10
-34.3249745759211
 20
31.55140404694898
 30
0.0
 10
-34.14125941570695
 20
31.38649228184645
 30
0.0
 10
-33.94228992001218
 20
31.24423514834496
 30
0.0
 10
-33.73411996055815
 20
31.12149794937939
 30
0.0
 10
-33.51338966455072
 20
31.02429405528527
 30
0.0
 10
-33.28393025681713
 20
30.94624997711127
 30
0.0
 10
-33.04341435986321
 20
30.8912222043298
 30
0.0
 10
-32.79238355753078
 20
30.85746285673122
 30
0.0
 10
-32.62110750413189
 20
30.85340354602719
 30
0.0
 10
-32.53418434038087
 20
30.85134343241504
 30
0.0
  0
SPLINE
  5
EA
330
1F
100
AcDbEntity
  8
0
  6
Continuous
 62
     7
370
    25
100
AcDbSpline
210
0.0
220
0.0
230
1.0
 70
     8
 71
     3
 72
    23
 73
    19
 74
     0
 42
0.00000001
 43
0.00000001
 40
0.0
 40
0.0
 40
0.0
 40
0.0
 40
0.06934871325595
 40
0.136146954604269
 40
0.2005553513704648
 40
0.2627938981591091
 40
0.3234215623312611
 40
0.3824643489379607
 40
0.4409638725178809
 40
0.4982922175092565
 40
0.555827998994297
 40
0.6142840608122154
 40
0.6736809141865965
 40
0.7347653641184279
 40
0.7975553011576232
 40
0.8622761528751516
 40
0.929670988035963
 40
1.0
 40
1.0
 40
1.0
 40
1.0
 10
-32.53418434038088
 20
30.85134343241504
 30
0.0
 10
-32.47764404131622
 20
30.85185358574914
 30
0.0
 10
-32.3666428537144
 20
30.852855130256
 30
0.0
 10
-32.2038230275075
 20
30.86911301436735
 30
0.0
 10
-32.04788074169077
 20
30.89235554962316
 30
0.0
 10
-31.8982120748373
 20
30.92312590632222
 30
0.0
 10
-31.75632827891145
 20
30.96667148258826
 30
0.0
 10
-31.62026487550813
 20
31.01759267173756
 30
0.0
 10
-31.49081907635987
 20
31.07768982832417
 30
0.0
 10
-31.36869272320446
 20
31.14903641593855
 30
0.0
 10
-31.25206822141168
 20
31.22900721965433
 30
0.0
 10
-31.14203719915649
 20
31.32051082494909
 30
0.0
 10
-31.0366695829279
 20
31.42148416242686
 30
0.0
 10
-30.93719657950137
 20
31.53316076372217
 30
0.0
 10
-30.84530179899136
 20
31.65653915075721
 30
0.0
 10
-30.7580411650627
 20
31.78935208002804
 30
0.0
 10
-30.67641379729384
 20
31.93291763969501
 30
0.0
 10
-30.62818233933734
 20
32.03429636570603
 30
0.0
 10
-30.60355282996421
 20
32.08606565463726
 30
0.0
  0
LINE
  5
EB
330
1F
100
AcDbEntity
  8
0
  6
Continuous
 62
     7
370
    25
100
AcDbLine
 10
-30.60355283
 20
32.0860656546
 30
0.0
 11
-32.5782815626
 21
32.0860656546
 31
0.0
  0
LINE
  5
EC
330
1F
100
AcDbEntity
  8
0
  6
Continuous
 62
     7
370
    25
100
AcDbLine
 10
-32.5782815626
 20
32.0860656546
 30
0.0
 11
-32.5782815626
 21
33.3207878769
 31
0.0
  0
LINE
  5
ED
330
1F
100
AcDbEntity
  8
0
  6
Continuous
 62
     7
370
    25
100
AcDbLine
 10
-32.5782815626
 20
33.3207878769
 30
0.0
 11
-29.1483444966
 21
33.3207878769
 31
0.0
  0
LINE
  5
EE
330
1F
100
AcDbEntity
  8
0
  6
Continuous
 62
     7
370
    25
100
AcDbLine
 10
-29.1483444966
 20
33.3207878769
 30
0.0
 11
-29.1386982293
 21
33.0272657414
 31
0.0
  0
SPLINE
  5
EF
330
1F
100
AcDbEntity
  8
0
  6
Continuous
 62
     7
370
    25
100
AcDbSpline
210
0.0
220
0.0
230
1.0
 70
     8
 71
     3
 72
    31
 73
    27
 74
     0
 42
0.00000001
 43
0.00000001
 40
0.0
 40
0.0
 40
0.0
 40
0.0
 40
0.0419537226642186
 40
0.0838325752576972
 40
0.1253224468957347
 40
0.1668154700621974
 40
0.2084751830704551
 40
0.2506434167191428
 40
0.2930936687606679
 40
0.3364423456538532
 40
0.3795937467411209
 40
0.4216564160417497
 40
0.4629884048755583
 40
0.5037180680597169
 40
0.5438632444771031
 40
0.5836082316923875
 40
0.6231429243126035
 40
0.6630127359613446
 40
0.7029317129670355
 40
0.7428875242888828
 40
0.7836516854457779
 40
0.8248505851518206
 40
0.8669256875343544
 40
0.9100657235186398
 40
0.9542124608440876
 40
1.0
 40
1.0
 40
1.0
 40
1.0
 10
-29.13869822926976
 20
33.02726574144282
 30
0.0
 10
-29.13993770282318
 20
32.95188180957572
 30
0.0
 10
-29.14241443798156
 20
32.80124847503114
 30
0.0
 10
-29.16504920001376
 20
32.57698110140736
 30
0.0
 10
-29.20254333841322
 20
32.3556881691372
 30
0.0
 10
-29.25380141467089
 20
32.13759193983888
 30
0.0
 10
-29.31804075075643
 20
31.92162257297749
 30
0.0
 10
-29.39996601328876
 20
31.70984815516029
 30
0.0
 10
-29.49589999513895
 20
31.50083250256334
 30
0.0
 10
-29.60338721545557
 20
31.29546377026246
 30
0.0
 10
-29.7241719246156
 20
31.09840688767488
 30
0.0
 10
-29.85421439949697
 20
30.91182003302585
 30
0.0
 10
-29.99166079559613
 20
30.73602614764996
 30
0.0
 10
-30.13950051536505
 20
30.57347448108202
 30
0.0
 10
-30.29543145130044
 20
30.4227995271848
 30
0.0
 10
-30.45976055488833
 20
30.28458095096885
 30
0.0
 10
-30.63306904987399
 20
30.1587018022209
 30
0.0
 10
-30.8144388520886
 20
30.04409868963963
 30
0.0
 10
-31.0049030369793
 20
29.94365582333521
 30
0.0
 10
-31.20341443316785
 20
29.85628385476121
 30
0.0
 10
-31.40967331532088
 20
29.78208068663126
 30
0.0
 10
-31.62421219554887
 20
29.72125023074553
 30
0.0
 10
-31.84660891482072
 20
29.67431469477967
 30
0.0
 10
-32.07686823745397
 20
29.64213093600056
 30
0.0
 10
-32.31511662452672
 20
29.62026171039226
 30
0.0
 10
-32.47671546585111
 20
29.61784938080523
 30
0.0
 10
-32.55898902788088
 20
29.61662121019281
 30
0.0
  0
SPLINE
  5
F0
330
1F
100
AcDbEntity
  8
0
  6
Continuous
 62
     7
370
    25
100
AcDbSpline
210
0.0
220
0.0
230
1.0
 70
     8
 71
     3
 72
    31
 73
    27
 74
     0
 42
0.00000001
 43
0.00000001
 40
0.0
 40
0.0
 40
0.0
 40
0.0
 40
0.045172878798627
 40
0.0895461191849421
 40
0.1328127639003583
 40
0.1751020071688607
 40
0.2170301830540124
 40
0.2583804467431634
 40
0.2995763167954474
 40
0.3407076851203922
 40
0.3815382952685198
 40
0.421941592971522
 40
0.4621152714130983
 40
0.5024333950072056
 40
0.5427515186013115
 40
0.5834072057629395
 40
0.6246627348097924
 40
0.6667924017057104
 40
0.7089883561164959
 40
0.7506859261210344
 40
0.7920551107057922
 40
0.833202783749265
 40
0.8744393397510738
 40
0.9158733303825447
 40
0.9576559381140654
 40
0.9999999999999999
 40
0.9999999999999999
 40
0.9999999999999999
 40
0.9999999999999999
 10
-32.55898902788088
 20
29.61662121019281
 30
0.0
 10
-32.64676934048145
 20
29.61783405146532
 30
0.0
 10
-32.82077610169014
 20
29.6202382646133
 30
0.0
 10
-33.07806841924596
 20
29.64275535693479
 30
0.0
 10
-33.3278965263747
 20
29.67991836442662
 30
0.0
 10
-33.57032273648489
 20
29.73135069676997
 30
0.0
 10
-33.80590991413041
 20
29.79536234292121
 30
0.0
 10
-34.03425328387643
 20
29.87571210060917
 30
0.0
 10
-34.25488582247543
 20
29.97129067809109
 30
0.0
 10
-34.46846822045755
 20
30.07956711829692
 30
0.0
 10
-34.67227066240259
 20
30.20236203273826
 30
0.0
 10
-34.86583639414584
 20
30.3375221988279
 30
0.0
 10
-35.04810889730234
 20
30.48591703895954
 30
0.0
 10
-35.22095520693468
 20
30.64506239264455
 30
0.0
 10
-35.38033696593161
 20
30.81887006718672
 30
0.0
 10
-35.53219370875512
 20
31.00170611261563
 30
0.0
 10
-35.66916849626273
 20
31.20027622583185
 30
0.0
 10
-35.79715083833105
 20
31.40814270577007
 30
0.0
 10
-35.91085137307893
 20
31.62521844482472
 30
0.0
 10
-36.01028412564125
 20
31.84748851588545
 30
0.0
 10
-36.09508032045693
 20
32.07366597349844
 30
0.0
 10
-36.16194416975961
 20
32.30480397635279
 30
0.0
 10
-36.21623135330849
 20
32.53929083599517
 30
0.0
 10
-36.25507485191616
 20
32.77814628250376
 30
0.0
 10
-36.27701159052308
 20
33.02134041562036
 30
0.0
 10
-36.28062797121635
 20
33.18477947066078
 30
0.0
 10
-36.28244822926978
 20
33.26704438727616
 30
0.0
  0
SPLINE
  5
F1
330
1F
100
AcDbEntity
  8
0
  6
Continuous
 62
     7
370
    25
100
AcDbSpline
210
0.0
220
0.0
230
1.0
 70
     8
 71
     3
 72
    15
 73
    11
 74
     0
 42
0.00000001
 43
0.00000001
 40
0.0
 40
0.0
 40
0.0
 40
0.0
 40
0.1292556063253772
 40
0.2552415007642925
 40
0.378902227234972
 40
0.5014238390024305
 40
0.6232587093681615
 40
0.7464370825446902
 40
0.8713701220624799
 40
1.0
 40
1.0
 40
1.0
 40
1.0
 10
-36.28244822926977
 20
33.26704438727615
 30
0.0
 10
-36.28001051504521
 20
33.37927131312436
 30
0.0
 10
-36.27519675218573
 20
33.60088621861289
 30
0.0
 10
-36.23061400296514
 20
33.92732638018126
 30
0.0
 10
-36.16111613890575
 20
34.24312466489798
 30
0.0
 10
-36.0613797067887
 20
34.54713095623177
 30
0.0
 10
-35.9333943125626
 20
34.83976402646015
 30
0.0
 10
-35.77897298502558
 20
35.12171084580762
 30
0.0
 10
-35.59476135761293
 20
35.39267172935331
 30
0.0
 10
-35.45216890604141
 20
35.5604341490368
 30
0.0
 10
-35.37983321190865
 20
35.64553831088726
 30
0.0
  0
SPLINE
  5
F2
330
1F
100
AcDbEntity
  8
0
  6
Continuous
 62
     7
370
    25
100
AcDbSpline
210
0.0
220
0.0
230
1.0
 70
     8
 71
     3
 72
    23
 73
    19
 74
     0
 42
0.00000001
 43
0.00000001
 40
0.0
 40
0.0
 40
0.0
 40
0.0
 40
0.0637869104114211
 40
0.126616057767375
 40
0.1883427175688261
 40
0.2494790546609668
 40
0.3098641696187227
 40
0.3706562883855293
 40
0.4306751569820285
 40
0.4912776807977302
 40
0.5518738213688563
 40
0.6130654962055206
 40
0.6751670177106501
 40
0.7377045842895252
 40
0.8014732993282055
 40
0.8661155991141851
 40
0.9322603771672391
 40
1.0
 40
1.0
 40
1.0
 40
1.0
 10
-35.37983321190865
 20
35.64553831088726
 30
0.0
 10
-35.33492068616368
 20
35.69477364803347
 30
0.0
 10
-35.24576999807537
 20
35.79250505173511
 30
0.0
 10
-35.1032627852202
 20
35.92830482550802
 30
0.0
 10
-34.95714154965044
 20
36.05596163701802
 30
0.0
 10
-34.80538248867717
 20
36.17276860353043
 30
0.0
 10
-34.64878337199193
 20
36.28128268560165
 30
0.0
 10
-34.48689347942186
 20
36.37946970034715
 30
0.0
 10
-34.32056204800583
 20
36.47045597409813
 30
0.0
 10
-34.14849189396978
 20
36.54959540308165
 30
0.0
 10
-33.9715838284199
 20
36.62055050278458
 30
0.0
 10
-33.78905435336884
 20
36.68058849382355
 30
0.0
 10
-33.60227057702456
 20
36.73376788373336
 30
0.0
 10
-33.40957852278638
 20
36.77422376013657
 30
0.0
 10
-33.21292484017464
 20
36.80791232658531
 30
0.0
 10
-33.01091361558557
 20
36.83049216813612
 30
0.0
 10
-32.80409534170581
 20
36.84704158456488
 30
0.0
 10
-32.66421386325846
 20
36.84805361281819
 30
0.0
 10
-32.59343998274198
 20
36.84856565463726
 30
0.0
  0
LINE
  5
F3
330
1F
100
AcDbEntity
  8
0
  6
Continuous
 62
     7
370
    25
100
AcDbLine
 10
-51.5483553473
 20
29.7930100991
 30
0.0
 11
-53.1275871182
 21
29.7930100991
 31
0.0
  0
LINE
  5
F4
330
1F
100
AcDbEntity
  8
0
  6
Continuous
 62
     7
370
    25
100
AcDbLine
 10
-53.1275871182
 20
29.7930100991
 30
0.0
 11
-53.1275871182
 21
32.8825934324
 31
0.0
  0
LINE
  5
F5
330
1F
100
AcDbEntity
  8
0
  6
Continuous
 62
     7
370
    25
100
AcDbLine
 10
-53.1275871182
 20
32.8825934324
 30
0.0
 11
-51.8928648959
 21
32.8825934324
 31
0.0
  0
LINE
  5
F6
330
1F
100
AcDbEntity
  8
0
  6
Continuous
 62
     7
370
    25
100
AcDbLine
 10
-51.8928648959
 20
32.8825934324
 30
0.0
 11
-51.8928648959
 21
31.0277323213
 31
0.0
  0
LINE
  5
F7
330
1F
100
AcDbEntity
  8
0
  6
Continuous
 62
     7
370
    25
100
AcDbLine
 10
-51.8928648959
 20
31.0277323213
 30
0.0
 11
-51.2479430209
 21
31.0277323213
 31
0.0
  0
SPLINE
  5
F8
330
1F
100
AcDbEntity
  8
0
  6
Continuous
 62
     7
370
    25
100
AcDbSpline
210
0.0
220
0.0
230
1.0
 70
     8
 71
     3
 72
    31
 73
    27
 74
     0
 42
0.00000001
 43
0.00000001
 40
0.0
 40
0.0
 40
0.0
 40
0.0
 40
0.0626146479318164
 40
0.1204288125492761
 40
0.1741994859485849
 40
0.2237246639590645
 40
0.2690284504243912
 40
0.3107650011525419
 40
0.3481152575356893
 40
0.3823781144346323
 40
0.4147531609533657
 40
0.4471954319285628
 40
0.4800445791734134
 40
0.5137386411999474
 40
0.5479625035502661
 40
0.5829178144656936
 40
0.6193151011155165
 40
0.6571235452560957
 40
0.6956865764257768
 40
0.7355137155615764
 40
0.7758232002862919
 40
0.8176522616681758
 40
0.86074258356242
 40
0.9053869274729265
 40
0.9519981971377806
 40
1.0
 40
1.0
 40
1.0
 40
1.0
 10
-51.24794302093643
 20
31.02773232130393
 30
0.0
 10
-51.17120722229095
 20
31.02787293306286
 30
0.0
 10
-51.02361873595211
 20
31.0281433762853
 30
0.0
 10
-50.81053436995953
 20
31.04102481976658
 30
0.0
 10
-50.61348536070614
 20
31.0539542368745
 30
0.0
 10
-50.43301413765699
 20
31.07849470293231
 30
0.0
 10
-50.26780728778077
 20
31.10583105522191
 30
0.0
 10
-50.12013432033476
 20
31.1438733324604
 30
0.0
 10
-49.98695105377877
 20
31.1838335219934
 30
0.0
 10
-49.86988429622097
 20
31.23470779617897
 30
0.0
 10
-49.7626606846626
 20
31.29197017760928
 30
0.0
 10
-49.66338386778541
 20
31.35905969596907
 30
0.0
 10
-49.56755394423742
 20
31.43356007585857
 30
0.0
 10
-49.47696253159037
 20
31.51766247946387
 30
0.0
 10
-49.3912667632736
 20
31.6102532329746
 30
0.0
 10
-49.31097366957621
 20
31.7118094155064
 30
0.0
 10
-49.23501155011863
 20
31.82202117594317
 30
0.0
 10
-49.16533020891146
 20
31.94147123136122
 30
0.0
 10
-49.1016550261965
 20
32.06889816225372
 30
0.0
 10
-49.04516800388829
 20
32.20306765291622
 30
0.0
 10
-48.99833192713541
 20
32.3450970464261
 30
0.0
 10
-48.95940464764355
 20
32.49365677640046
 30
0.0
 10
-48.93158669249501
 20
32.65004022421255
 30
0.0
 10
-48.90857264035258
 20
32.81308907937096
 30
0.0
 10
-48.89670822587856
 20
32.98344932771375
 30
0.0
 10
-48.89507990899543
 20
33.09936813429212
 30
0.0
 10
-48.89425378482532
 20
33.15817936991504
 30
0.0
  0
SPLINE
  5
F9
330
1F
100
AcDbEntity
  8
0
  6
Continuous
 62
     7
370
    25
100
AcDbSpline
210
0.0
220
0.0
230
1.0
 70
     8
 71
     3
 72
    15
 73
    11
 74
     0
 42
0.00000001
 43
0.00000001
 40
0.0
 40
0.0
 40
0.0
 40
0.0
 40
0.1422766862527789
 40
0.2774285141643553
 40
0.4064771515299095
 40
0.5305950716916277
 40
0.6501429215018524
 40
0.7668506965409335
 40
0.8835020926432493
 40
1.0
 40
1.0
 40
1.0
 40
1.0
 10
-48.89425378482532
 20
33.15817936991504
 30
0.0
 10
-48.89589914375436
 20
33.24830202883795
 30
0.0
 10
-48.89910746617859
 20
33.42403423076103
 30
0.0
 10
-48.93004783337297
 20
33.67999201862641
 30
0.0
 10
-48.98041284894338
 20
33.92101462015602
 30
0.0
 10
-49.05227887357213
 20
34.14620753576724
 30
0.0
 10
-49.14286822489849
 20
34.35620367581309
 30
0.0
 10
-49.2562619152047
 20
34.54922392808711
 30
0.0
 10
-49.38757991662974
 20
34.72851076708741
 30
0.0
 10
-49.49142260933768
 20
34.83368617950567
 30
0.0
 10
-49.54330977440866
 20
34.88623926574837
 30
0.0
  0
SPLINE
  5
FA
330
1F
100
AcDbEntity
  8
0
  6
Continuous
 62
     7
370
    25
100
AcDbSpline
210
0.0
220
0.0
230
1.0
 70
     8
 71
     3
 72
    15
 73
    11
 74
     0
 42
0.00000001
 43
0.00000001
 40
0.0
 40
0.0
 40
0.0
 40
0.0
 40
0.1016634760927237
 40
0.2076361382691226
 40
0.3187445673333733
 40
0.4366799415637004
 40
0.5635066463765703
 40
0.6986812076536845
 40
0.8444465558739948
 40
1.0
 40
1.0
 40
1.0
 40
1.0
 10
-49.54330977440866
 20
34.88623926574837
 30
0.0
 10
-49.59447543222601
 20
34.93102159975532
 30
0.0
 10
-49.69897549468213
 20
35.02248444613096
 30
0.0
 10
-49.88244326399943
 20
35.13208032627912
 30
0.0
 10
-50.0846152436646
 20
35.22837104919162
 30
0.0
 10
-50.31011652265046
 20
35.30471885399198
 30
0.0
 10
-50.55676773105465
 20
35.36509795272021
 30
0.0
 10
-50.82603792857965
 20
35.40673994077027
 30
0.0
 10
-51.11648511505896
 20
35.43349864079995
 30
0.0
 10
-51.31770015830035
 20
35.43610765867616
 30
0.0
 10
-51.42157583343643
 20
35.43745454352615
 30
0.0
  0
LINE
  5
FB
330
1F
100
AcDbEntity
  8
0
  6
Continuous
 62
     7
370
    25
100
AcDbLine
 10
-51.4215758334
 20
35.4374545435
 30
0.0
 11
-51.8928648959
 21
35.4374545435
 31
0.0
  0
LINE
  5
FC
330
1F
100
AcDbEntity
  8
0
  6
Continuous
 62
     7
370
    25
100
AcDbLine
 10
-51.8928648959
 20
35.4374545435
 30
0.0
 11
-51.8928648959
 21
33.5825934324
 31
0.0
  0
LINE
  5
FD
330
1F
100
AcDbEntity
  8
0
  6
Continuous
 62
     7
370
    25
100
AcDbLine
 10
-51.8928648959
 20
33.5825934324
 30
0.0
 11
-53.1275871182
 21
33.5825934324
 31
0.0
  0
LINE
  5
FE
330
1F
100
AcDbEntity
  8
0
  6
Continuous
 62
     7
370
    25
100
AcDbLine
 10
-53.1275871182
 20
33.5825934324
 30
0.0
 11
-53.1275871182
 21
36.6721767657
 31
0.0
  0
LINE
  5
FF
330
1F
100
AcDbEntity
  8
0
  6
Continuous
 62
     7
370
    25
100
AcDbLine
 10
-53.1275871182
 20
36.6721767657
 30
0.0
 11
-51.5717819966
 21
36.6721767657
 31
0.0
  0
SPLINE
  5
100
330
1F
100
AcDbEntity
  8
0
  6
Continuous
 62
     7
370
    25
100
AcDbSpline
210
0.0
220
0.0
230
1.0
 70
     8
 71
     3
 72
    31
 73
    27
 74
     0
 42
0.00000001
 43
0.00000001
 40
0.0
 40
0.0
 40
0.0
 40
0.0
 40
0.0601481616612679
 40
0.1162670765768879
 40
0.168653955243756
 40
0.2173989688871078
 40
0.2624335227296107
 40
0.3039327010691183
 40
0.342259966836952
 40
0.3774413393780563
 40
0.4114060993619973
 40
0.4453983512867523
 40
0.4797663873881676
 40
0.5145844824148775
 40
0.5502136512238744
 40
0.5870009077288662
 40
0.6246629869919995
 40
0.6636154560171261
 40
0.7034564283616503
 40
0.7434501619923125
 40
0.7840133859909407
 40
0.8251325358492272
 40
0.8672646628279302
 40
0.9103064731819351
 40
0.95442420454659
 40
1.0
 40
1.0
 40
1.0
 40
1.0
 10
-51.57178199663088
 20
36.67217676574837
 30
0.0
 10
-51.4504890925034
 20
36.67132888684689
 30
0.0
 10
-51.21602853738552
 20
36.66968992734351
 30
0.0
 10
-50.87634157733027
 20
36.6512227949839
 30
0.0
 10
-50.56047593041909
 20
36.62282165644928
 30
0.0
 10
-50.2682279834009
 20
36.58375074340421
 30
0.0
 10
-50.00019689170357
 20
36.53204922615183
 30
0.0
 10
-49.75672827625666
 20
36.46719980585517
 30
0.0
 10
-49.53700499782709
 20
36.39234193884
 30
0.0
 10
-49.33861783617566
 20
36.30425646802426
 30
0.0
 10
-49.15750943918906
 20
36.20155755701948
 30
0.0
 10
-48.98554123604679
 20
36.08715921525609
 30
0.0
 10
-48.82305088241756
 20
35.95687069715718
 30
0.0
 10
-48.66775808319551
 20
35.81320552785728
 30
0.0
 10
-48.5216669248728
 20
35.65353539721856
 30
0.0
 10
-48.38234446605993
 20
35.4805050212289
 30
0.0
 10
-48.25320195318753
 20
35.29160522030714
 30
0.0
 10
-48.13033568690803
 20
35.09136521641986
 30
0.0
 10
-48.01921949841935
 20
34.87893641139238
 30
0.0
 10
-47.92229980678901
 20
34.6561269548265
 30
0.0
 10
-47.84110959351589
 20
34.42437070872683
 30
0.0
 10
-47.77513834070966
 20
34.1834206812817
 30
0.0
 10
-47.72255163854879
 20
33.93407675301393
 30
0.0
 10
-47.68575778280062
 20
33.67583577157257
 30
0.0
 10
-47.66301145464945
 20
33.40893682469688
 30
0.0
 10
-47.66070402983691
 20
33.22804630365032
 30
0.0
 10
-47.65953156260309
 20
33.13613075880392
 30
0.0
  0
SPLINE
  5
101
330
1F
100
AcDbEntity
  8
0
  6
Continuous
 62
     7
370
    25
100
AcDbSpline
210
0.0
220
0.0
230
1.0
 70
     8
 71
     3
 72
    27
 73
    23
 74
     0
 42
0.00000001
 43
0.00000001
 40
0.0
 40
0.0
 40
0.0
 40
0.0
 40
0.0657729465461652
 40
0.1294778953864822
 40
0.1914300882723853
 40
0.2524456684589033
 40
0.3117869583861926
 40
0.3688175499237479
 40
0.4240915179529632
 40
0.4784921057091161
 40
0.5313937439562542
 40
0.5820039702205112
 40
0.6312012707438629
 40
0.6795030077413395
 40
0.7055613742938305
 40
0.7352217229481226
 40
0.7691324857524242
 40
0.8068583199113338
 40
0.8489297713697372
 40
0.89511666132536
 40
0.945469803768964
 40
1.0
 40
1.0
 40
1.0
 40
1.0
 10
-47.6595315626031
 20
33.13613075880393
 30
0.0
 10
-47.66260171476444
 20
33.00643194209973
 30
0.0
 10
-47.66864548900963
 20
32.75111222931797
 30
0.0
 10
-47.71955486722252
 20
32.37643349236662
 30
0.0
 10
-47.80189256967282
 20
32.01726655302484
 30
0.0
 10
-47.91766685766819
 20
31.67642095471006
 30
0.0
 10
-48.06119598270845
 20
31.35693197719598
 30
0.0
 10
-48.23265759476827
 20
31.06443367513131
 30
0.0
 10
-48.4295376674731
 20
30.80049603088372
 30
0.0
 10
-48.64954253622901
 20
30.56643323772129
 30
0.0
 10
-48.88775422686587
 20
30.36525309474579
 30
0.0
 10
-49.13530420936598
 20
30.19295702468465
 30
0.0
 10
-49.39460407134307
 20
30.05708719647835
 30
0.0
 10
-49.62308348793857
 20
29.9709254074079
 30
0.0
 10
-49.82120364640532
 20
29.91734022901496
 30
0.0
 10
-49.9951510022299
 20
29.88567087256349
 30
0.0
 10
-50.19273745009673
 20
29.85662816274695
 30
0.0
 10
-50.41580531182188
 20
29.83418458130182
 30
0.0
 10
-50.66337603727145
 20
29.81417042213587
 30
0.0
 10
-50.9364364462331
 20
29.80329550696574
 30
0.0
 10
-51.23410244749498
 20
29.794260066771
 30
0.0
 10
-51.44085962995062
 20
29.79343767245821
 30
0.0
 10
-51.54835534732532
 20
29.7930100990817
 30
0.0
  0
LINE
  5
102
330
1F
100
AcDbEntity
  8
0
  6
Continuous
 62
     7
370
    25
100
AcDbLine
 10
-58.9484204515
 20
29.7930100991
 30
0.0
 11
-60.1831426737
 21
29.7930100991
 31
0.0
  0
LINE
  5
103
330
1F
100
AcDbEntity
  8
0
  6
Continuous
 62
     7
370
    25
100
AcDbLine
 10
-60.1831426737
 20
29.7930100991
 30
0.0
 11
-60.1831426737
 21
36.6721767657
 31
0.0
  0
LINE
  5
104
330
1F
100
AcDbEntity
  8
0
  6
Continuous
 62
     7
370
    25
100
AcDbLine
 10
-60.1831426737
 20
36.6721767657
 30
0.0
 11
-59.0710658508
 21
36.6721767657
 31
0.0
  0
LINE
  5
105
330
1F
100
AcDbEntity
  8
0
  6
Continuous
 62
     7
370
    25
100
AcDbLine
 10
-59.0710658508
 20
36.6721767657
 30
0.0
 11
-55.9498093404
 21
32.145321297
 31
0.0
  0
LINE
  5
106
330
1F
100
AcDbEntity
  8
0
  6
Continuous
 62
     7
370
    25
100
AcDbLine
 10
-55.9498093404
 20
32.145321297
 30
0.0
 11
-55.9498093404
 21
36.6721767657
 31
0.0
  0
LINE
  5
107
330
1F
100
AcDbEntity
  8
0
  6
Continuous
 62
     7
370
    25
100
AcDbLine
 10
-55.9498093404
 20
36.6721767657
 30
0.0
 11
-54.7150871182
 21
36.6721767657
 31
0.0
  0
LINE
  5
108
330
1F
100
AcDbEntity
  8
0
  6
Continuous
 62
     7
370
    25
100
AcDbLine
 10
-54.7150871182
 20
36.6721767657
 30
0.0
 11
-54.7150871182
 21
29.7930100991
 31
0.0
  0
LINE
  5
109
330
1F
100
AcDbEntity
  8
0
  6
Continuous
 62
     7
370
    25
100
AcDbLine
 10
-54.7150871182
 20
29.7930100991
 30
0.0
 11
-55.8354321702
 21
29.7930100991
 31
0.0
  0
LINE
  5
10A
330
1F
100
AcDbEntity
  8
0
  6
Continuous
 62
     7
370
    25
100
AcDbLine
 10
-55.8354321702
 20
29.7930100991
 30
0.0
 11
-58.9484204515
 21
34.3060851859
 31
0.0
  0
LINE
  5
10B
330
1F
100
AcDbEntity
  8
0
  6
Continuous
 62
     7
370
    25
100
AcDbLine
 10
-58.9484204515
 20
34.3060851859
 30
0.0
 11
-58.9484204515
 21
29.7930100991
 31
0.0
  0
SPLINE
  5
10C
330
1F
100
AcDbEntity
  8
0
  6
Continuous
 62
     7
370
    25
100
AcDbSpline
210
0.0
220
0.0
230
1.0
 70
     8
 71
     3
 72
    31
 73
    27
 74
     0
 42
0.00000001
 43
0.00000001
 40
0.0
 40
0.0
 40
0.0
 40
0.0
 40
0.0417149324333623
 40
0.0823027059399544
 40
0.1215718144257373
 40
0.1600671244574456
 40
0.1979937629052229
 40
0.2355661717952769
 40
0.2730048805336439
 40
0.3100903331095236
 40
0.3468461432534278
 40
0.3824835718335581
 40
0.4172710082891844
 40
0.4513316191888078
 40
0.4848527413222471
 40
0.5180308512419197
 40
0.5510685457911267
 40
0.5841710000647801
 40
0.6194667444415163
 40
0.659157907251706
 40
0.7034715469577029
 40
0.7528401139219649
 40
0.8068443124206165
 40
0.8661419381570221
 40
0.9305017472849206
 40
1.0
 40
1.0
 40
1.0
 40
1.0
 10
-64.0154668924642
 20
29.61662121019281
 30
0.0
 10
-64.07476631426306
 20
29.61762003063548
 30
0.0
 10
-64.1917628569883
 20
29.61959068287877
 30
0.0
 10
-64.36382679781855
 20
29.63696668810445
 30
0.0
 10
-64.5301603965078
 20
29.6625723861606
 30
0.0
 10
-64.69045111345453
 20
29.69992846279585
 30
0.0
 10
-64.84525528776923
 20
29.74818553660268
 30
0.0
 10
-64.99453179156824
 20
29.80758663374026
 30
0.0
 10
-65.13772587738751
 20
29.87780042240107
 30
0.0
 10
-65.27403625111558
 20
29.95818108766383
 30
0.0
 10
-65.40329517124148
 20
30.04509894002947
 30
0.0
 10
-65.52143115203658
 20
30.14145103817193
 30
0.0
 10
-65.6325095298996
 20
30.24011178062955
 30
0.0
 10
-65.73332129681046
 20
30.34523323021944
 30
0.0
 10
-65.82462363893781
 20
30.45571179103109
 30
0.0
 10
-65.90622851892185
 20
30.57179784364067
 30
0.0
 10
-65.97801469919209
 20
30.69348107696079
 30
0.0
 10
-66.04178792160133
 20
30.82295482386169
 30
0.0
 10
-66.09637157573563
 20
30.96679976778132
 30
0.0
 10
-66.14238764668531
 20
31.13013253241963
 30
0.0
 10
-66.1825883691525
 20
31.31551319586005
 30
0.0
 10
-66.21246317404359
 20
31.52335941084775
 30
0.0
 10
-66.2395478476206
 20
31.75298613941672
 30
0.0
 10
-66.25669095265694
 20
32.00499159427208
 30
0.0
 10
-66.26565928258061
 20
32.27938300562388
 30
0.0
 10
-66.26756822805508
 20
32.46961288272044
 30
0.0
 10
-66.26855934038088
 20
32.56837902269282
 30
0.0
  0
LINE
  5
10D
330
1F
100
AcDbEntity
  8
0
  6
Continuous
 62
     7
370
    25
100
AcDbLine
 10
-66.2685593404
 20
32.5683790227
 30
0.0
 11
-66.2685593404
 21
36.6721767657
 31
0.0
  0
LINE
  5
10E
330
1F
100
AcDbEntity
  8
0
  6
Continuous
 62
     7
370
    25
100
AcDbLine
 10
-66.2685593404
 20
36.6721767657
 30
0.0
 11
-65.0338371182
 21
36.6721767657
 31
0.0
  0
LINE
  5
10F
330
1F
100
AcDbEntity
  8
0
  6
Continuous
 62
     7
370
    25
100
AcDbLine
 10
-65.0338371182
 20
36.6721767657
 30
0.0
 11
-65.0338371182
 21
32.1963087102
 31
0.0
  0
SPLINE
  5
110
330
1F
100
AcDbEntity
  8
0
  6
Continuous
 62
     7
370
    25
100
AcDbSpline
210
0.0
220
0.0
230
1.0
 70
     8
 71
     3
 72
    23
 73
    19
 74
     0
 42
0.00000001
 43
0.00000001
 40
0.0
 40
0.0
 40
0.0
 40
0.0
 40
0.0722187479928802
 40
0.1394897657276674
 40
0.2003699977303432
 40
0.256432725510007
 40
0.3078035215508925
 40
0.3536585165318455
 40
0.3944199056460604
 40
0.4301557059443434
 40
0.4966662725087377
 40
0.5620176176150531
 40
0.6287545482746022
 40
0.6974096406803554
 40
0.7680791946526306
 40
0.8413381260898074
 40
0.9183362465478054
 40
0.9999999999999999
 40
0.9999999999999999
 40
0.9999999999999999
 40
0.9999999999999999
 10
-65.03383711815866
 20
32.19630871019282
 30
0.0
 10
-65.03376998005747
 20
32.14990485154449
 30
0.0
 10
-65.03364030350853
 20
32.06027627791772
 30
0.0
 10
-65.02714862755418
 20
31.931688619563
 30
0.0
 10
-65.02120829637677
 20
31.81348963811742
 30
0.0
 10
-65.01049025285906
 20
31.70580873620873
 30
0.0
 10
-64.99465602892643
 20
31.60859985179394
 30
0.0
 10
-64.9793233334097
 20
31.52123854954001
 30
0.0
 10
-64.95857204620897
 20
31.44528893479267
 30
0.0
 10
-64.92738617919765
 20
31.35883838911436
 30
0.0
 10
-64.8793389955251
 20
31.26170647907479
 30
0.0
 10
-64.80083256327653
 20
31.1604733740988
 30
0.0
 10
-64.71024285646854
 20
31.06808347241679
 30
0.0
 10
-64.60166587519471
 20
30.99118161881855
 30
0.0
 10
-64.47963495039491
 20
30.92897495066219
 30
0.0
 10
-64.34482058780337
 20
30.88288669381081
 30
0.0
 10
-64.19741282768376
 20
30.85726774241722
 30
0.0
 10
-64.09548844759952
 20
30.8533565402001
 30
0.0
 10
-64.0430276563531
 20
30.85134343241504
 30
0.0
  0
SPLINE
  5
111
330
1F
100
AcDbEntity
  8
0
  6
Continuous
 62
     7
370
    25
100
AcDbSpline
210
0.0
220
0.0
230
1.0
 70
     8
 71
     3
 72
    23
 73
    19
 74
     0
 42
0.00000001
 43
0.00000001
 40
0.0
 40
0.0
 40
0.0
 40
0.0
 40
0.0788326040104764
 40
0.1537102312098474
 40
0.2246777586657805
 40
0.294808775191097
 40
0.3627147868294584
 40
0.4271032430309824
 40
0.4886497655514125
 40
0.5509002465387008
 40
0.5850458333883315
 40
0.6252721895341612
 40
0.671465864431304
 40
0.7245499928849682
 40
0.7832647317228363
 40
0.8490731308598456
 40
0.9212962952783853
 40
1.0
 40
1.0
 40
1.0
 40
1.0
 10
-64.0430276563531
 20
30.85134343241504
 30
0.0
 10
-63.9872945396434
 20
30.85296976507144
 30
0.0
 10
-63.8786243978534
 20
30.85614083840813
 30
0.0
 10
-63.72231969886744
 20
30.88726835601473
 30
0.0
 10
-63.57750250881984
 20
30.93683402449765
 30
0.0
 10
-63.44723910150712
 20
31.00757686539837
 30
0.0
 10
-63.33165910999151
 20
31.0923745583439
 30
0.0
 10
-63.23382306911862
 20
31.18907050127788
 30
0.0
 10
-63.15661122503828
 20
31.29785755445861
 30
0.0
 10
-63.10628741768355
 20
31.39822189518605
 30
0.0
 10
-63.07803307810043
 20
31.49059853086633
 30
0.0
 10
-63.05685504306402
 20
31.5731335494815
 30
0.0
 10
-63.04132920052353
 20
31.67051670167109
 30
0.0
 10
-63.02724364588223
 20
31.78122713944659
 30
0.0
 10
-63.0187793126369
 20
31.90641160987778
 30
0.0
 10
-63.00960112310426
 20
32.04506336312726
 30
0.0
 10
-63.00623723150808
 20
32.19813109166413
 30
0.0
 10
-63.00566388069311
 20
32.30471502383604
 30
0.0
 10
-63.00536489593643
 20
32.36029525533171
 30
0.0
  0
LINE
  5
112
330
1F
100
AcDbEntity
  8
0
  6
Continuous
 62
     7
370
    25
100
AcDbLine
 10
-63.0053648959
 20
32.3602952553
 30
0.0
 11
-63.0053648959
 21
36.6721767657
 31
0.0
  0
LINE
  5
113
330
1F
100
AcDbEntity
  8
0
  6
Continuous
 62
     7
370
    25
100
AcDbLine
 10
-63.0053648959
 20
36.6721767657
 30
0.0
 11
-61.7706426737
 21
36.6721767657
 31
0.0
  0
LINE
  5
114
330
1F
100
AcDbEntity
  8
0
  6
Continuous
 62
     7
370
    25
100
AcDbLine
 10
-61.7706426737
 20
36.6721767657
 30
0.0
 11
-61.7706426737
 21
32.5683790227
 31
0.0
  0
SPLINE
  5
115
330
1F
100
AcDbEntity
  8
0
  6
Continuous
 62
     7
370
    25
100
AcDbSpline
210
0.0
220
0.0
230
1.0
 70
     8
 71
     3
 72
    27
 73
    23
 74
     0
 42
0.00000001
 43
0.00000001
 40
0.0
 40
0.0
 40
0.0
 40
0.0
 40
0.0585404168084427
 40
0.1125675123403491
 40
0.1617798781047809
 40
0.2064871555823911
 40
0.2464570299480983
 40
0.2819997074061415
 40
0.3132129382361468
 40
0.339806473518811
 40
0.3894126122316833
 40
0.4404734799435064
 40
0.4939547398756063
 40
0.5499778768088323
 40
0.6064880836267161
 40
0.661318500098985
 40
0.7146910989596504
 40
0.7679184713297972
 40
0.8219387900584596
 40
0.8781073740704568
 40
0.9372026550360459
 40
1.0
 40
1.0
 40
1.0
 40
1.0
 10
-61.77064267371421
 20
32.56837902269282
 30
0.0
 10
-61.77081413733722
 20
32.48523627659142
 30
0.0
 10
-61.77114384516221
 20
32.32536088437472
 30
0.0
 10
-61.77620716335284
 20
32.09560869495289
 30
0.0
 10
-61.78698605186785
 20
31.88576692387372
 30
0.0
 10
-61.79603907491096
 20
31.69577425582514
 30
0.0
 10
-61.8135597747621
 20
31.52588664234509
 30
0.0
 10
-61.83181223384149
 20
31.37537861486364
 30
0.0
 10
-61.85507656326443
 20
31.24478353972879
 30
0.0
 10
-61.88969248656374
 20
31.09611691741611
 30
0.0
 10
-61.94942932226468
 20
30.92493274635047
 30
0.0
 10
-62.04573293300211
 20
30.72782159422576
 30
0.0
 10
-62.1679841337118
 20
30.53483783666382
 30
0.0
 10
-62.31247894336296
 20
30.34810442809912
 30
0.0
 10
-62.47562680076663
 20
30.17463510940331
 30
0.0
 10
-62.65381036875506
 20
30.02235150115896
 30
0.0
 10
-62.84419875339074
 20
29.89353598985795
 30
0.0
 10
-63.04878137680128
 20
29.79133826999663
 30
0.0
 10
-63.26738412872842
 20
29.71163175287989
 30
0.0
 10
-63.50216992022634
 20
29.65807298796021
 30
0.0
 10
-63.75297864592765
 20
29.62188801410745
 30
0.0
 10
-63.9262169733322
 20
29.61841200208414
 30
0.0
 10
-64.0154668924642
 20
29.61662121019281
 30
0.0
  0
ENDSEC
  0
SECTION
  2
OBJECTS
  0
DICTIONARY
  5
C
330
0
100
AcDbDictionary
281
     1
  3
ACAD_GROUP
350
D
  3
ACAD_LAYOUT
350
1A
  3
ACAD_MLINESTYLE
350
17
  3
ACAD_PLOTSETTINGS
350
19
  3
ACAD_PLOTSTYLENAME
350
E
  3
ACAD_SCALELIST
350
47
  3
DWGPROPS
350
116
  0
DICTIONARY
  5
D
102
{ACAD_REACTORS
330
C
102
}
330
C
100
AcDbDictionary
281
     1
  0
DICTIONARY
  5
1A
102
{ACAD_REACTORS
330
C
102
}
330
C
100
AcDbDictionary
281
     1
  3
Layout1
350
1E
  3
Layout2
350
26
  3
Model
350
22
  0
DICTIONARY
  5
17
102
{ACAD_REACTORS
330
C
102
}
330
C
100
AcDbDictionary
281
     1
  3
Standard
350
18
  0
DICTIONARY
  5
19
102
{ACAD_REACTORS
330
C
102
}
330
C
100
AcDbDictionary
281
     1
  0
ACDBDICTIONARYWDFLT
  5
E
102
{ACAD_REACTORS
330
C
102
}
330
C
100
AcDbDictionary
281
     1
  3
Normal
350
F
100
AcDbDictionaryWithDefault
340
F
  0
DICTIONARY
  5
47
102
{ACAD_REACTORS
330
C
102
}
330
C
100
AcDbDictionary
281
     1
  3
A0
350
48
  3
A1
350
49
  3
A2
350
4A
  3
A3
350
4B
  3
A4
350
4C
  3
A5
350
4D
  3
A6
350
4E
  3
A7
350
4F
  3
A8
350
50
  3
A9
350
51
  3
B0
350
52
  3
B1
350
53
  3
B2
350
54
  3
B3
350
55
  3
B4
350
56
  3
B5
350
57
  3
B6
350
58
  3
B7
350
59
  3
B8
350
5A
  3
B9
350
5B
  3
C0
350
5C
  3
C1
350
5D
  3
C2
350
5E
  3
C3
350
5F
  3
C4
350
60
  3
C5
350
61
  3
C6
350
62
  3
C7
350
63
  3
C8
350
64
  3
C9
350
65
  3
D0
350
66
  3
D1
350
67
  3
D2
350
68
  0
XRECORD
  5
116
102
{ACAD_REACTORS
330
C
102
}
330
C
100
AcDbXrecord
280
     1
  1
DWGPROPS COOKIE
  2

  3

  4

  6

  7

  8
abertagno
  9

300
=
301
=
302
=
303
=
304
=
305
=
306
=
307
=
308
=
309
=
 40
0.0
 41
2459458.117226481
 42
2459458.117275058
  1

 90
        0
  0
LAYOUT
  5
1E
102
{ACAD_REACTORS
330
1A
102
}
330
1A
100
AcDbPlotSettings
  1

  2
none_device
  4

  6

 40
0.0
 41
0.0
 42
0.0
 43
0.0
 44
0.0
 45
0.0
 46
0.0
 47
0.0
 48
0.0
 49
0.0
140
0.0
141
0.0
142
1.0
143
1.0
 70
   688
 72
     1
 73
     0
 74
     5
  7

 75
    16
147
1.0
148
0.0
149
0.0
100
AcDbLayout
  1
Layout1
 70
     1
 71
     1
 10
0.0
 20
0.0
 11
420.0
 21
297.0
 12
0.0
 22
0.0
 32
0.0
 14
1.0000000000E+20
 24
1.0000000000E+20
 34
1.0000000000E+20
 15
-1.0000000000E+20
 25
-1.0000000000E+20
 35
-1.0000000000E+20
146
0.0
 13
0.0
 23
0.0
 33
0.0
 16
1.0
 26
0.0
 36
0.0
 17
0.0
 27
1.0
 37
0.0
 76
     0
330
1B
  0
LAYOUT
  5
26
102
{ACAD_REACTORS
330
1A
102
}
330
1A
100
AcDbPlotSettings
  1

  2
none_device
  4

  6

 40
0.0
 41
0.0
 42
0.0
 43
0.0
 44
0.0
 45
0.0
 46
0.0
 47
0.0
 48
0.0
 49
0.0
140
0.0
141
0.0
142
1.0
143
1.0
 70
   688
 72
     1
 73
     0
 74
     5
  7

 75
    16
147
1.0
148
0.0
149
0.0
100
AcDbLayout
  1
Layout2
 70
     1
 71
     2
 10
0.0
 20
0.0
 11
0.0
 21
0.0
 12
0.0
 22
0.0
 32
0.0
 14
0.0
 24
0.0
 34
0.0
 15
0.0
 25
0.0
 35
0.0
146
0.0
 13
0.0
 23
0.0
 33
0.0
 16
1.0
 26
0.0
 36
0.0
 17
0.0
 27
1.0
 37
0.0
 76
     0
330
23
  0
LAYOUT
  5
22
102
{ACAD_REACTORS
330
1A
102
}
330
1A
100
AcDbPlotSettings
  1

  2
none_device
  4
ANSI_A_(11.00_x_8.50_Inches)
  6

 40
6.35
 41
19.05
 42
6.35000508
 43
19.05000254
 44
279.4
 45
215.9
 46
225.1775503466
 47
-8.1340529013
 48
0.0
 49
0.0
140
0.0
141
0.0
142
0.1152739726
143
1.0
 70
  1696
 72
     0
 73
     0
 74
     0
  7

 75
     0
147
0.0179189148
148
-1300.4909072572
149
0.0
100
AcDbLayout
  1
Model
 70
     1
 71
     0
 10
0.0
 20
0.0
 11
420.0
 21
297.0
 12
0.0
 22
0.0
 32
0.0
 14
-76.3623093404
 24
-3.3594899009
 34
0.0
 15
13.6376906596
 25
69.6405100991
 35
0.0
146
0.0
 13
0.0
 23
0.0
 33
0.0
 16
1.0
 26
0.0
 36
0.0
 17
0.0
 27
1.0
 37
0.0
 76
     0
330
1F
331
29
  0
MLINESTYLE
  5
18
102
{ACAD_REACTORS
330
17
102
}
330
17
100
AcDbMlineStyle
  2
Standard
 70
     0
  3

 62
   256
 51
90.0
 52
90.0
 71
     2
 49
0.5
 62
   256
  6
BYLAYER
 49
-0.5
 62
   256
  6
BYLAYER
  0
ACDBPLACEHOLDER
  5
F
102
{ACAD_REACTORS
330
E
102
}
330
E
  0
SCALE
  5
48
102
{ACAD_REACTORS
330
47
102
}
330
47
100
AcDbScale
 70
     0
300
1:1
140
1.0
141
1.0
290
     1
  0
SCALE
  5
49
102
{ACAD_REACTORS
330
47
102
}
330
47
100
AcDbScale
 70
     0
300
1:2
140
1.0
141
2.0
290
     0
  0
SCALE
  5
4A
102
{ACAD_REACTORS
330
47
102
}
330
47
100
AcDbScale
 70
     0
300
1:4
140
1.0
141
4.0
290
     0
  0
SCALE
  5
4B
102
{ACAD_REACTORS
330
47
102
}
330
47
100
AcDbScale
 70
     0
300
1:5
140
1.0
141
5.0
290
     0
  0
SCALE
  5
4C
102
{ACAD_REACTORS
330
47
102
}
330
47
100
AcDbScale
 70
     0
300
1:8
140
1.0
141
8.0
290
     0
  0
SCALE
  5
4D
102
{ACAD_REACTORS
330
47
102
}
330
47
100
AcDbScale
 70
     0
300
1:10
140
1.0
141
10.0
290
     0
  0
SCALE
  5
4E
102
{ACAD_REACTORS
330
47
102
}
330
47
100
AcDbScale
 70
     0
300
1:16
140
1.0
141
16.0
290
     0
  0
SCALE
  5
4F
102
{ACAD_REACTORS
330
47
102
}
330
47
100
AcDbScale
 70
     0
300
1:20
140
1.0
141
20.0
290
     0
  0
SCALE
  5
50
102
{ACAD_REACTORS
330
47
102
}
330
47
100
AcDbScale
 70
     0
300
1:30
140
1.0
141
30.0
290
     0
  0
SCALE
  5
51
102
{ACAD_REACTORS
330
47
102
}
330
47
100
AcDbScale
 70
     0
300
1:40
140
1.0
141
40.0
290
     0
  0
SCALE
  5
52
102
{ACAD_REACTORS
330
47
102
}
330
47
100
AcDbScale
 70
     0
300
1:50
140
1.0
141
50.0
290
     0
  0
SCALE
  5
53
102
{ACAD_REACTORS
330
47
102
}
330
47
100
AcDbScale
 70
     0
300
1:100
140
1.0
141
100.0
290
     0
  0
SCALE
  5
54
102
{ACAD_REACTORS
330
47
102
}
330
47
100
AcDbScale
 70
     0
300
2:1
140
2.0
141
1.0
290
     0
  0
SCALE
  5
55
102
{ACAD_REACTORS
330
47
102
}
330
47
100
AcDbScale
 70
     0
300
4:1
140
4.0
141
1.0
290
     0
  0
SCALE
  5
56
102
{ACAD_REACTORS
330
47
102
}
330
47
100
AcDbScale
 70
     0
300
8:1
140
8.0
141
1.0
290
     0
  0
SCALE
  5
57
102
{ACAD_REACTORS
330
47
102
}
330
47
100
AcDbScale
 70
     0
300
10:1
140
10.0
141
1.0
290
     0
  0
SCALE
  5
58
102
{ACAD_REACTORS
330
47
102
}
330
47
100
AcDbScale
 70
     0
300
100:1
140
100.0
141
1.0
290
     0
  0
SCALE
  5
59
102
{ACAD_REACTORS
330
47
102
}
330
47
100
AcDbScale
 70
     0
300
1/128" = 1'-0"
140
0.0078125
141
12.0
290
     0
  0
SCALE
  5
5A
102
{ACAD_REACTORS
330
47
102
}
330
47
100
AcDbScale
 70
     0
300
1/64" = 1'-0"
140
0.015625
141
12.0
290
     0
  0
SCALE
  5
5B
102
{ACAD_REACTORS
330
47
102
}
330
47
100
AcDbScale
 70
     0
300
1/32" = 1'-0"
140
0.03125
141
12.0
290
     0
  0
SCALE
  5
5C
102
{ACAD_REACTORS
330
47
102
}
330
47
100
AcDbScale
 70
     0
300
1/16" = 1'-0"
140
0.0625
141
12.0
290
     0
  0
SCALE
  5
5D
102
{ACAD_REACTORS
330
47
102
}
330
47
100
AcDbScale
 70
     0
300
3/32" = 1'-0"
140
0.09375
141
12.0
290
     0
  0
SCALE
  5
5E
102
{ACAD_REACTORS
330
47
102
}
330
47
100
AcDbScale
 70
     0
300
1/8" = 1'-0"
140
0.125
141
12.0
290
     0
  0
SCALE
  5
5F
102
{ACAD_REACTORS
330
47
102
}
330
47
100
AcDbScale
 70
     0
300
3/16" = 1'-0"
140
0.1875
141
12.0
290
     0
  0
SCALE
  5
60
102
{ACAD_REACTORS
330
47
102
}
330
47
100
AcDbScale
 70
     0
300
1/4" = 1'-0"
140
0.25
141
12.0
290
     0
  0
SCALE
  5
61
102
{ACAD_REACTORS
330
47
102
}
330
47
100
AcDbScale
 70
     0
300
3/8" = 1'-0"
140
0.375
141
12.0
290
     0
  0
SCALE
  5
62
102
{ACAD_REACTORS
330
47
102
}
330
47
100
AcDbScale
 70
     0
300
1/2" = 1'-0"
140
0.5
141
12.0
290
     0
  0
SCALE
  5
63
102
{ACAD_REACTORS
330
47
102
}
330
47
100
AcDbScale
 70
     0
300
3/4" = 1'-0"
140
0.75
141
12.0
290
     0
  0
SCALE
  5
64
102
{ACAD_REACTORS
330
47
102
}
330
47
100
AcDbScale
 70
     0
300
1" = 1'-0"
140
1.0
141
12.0
290
     0
  0
SCALE
  5
65
102
{ACAD_REACTORS
330
47
102
}
330
47
100
AcDbScale
 70
     0
300
1-1/2" = 1'-0"
140
1.5
141
12.0
290
     0
  0
SCALE
  5
66
102
{ACAD_REACTORS
330
47
102
}
330
47
100
AcDbScale
 70
     0
300
3" = 1'-0"
140
3.0
141
12.0
290
     0
  0
SCALE
  5
67
102
{ACAD_REACTORS
330
47
102
}
330
47
100
AcDbScale
 70
     0
300
6" = 1'-0"
140
6.0
141
12.0
290
     0
  0
SCALE
  5
68
102
{ACAD_REACTORS
330
47
102
}
330
47
100
AcDbScale
 70
     0
300
1'-0" = 1'-0"
140
12.0
141
12.0
290
     0
  0
ENDSEC
  0
EOF
