ISO-10303-21;
HEADER;
FILE_DESCRIPTION(('CATIA V5 STEP Exchange'),'2;1');

FILE_NAME('D:\\documents Nico\\projets\\maison\\cao\\platine mur 120mm 20210807-00.stp','2021-08-07T14:22:29+00:00',('none'),('none'),'CATIA Version 5 Release 21 SP 1 (IN-10)','CATIA V5 STEP AP203','none');

FILE_SCHEMA(('CONFIG_CONTROL_DESIGN'));

ENDSEC;
/* file written by CATIA V5R21 */
DATA;
#5=PRODUCT('platine mur 120','','',(#2)) ;
#1=APPLICATION_CONTEXT('configuration controlled 3D design of mechanical parts and assemblies') ;
#14=PRODUCT_DEFINITION('',' ',#6,#3) ;
#16=SECURITY_CLASSIFICATION(' ',' ',#15) ;
#15=SECURITY_CLASSIFICATION_LEVEL('unclassified') ;
#47=CARTESIAN_POINT(' ',(0.,0.,0.)) ;
#52=CARTESIAN_POINT('Axis2P3D Location',(-49.,33.6600000005,-60.)) ;
#57=CARTESIAN_POINT('Axis2P3D Location',(-49.,38.,-60.)) ;
#61=CARTESIAN_POINT('Vertex',(-55.5,38.,-60.)) ;
#63=CARTESIAN_POINT('Vertex',(-42.5,38.,-60.)) ;
#66=CARTESIAN_POINT('Line Origine',(-55.5,33.6600000005,-60.)) ;
#70=CARTESIAN_POINT('Vertex',(-55.5,28.,-60.)) ;
#73=CARTESIAN_POINT('Axis2P3D Location',(-49.,28.,-60.)) ;
#77=CARTESIAN_POINT('Vertex',(-42.5,28.,-60.)) ;
#80=CARTESIAN_POINT('Line Origine',(-42.5,33.6600000005,-60.)) ;
#92=CARTESIAN_POINT('Axis2P3D Location',(-49.,38.,-60.)) ;
#97=CARTESIAN_POINT('Axis2P3D Location',(-49.,28.,-60.)) ;
#109=CARTESIAN_POINT('Axis2P3D Location',(0.,28.,-100.)) ;
#114=CARTESIAN_POINT('Line Origine',(0.,28.,-15.)) ;
#118=CARTESIAN_POINT('Vertex',(70.,28.,-15.)) ;
#120=CARTESIAN_POINT('Vertex',(-70.,28.,-15.)) ;
#123=CARTESIAN_POINT('Line Origine',(-70.,28.,-57.5)) ;
#127=CARTESIAN_POINT('Vertex',(-70.,28.,-100.)) ;
#130=CARTESIAN_POINT('Line Origine',(0.,28.,-100.)) ;
#134=CARTESIAN_POINT('Vertex',(70.,28.,-100.)) ;
#137=CARTESIAN_POINT('Line Origine',(70.,28.,-57.5)) ;
#152=CARTESIAN_POINT('Axis2P3D Location',(49.,28.,-60.)) ;
#156=CARTESIAN_POINT('Vertex',(55.5,28.,-60.)) ;
#158=CARTESIAN_POINT('Vertex',(42.5,28.,-60.)) ;
#161=CARTESIAN_POINT('Axis2P3D Location',(49.,28.,-60.)) ;
#171=CARTESIAN_POINT('Axis2P3D Location',(0.,38.,-100.)) ;
#176=CARTESIAN_POINT('Line Origine',(-70.,33.,-100.)) ;
#180=CARTESIAN_POINT('Vertex',(-70.,38.,-100.)) ;
#183=CARTESIAN_POINT('Line Origine',(0.,38.,-100.)) ;
#187=CARTESIAN_POINT('Vertex',(70.,38.,-100.)) ;
#190=CARTESIAN_POINT('Line Origine',(70.,33.,-100.)) ;
#202=CARTESIAN_POINT('Axis2P3D Location',(0.,23.,-15.)) ;
#207=CARTESIAN_POINT('Axis2P3D Location',(70.,23.,-15.)) ;
#211=CARTESIAN_POINT('Vertex',(70.,23.,-10.)) ;
#214=CARTESIAN_POINT('Line Origine',(0.,23.,-10.)) ;
#218=CARTESIAN_POINT('Vertex',(-70.,23.,-10.)) ;
#221=CARTESIAN_POINT('Axis2P3D Location',(-70.,23.,-15.)) ;
#233=CARTESIAN_POINT('Axis2P3D Location',(-49.,-3.90798504668E-014,-0.1)) ;
#238=CARTESIAN_POINT('Line Origine',(-43.2957133477,-3.11626600093,-50.)) ;
#242=CARTESIAN_POINT('Vertex',(-43.2957133477,-3.11626600093,-10.)) ;
#244=CARTESIAN_POINT('Vertex',(-43.2957133477,-3.11626600093,1.4155343564E-015)) ;
#247=CARTESIAN_POINT('Axis2P3D Location',(-49.,-3.90798504668E-014,-10.)) ;
#251=CARTESIAN_POINT('Vertex',(-54.7042866523,3.11626600093,-10.)) ;
#254=CARTESIAN_POINT('Line Origine',(-54.7042866523,3.11626600093,-50.)) ;
#258=CARTESIAN_POINT('Vertex',(-54.7042866523,3.11626600093,1.4155343564E-015)) ;
#261=CARTESIAN_POINT('Axis2P3D Location',(-49.,-3.90798504668E-014,0.)) ;
#273=CARTESIAN_POINT('Axis2P3D Location',(-49.,-3.90798504668E-014,-10.)) ;
#278=CARTESIAN_POINT('Axis2P3D Location',(-49.,-3.90798504668E-014,0.)) ;
#290=CARTESIAN_POINT('Axis2P3D Location',(49.,-3.5527136788E-015,-0.1)) ;
#295=CARTESIAN_POINT('Line Origine',(54.7042866523,-3.11626600093,-50.)) ;
#299=CARTESIAN_POINT('Vertex',(54.7042866523,-3.11626600093,-10.)) ;
#301=CARTESIAN_POINT('Vertex',(54.7042866523,-3.11626600093,1.4155343564E-015)) ;
#304=CARTESIAN_POINT('Axis2P3D Location',(49.,-3.5527136788E-015,-10.)) ;
#308=CARTESIAN_POINT('Vertex',(43.2957133477,3.11626600093,-10.)) ;
#311=CARTESIAN_POINT('Line Origine',(43.2957133477,3.11626600093,-50.)) ;
#315=CARTESIAN_POINT('Vertex',(43.2957133477,3.11626600093,1.4155343564E-015)) ;
#318=CARTESIAN_POINT('Axis2P3D Location',(49.,-3.5527136788E-015,0.)) ;
#330=CARTESIAN_POINT('Axis2P3D Location',(49.,-3.5527136788E-015,-10.)) ;
#335=CARTESIAN_POINT('Axis2P3D Location',(49.,-3.5527136788E-015,0.)) ;
#347=CARTESIAN_POINT('Axis2P3D Location',(49.,33.6600000005,-60.)) ;
#352=CARTESIAN_POINT('Axis2P3D Location',(49.,38.,-60.)) ;
#356=CARTESIAN_POINT('Vertex',(55.5,38.,-60.)) ;
#358=CARTESIAN_POINT('Vertex',(42.5,38.,-60.)) ;
#361=CARTESIAN_POINT('Line Origine',(55.5,33.6600000005,-60.)) ;
#366=CARTESIAN_POINT('Line Origine',(42.5,33.6600000005,-60.)) ;
#378=CARTESIAN_POINT('Axis2P3D Location',(49.,38.,-60.)) ;
#390=CARTESIAN_POINT('Axis2P3D Location',(0.,38.,1.42108547152E-014)) ;
#395=CARTESIAN_POINT('Line Origine',(-70.,38.,-50.)) ;
#399=CARTESIAN_POINT('Vertex',(-70.,38.,1.42108547152E-014)) ;
#402=CARTESIAN_POINT('Line Origine',(0.,38.,1.42108547152E-014)) ;
#406=CARTESIAN_POINT('Vertex',(70.,38.,1.42108547152E-014)) ;
#409=CARTESIAN_POINT('Line Origine',(70.,38.,-50.)) ;
#429=CARTESIAN_POINT('Axis2P3D Location',(-70.,0.,0.)) ;
#434=CARTESIAN_POINT('Line Origine',(-70.,-11.5,-5.)) ;
#438=CARTESIAN_POINT('Vertex',(-70.,-11.5,0.)) ;
#440=CARTESIAN_POINT('Vertex',(-70.,-11.5,-10.)) ;
#443=CARTESIAN_POINT('Line Origine',(-70.,13.25,0.)) ;
#448=CARTESIAN_POINT('Line Origine',(-70.,5.75,-10.)) ;
#463=CARTESIAN_POINT('Axis2P3D Location',(-70.,-11.5,-120.)) ;
#468=CARTESIAN_POINT('Line Origine',(-60.,-21.5,-50.)) ;
#472=CARTESIAN_POINT('Vertex',(-60.,-21.5,0.)) ;
#474=CARTESIAN_POINT('Vertex',(-60.,-21.5,-10.)) ;
#477=CARTESIAN_POINT('Line Origine',(-65.,-16.5,1.42108547152E-014)) ;
#482=CARTESIAN_POINT('Line Origine',(-65.,-16.5,-10.)) ;
#494=CARTESIAN_POINT('Axis2P3D Location',(70.,0.,0.)) ;
#499=CARTESIAN_POINT('Line Origine',(70.,5.75,-10.)) ;
#503=CARTESIAN_POINT('Vertex',(70.,-11.5,-10.)) ;
#506=CARTESIAN_POINT('Line Origine',(70.,13.25,0.)) ;
#510=CARTESIAN_POINT('Vertex',(70.,-11.5,0.)) ;
#513=CARTESIAN_POINT('Line Origine',(70.,-11.5,-5.)) ;
#528=CARTESIAN_POINT('Axis2P3D Location',(0.,28.,-10.)) ;
#533=CARTESIAN_POINT('Line Origine',(65.,-16.5,-10.)) ;
#537=CARTESIAN_POINT('Vertex',(60.,-21.5,-10.)) ;
#540=CARTESIAN_POINT('Line Origine',(0.,-21.5,-10.)) ;
#562=CARTESIAN_POINT('Axis2P3D Location',(0.,-21.5,-10.)) ;
#567=CARTESIAN_POINT('Line Origine',(60.,-21.5,-5.)) ;
#571=CARTESIAN_POINT('Vertex',(60.,-21.5,0.)) ;
#574=CARTESIAN_POINT('Line Origine',(0.,-21.5,0.)) ;
#586=CARTESIAN_POINT('Axis2P3D Location',(0.,-21.5,0.)) ;
#591=CARTESIAN_POINT('Line Origine',(65.,-16.5,0.)) ;
#613=CARTESIAN_POINT('Axis2P3D Location',(70.,-11.5,-120.)) ;
#53=DIRECTION('Axis2P3D Direction',(0.,-1.,0.)) ;
#54=DIRECTION('Axis2P3D XDirection',(1.,0.,0.)) ;
#58=DIRECTION('Axis2P3D Direction',(0.,-1.,0.)) ;
#67=DIRECTION('Vector Direction',(0.,-1.,0.)) ;
#74=DIRECTION('Axis2P3D Direction',(0.,-1.,0.)) ;
#81=DIRECTION('Vector Direction',(0.,-1.,0.)) ;
#93=DIRECTION('Axis2P3D Direction',(0.,-1.,0.)) ;
#98=DIRECTION('Axis2P3D Direction',(0.,-1.,0.)) ;
#110=DIRECTION('Axis2P3D Direction',(0.,1.,0.)) ;
#111=DIRECTION('Axis2P3D XDirection',(0.,0.,1.)) ;
#115=DIRECTION('Vector Direction',(1.,0.,0.)) ;
#124=DIRECTION('Vector Direction',(0.,0.,1.)) ;
#131=DIRECTION('Vector Direction',(1.,0.,0.)) ;
#138=DIRECTION('Vector Direction',(0.,0.,1.)) ;
#153=DIRECTION('Axis2P3D Direction',(0.,1.,0.)) ;
#162=DIRECTION('Axis2P3D Direction',(0.,1.,0.)) ;
#172=DIRECTION('Axis2P3D Direction',(-0.,0.,1.)) ;
#173=DIRECTION('Axis2P3D XDirection',(0.,-1.,0.)) ;
#177=DIRECTION('Vector Direction',(0.,-1.,0.)) ;
#184=DIRECTION('Vector Direction',(1.,0.,0.)) ;
#191=DIRECTION('Vector Direction',(0.,-1.,0.)) ;
#203=DIRECTION('Axis2P3D Direction',(1.,0.,0.)) ;
#204=DIRECTION('Axis2P3D XDirection',(0.,1.,0.)) ;
#208=DIRECTION('Axis2P3D Direction',(1.,0.,0.)) ;
#215=DIRECTION('Vector Direction',(1.,0.,0.)) ;
#222=DIRECTION('Axis2P3D Direction',(1.,0.,0.)) ;
#234=DIRECTION('Axis2P3D Direction',(0.,0.,-1.)) ;
#235=DIRECTION('Axis2P3D XDirection',(0.87758256189,-0.479425538604,0.)) ;
#239=DIRECTION('Vector Direction',(0.,0.,-1.)) ;
#248=DIRECTION('Axis2P3D Direction',(0.,0.,-1.)) ;
#255=DIRECTION('Vector Direction',(0.,0.,-1.)) ;
#262=DIRECTION('Axis2P3D Direction',(0.,0.,-1.)) ;
#274=DIRECTION('Axis2P3D Direction',(0.,0.,-1.)) ;
#279=DIRECTION('Axis2P3D Direction',(0.,0.,-1.)) ;
#291=DIRECTION('Axis2P3D Direction',(0.,0.,-1.)) ;
#292=DIRECTION('Axis2P3D XDirection',(0.87758256189,-0.479425538604,0.)) ;
#296=DIRECTION('Vector Direction',(0.,0.,-1.)) ;
#305=DIRECTION('Axis2P3D Direction',(0.,0.,-1.)) ;
#312=DIRECTION('Vector Direction',(0.,0.,-1.)) ;
#319=DIRECTION('Axis2P3D Direction',(0.,0.,-1.)) ;
#331=DIRECTION('Axis2P3D Direction',(0.,0.,-1.)) ;
#336=DIRECTION('Axis2P3D Direction',(0.,0.,-1.)) ;
#348=DIRECTION('Axis2P3D Direction',(0.,-1.,0.)) ;
#349=DIRECTION('Axis2P3D XDirection',(-1.,-0.,-3.21628574468E-016)) ;
#353=DIRECTION('Axis2P3D Direction',(0.,-1.,0.)) ;
#362=DIRECTION('Vector Direction',(0.,-1.,0.)) ;
#367=DIRECTION('Vector Direction',(0.,-1.,0.)) ;
#379=DIRECTION('Axis2P3D Direction',(0.,-1.,0.)) ;
#391=DIRECTION('Axis2P3D Direction',(0.,-1.,0.)) ;
#392=DIRECTION('Axis2P3D XDirection',(0.,0.,-1.)) ;
#396=DIRECTION('Vector Direction',(0.,0.,-1.)) ;
#403=DIRECTION('Vector Direction',(1.,0.,0.)) ;
#410=DIRECTION('Vector Direction',(0.,0.,-1.)) ;
#430=DIRECTION('Axis2P3D Direction',(1.,0.,0.)) ;
#431=DIRECTION('Axis2P3D XDirection',(0.,1.,0.)) ;
#435=DIRECTION('Vector Direction',(0.,0.,1.)) ;
#444=DIRECTION('Vector Direction',(0.,1.,0.)) ;
#449=DIRECTION('Vector Direction',(0.,-1.,0.)) ;
#464=DIRECTION('Axis2P3D Direction',(0.707106781187,0.707106781187,-0.)) ;
#465=DIRECTION('Axis2P3D XDirection',(0.,0.,1.)) ;
#469=DIRECTION('Vector Direction',(0.,0.,1.)) ;
#478=DIRECTION('Vector Direction',(0.707106781187,-0.707106781187,0.)) ;
#483=DIRECTION('Vector Direction',(0.707106781187,-0.707106781187,0.)) ;
#495=DIRECTION('Axis2P3D Direction',(1.,0.,0.)) ;
#496=DIRECTION('Axis2P3D XDirection',(0.,1.,0.)) ;
#500=DIRECTION('Vector Direction',(0.,-1.,0.)) ;
#507=DIRECTION('Vector Direction',(0.,1.,0.)) ;
#514=DIRECTION('Vector Direction',(0.,0.,1.)) ;
#529=DIRECTION('Axis2P3D Direction',(-0.,0.,1.)) ;
#530=DIRECTION('Axis2P3D XDirection',(0.,-1.,0.)) ;
#534=DIRECTION('Vector Direction',(-0.707106781187,-0.707106781187,0.)) ;
#541=DIRECTION('Vector Direction',(1.,0.,0.)) ;
#563=DIRECTION('Axis2P3D Direction',(0.,1.,0.)) ;
#564=DIRECTION('Axis2P3D XDirection',(0.,0.,1.)) ;
#568=DIRECTION('Vector Direction',(0.,0.,1.)) ;
#575=DIRECTION('Vector Direction',(1.,0.,0.)) ;
#587=DIRECTION('Axis2P3D Direction',(0.,0.,-1.)) ;
#588=DIRECTION('Axis2P3D XDirection',(0.,1.,0.)) ;
#592=DIRECTION('Vector Direction',(0.707106781187,0.707106781187,0.)) ;
#614=DIRECTION('Axis2P3D Direction',(0.707106781187,-0.707106781187,0.)) ;
#615=DIRECTION('Axis2P3D XDirection',(0.,0.,1.)) ;
#48=AXIS2_PLACEMENT_3D(' ',#47,$,$) ;
#55=AXIS2_PLACEMENT_3D('Cylinder Axis2P3D',#52,#53,#54) ;
#59=AXIS2_PLACEMENT_3D('Circle Axis2P3D',#57,#58,$) ;
#75=AXIS2_PLACEMENT_3D('Circle Axis2P3D',#73,#74,$) ;
#94=AXIS2_PLACEMENT_3D('Circle Axis2P3D',#92,#93,$) ;
#99=AXIS2_PLACEMENT_3D('Circle Axis2P3D',#97,#98,$) ;
#112=AXIS2_PLACEMENT_3D('Plane Axis2P3D',#109,#110,#111) ;
#154=AXIS2_PLACEMENT_3D('Circle Axis2P3D',#152,#153,$) ;
#163=AXIS2_PLACEMENT_3D('Circle Axis2P3D',#161,#162,$) ;
#174=AXIS2_PLACEMENT_3D('Plane Axis2P3D',#171,#172,#173) ;
#205=AXIS2_PLACEMENT_3D('Cylinder Axis2P3D',#202,#203,#204) ;
#209=AXIS2_PLACEMENT_3D('Circle Axis2P3D',#207,#208,$) ;
#223=AXIS2_PLACEMENT_3D('Circle Axis2P3D',#221,#222,$) ;
#236=AXIS2_PLACEMENT_3D('Cylinder Axis2P3D',#233,#234,#235) ;
#249=AXIS2_PLACEMENT_3D('Circle Axis2P3D',#247,#248,$) ;
#263=AXIS2_PLACEMENT_3D('Circle Axis2P3D',#261,#262,$) ;
#275=AXIS2_PLACEMENT_3D('Circle Axis2P3D',#273,#274,$) ;
#280=AXIS2_PLACEMENT_3D('Circle Axis2P3D',#278,#279,$) ;
#293=AXIS2_PLACEMENT_3D('Cylinder Axis2P3D',#290,#291,#292) ;
#306=AXIS2_PLACEMENT_3D('Circle Axis2P3D',#304,#305,$) ;
#320=AXIS2_PLACEMENT_3D('Circle Axis2P3D',#318,#319,$) ;
#332=AXIS2_PLACEMENT_3D('Circle Axis2P3D',#330,#331,$) ;
#337=AXIS2_PLACEMENT_3D('Circle Axis2P3D',#335,#336,$) ;
#350=AXIS2_PLACEMENT_3D('Cylinder Axis2P3D',#347,#348,#349) ;
#354=AXIS2_PLACEMENT_3D('Circle Axis2P3D',#352,#353,$) ;
#380=AXIS2_PLACEMENT_3D('Circle Axis2P3D',#378,#379,$) ;
#393=AXIS2_PLACEMENT_3D('Plane Axis2P3D',#390,#391,#392) ;
#432=AXIS2_PLACEMENT_3D('Plane Axis2P3D',#429,#430,#431) ;
#466=AXIS2_PLACEMENT_3D('Plane Axis2P3D',#463,#464,#465) ;
#497=AXIS2_PLACEMENT_3D('Plane Axis2P3D',#494,#495,#496) ;
#531=AXIS2_PLACEMENT_3D('Plane Axis2P3D',#528,#529,#530) ;
#565=AXIS2_PLACEMENT_3D('Plane Axis2P3D',#562,#563,#564) ;
#589=AXIS2_PLACEMENT_3D('Plane Axis2P3D',#586,#587,#588) ;
#616=AXIS2_PLACEMENT_3D('Plane Axis2P3D',#613,#614,#615) ;
#40=PRODUCT_DEFINITION_SHAPE(' ',' ',#14) ;
#31=APPROVAL_PERSON_ORGANIZATION(#25,#21,#19) ;
#25=PERSON_AND_ORGANIZATION(#22,#23) ;
#22=PERSON(' ',' ',' ',$,$,$) ;
#23=ORGANIZATION(' ',' ',' ') ;
#21=APPROVAL(#20,' ') ;
#20=APPROVAL_STATUS('not_yet_approved') ;
#19=APPROVAL_ROLE('APPROVER') ;
#13=DATE_AND_TIME(#11,#12) ;
#12=LOCAL_TIME(16,22,28.,#10) ;
#10=COORDINATED_UNIVERSAL_TIME_OFFSET(0,0,.AHEAD.) ;
#86=ORIENTED_EDGE('',*,*,#65,.F.) ;
#87=ORIENTED_EDGE('',*,*,#72,.F.) ;
#88=ORIENTED_EDGE('',*,*,#79,.T.) ;
#89=ORIENTED_EDGE('',*,*,#84,.T.) ;
#103=ORIENTED_EDGE('',*,*,#96,.F.) ;
#104=ORIENTED_EDGE('',*,*,#84,.F.) ;
#105=ORIENTED_EDGE('',*,*,#101,.T.) ;
#106=ORIENTED_EDGE('',*,*,#72,.T.) ;
#143=ORIENTED_EDGE('',*,*,#122,.T.) ;
#144=ORIENTED_EDGE('',*,*,#129,.T.) ;
#145=ORIENTED_EDGE('',*,*,#136,.T.) ;
#146=ORIENTED_EDGE('',*,*,#141,.F.) ;
#149=ORIENTED_EDGE('',*,*,#79,.F.) ;
#150=ORIENTED_EDGE('',*,*,#101,.F.) ;
#167=ORIENTED_EDGE('',*,*,#160,.F.) ;
#168=ORIENTED_EDGE('',*,*,#165,.F.) ;
#196=ORIENTED_EDGE('',*,*,#136,.F.) ;
#197=ORIENTED_EDGE('',*,*,#182,.T.) ;
#198=ORIENTED_EDGE('',*,*,#189,.T.) ;
#199=ORIENTED_EDGE('',*,*,#194,.F.) ;
#227=ORIENTED_EDGE('',*,*,#122,.F.) ;
#228=ORIENTED_EDGE('',*,*,#213,.F.) ;
#229=ORIENTED_EDGE('',*,*,#220,.T.) ;
#230=ORIENTED_EDGE('',*,*,#225,.F.) ;
#267=ORIENTED_EDGE('',*,*,#246,.F.) ;
#268=ORIENTED_EDGE('',*,*,#253,.F.) ;
#269=ORIENTED_EDGE('',*,*,#260,.T.) ;
#270=ORIENTED_EDGE('',*,*,#265,.F.) ;
#284=ORIENTED_EDGE('',*,*,#260,.F.) ;
#285=ORIENTED_EDGE('',*,*,#277,.F.) ;
#286=ORIENTED_EDGE('',*,*,#246,.T.) ;
#287=ORIENTED_EDGE('',*,*,#282,.F.) ;
#324=ORIENTED_EDGE('',*,*,#303,.F.) ;
#325=ORIENTED_EDGE('',*,*,#310,.F.) ;
#326=ORIENTED_EDGE('',*,*,#317,.T.) ;
#327=ORIENTED_EDGE('',*,*,#322,.F.) ;
#341=ORIENTED_EDGE('',*,*,#317,.F.) ;
#342=ORIENTED_EDGE('',*,*,#334,.F.) ;
#343=ORIENTED_EDGE('',*,*,#303,.T.) ;
#344=ORIENTED_EDGE('',*,*,#339,.F.) ;
#372=ORIENTED_EDGE('',*,*,#360,.F.) ;
#373=ORIENTED_EDGE('',*,*,#365,.F.) ;
#374=ORIENTED_EDGE('',*,*,#160,.T.) ;
#375=ORIENTED_EDGE('',*,*,#370,.T.) ;
#384=ORIENTED_EDGE('',*,*,#382,.F.) ;
#385=ORIENTED_EDGE('',*,*,#370,.F.) ;
#386=ORIENTED_EDGE('',*,*,#165,.T.) ;
#387=ORIENTED_EDGE('',*,*,#365,.T.) ;
#415=ORIENTED_EDGE('',*,*,#189,.F.) ;
#416=ORIENTED_EDGE('',*,*,#401,.T.) ;
#417=ORIENTED_EDGE('',*,*,#408,.T.) ;
#418=ORIENTED_EDGE('',*,*,#413,.F.) ;
#421=ORIENTED_EDGE('',*,*,#65,.T.) ;
#422=ORIENTED_EDGE('',*,*,#96,.T.) ;
#425=ORIENTED_EDGE('',*,*,#360,.T.) ;
#426=ORIENTED_EDGE('',*,*,#382,.T.) ;
#454=ORIENTED_EDGE('',*,*,#442,.F.) ;
#455=ORIENTED_EDGE('',*,*,#447,.F.) ;
#456=ORIENTED_EDGE('',*,*,#401,.F.) ;
#457=ORIENTED_EDGE('',*,*,#182,.F.) ;
#458=ORIENTED_EDGE('',*,*,#129,.F.) ;
#459=ORIENTED_EDGE('',*,*,#225,.T.) ;
#460=ORIENTED_EDGE('',*,*,#452,.F.) ;
#488=ORIENTED_EDGE('',*,*,#476,.F.) ;
#489=ORIENTED_EDGE('',*,*,#481,.T.) ;
#490=ORIENTED_EDGE('',*,*,#442,.T.) ;
#491=ORIENTED_EDGE('',*,*,#486,.T.) ;
#519=ORIENTED_EDGE('',*,*,#505,.T.) ;
#520=ORIENTED_EDGE('',*,*,#213,.T.) ;
#521=ORIENTED_EDGE('',*,*,#141,.T.) ;
#522=ORIENTED_EDGE('',*,*,#194,.T.) ;
#523=ORIENTED_EDGE('',*,*,#413,.T.) ;
#524=ORIENTED_EDGE('',*,*,#512,.T.) ;
#525=ORIENTED_EDGE('',*,*,#517,.T.) ;
#546=ORIENTED_EDGE('',*,*,#539,.F.) ;
#547=ORIENTED_EDGE('',*,*,#544,.F.) ;
#548=ORIENTED_EDGE('',*,*,#486,.F.) ;
#549=ORIENTED_EDGE('',*,*,#452,.T.) ;
#550=ORIENTED_EDGE('',*,*,#220,.F.) ;
#551=ORIENTED_EDGE('',*,*,#505,.F.) ;
#554=ORIENTED_EDGE('',*,*,#277,.T.) ;
#555=ORIENTED_EDGE('',*,*,#253,.T.) ;
#558=ORIENTED_EDGE('',*,*,#334,.T.) ;
#559=ORIENTED_EDGE('',*,*,#310,.T.) ;
#580=ORIENTED_EDGE('',*,*,#573,.F.) ;
#581=ORIENTED_EDGE('',*,*,#578,.F.) ;
#582=ORIENTED_EDGE('',*,*,#476,.T.) ;
#583=ORIENTED_EDGE('',*,*,#544,.T.) ;
#597=ORIENTED_EDGE('',*,*,#595,.F.) ;
#598=ORIENTED_EDGE('',*,*,#512,.F.) ;
#599=ORIENTED_EDGE('',*,*,#408,.F.) ;
#600=ORIENTED_EDGE('',*,*,#447,.T.) ;
#601=ORIENTED_EDGE('',*,*,#481,.F.) ;
#602=ORIENTED_EDGE('',*,*,#578,.T.) ;
#605=ORIENTED_EDGE('',*,*,#282,.T.) ;
#606=ORIENTED_EDGE('',*,*,#265,.T.) ;
#609=ORIENTED_EDGE('',*,*,#339,.T.) ;
#610=ORIENTED_EDGE('',*,*,#322,.T.) ;
#619=ORIENTED_EDGE('',*,*,#539,.T.) ;
#620=ORIENTED_EDGE('',*,*,#517,.F.) ;
#621=ORIENTED_EDGE('',*,*,#595,.T.) ;
#622=ORIENTED_EDGE('',*,*,#573,.T.) ;
#151=FACE_BOUND('',#148,.T.) ;
#169=FACE_BOUND('',#166,.T.) ;
#423=FACE_BOUND('',#420,.T.) ;
#427=FACE_BOUND('',#424,.T.) ;
#556=FACE_BOUND('',#553,.T.) ;
#560=FACE_BOUND('',#557,.T.) ;
#607=FACE_BOUND('',#604,.T.) ;
#611=FACE_BOUND('',#608,.T.) ;
#51=CLOSED_SHELL('Closed Shell',(#91,#108,#170,#201,#232,#272,#289,#329,#346,#377,#389,#428,#462,#493,#527,#561,#585,#612,#624)) ;
#68=VECTOR('Line Direction',#67,1.) ;
#82=VECTOR('Line Direction',#81,1.) ;
#116=VECTOR('Line Direction',#115,1.) ;
#125=VECTOR('Line Direction',#124,1.) ;
#132=VECTOR('Line Direction',#131,1.) ;
#139=VECTOR('Line Direction',#138,1.) ;
#178=VECTOR('Line Direction',#177,1.) ;
#185=VECTOR('Line Direction',#184,1.) ;
#192=VECTOR('Line Direction',#191,1.) ;
#216=VECTOR('Line Direction',#215,1.) ;
#240=VECTOR('Line Direction',#239,1.) ;
#256=VECTOR('Line Direction',#255,1.) ;
#297=VECTOR('Line Direction',#296,1.) ;
#313=VECTOR('Line Direction',#312,1.) ;
#363=VECTOR('Line Direction',#362,1.) ;
#368=VECTOR('Line Direction',#367,1.) ;
#397=VECTOR('Line Direction',#396,1.) ;
#404=VECTOR('Line Direction',#403,1.) ;
#411=VECTOR('Line Direction',#410,1.) ;
#436=VECTOR('Line Direction',#435,1.) ;
#445=VECTOR('Line Direction',#444,1.) ;
#450=VECTOR('Line Direction',#449,1.) ;
#470=VECTOR('Line Direction',#469,1.) ;
#479=VECTOR('Line Direction',#478,1.) ;
#484=VECTOR('Line Direction',#483,1.) ;
#501=VECTOR('Line Direction',#500,1.) ;
#508=VECTOR('Line Direction',#507,1.) ;
#515=VECTOR('Line Direction',#514,1.) ;
#535=VECTOR('Line Direction',#534,1.) ;
#542=VECTOR('Line Direction',#541,1.) ;
#569=VECTOR('Line Direction',#568,1.) ;
#576=VECTOR('Line Direction',#575,1.) ;
#593=VECTOR('Line Direction',#592,1.) ;
#626=ADVANCED_BREP_SHAPE_REPRESENTATION('NONE',(#625),#46) ;
#49=SHAPE_REPRESENTATION(' ',(#48),#46) ;
#91=ADVANCED_FACE('platine corni\X2\00E8\X0\re',(#90),#56,.F.) ;
#108=ADVANCED_FACE('platine corni\X2\00E8\X0\re',(#107),#56,.F.) ;
#170=ADVANCED_FACE('platine corni\X2\00E8\X0\re',(#147,#151,#169),#113,.F.) ;
#201=ADVANCED_FACE('platine corni\X2\00E8\X0\re',(#200),#175,.F.) ;
#232=ADVANCED_FACE('platine corni\X2\00E8\X0\re',(#231),#206,.F.) ;
#272=ADVANCED_FACE('platine corni\X2\00E8\X0\re',(#271),#237,.F.) ;
#289=ADVANCED_FACE('platine corni\X2\00E8\X0\re',(#288),#237,.F.) ;
#329=ADVANCED_FACE('platine corni\X2\00E8\X0\re',(#328),#294,.F.) ;
#346=ADVANCED_FACE('platine corni\X2\00E8\X0\re',(#345),#294,.F.) ;
#377=ADVANCED_FACE('platine corni\X2\00E8\X0\re',(#376),#351,.F.) ;
#389=ADVANCED_FACE('platine corni\X2\00E8\X0\re',(#388),#351,.F.) ;
#428=ADVANCED_FACE('platine corni\X2\00E8\X0\re',(#419,#423,#427),#394,.F.) ;
#462=ADVANCED_FACE('platine corni\X2\00E8\X0\re',(#461),#433,.F.) ;
#493=ADVANCED_FACE('platine corni\X2\00E8\X0\re',(#492),#467,.F.) ;
#527=ADVANCED_FACE('platine corni\X2\00E8\X0\re',(#526),#498,.T.) ;
#561=ADVANCED_FACE('platine corni\X2\00E8\X0\re',(#552,#556,#560),#532,.F.) ;
#585=ADVANCED_FACE('platine corni\X2\00E8\X0\re',(#584),#566,.F.) ;
#612=ADVANCED_FACE('platine corni\X2\00E8\X0\re',(#603,#607,#611),#590,.F.) ;
#624=ADVANCED_FACE('platine corni\X2\00E8\X0\re',(#623),#617,.T.) ;
#4=APPLICATION_PROTOCOL_DEFINITION('international standard','config_control_design',1994,#1) ;
#32=APPROVAL_DATE_TIME(#13,#21) ;
#625=MANIFOLD_SOLID_BREP('platine corni\X2\00E8\X0\re',#51) ;
#11=CALENDAR_DATE(2021,7,8) ;
#30=CC_DESIGN_APPROVAL(#21,(#16,#6,#14)) ;
#18=CC_DESIGN_DATE_AND_TIME_ASSIGNMENT(#13,#17,(#16)) ;
#29=CC_DESIGN_DATE_AND_TIME_ASSIGNMENT(#13,#28,(#14)) ;
#17=DATE_TIME_ROLE('classification_date') ;
#28=DATE_TIME_ROLE('creation_date') ;
#27=CC_DESIGN_PERSON_AND_ORGANIZATION_ASSIGNMENT(#25,#26,(#16)) ;
#33=CC_DESIGN_PERSON_AND_ORGANIZATION_ASSIGNMENT(#25,#34,(#6)) ;
#35=CC_DESIGN_PERSON_AND_ORGANIZATION_ASSIGNMENT(#25,#36,(#6,#14)) ;
#37=CC_DESIGN_PERSON_AND_ORGANIZATION_ASSIGNMENT(#25,#38,(#5)) ;
#26=PERSON_AND_ORGANIZATION_ROLE('classification_officer') ;
#34=PERSON_AND_ORGANIZATION_ROLE('design_supplier') ;
#36=PERSON_AND_ORGANIZATION_ROLE('creator') ;
#38=PERSON_AND_ORGANIZATION_ROLE('design_owner') ;
#39=CC_DESIGN_SECURITY_CLASSIFICATION(#16,(#6)) ;
#60=CIRCLE('generated circle',#59,6.5) ;
#76=CIRCLE('generated circle',#75,6.5) ;
#95=CIRCLE('generated circle',#94,6.5) ;
#100=CIRCLE('generated circle',#99,6.5) ;
#155=CIRCLE('generated circle',#154,6.5) ;
#164=CIRCLE('generated circle',#163,6.5) ;
#210=CIRCLE('generated circle',#209,5.) ;
#224=CIRCLE('generated circle',#223,5.) ;
#250=CIRCLE('generated circle',#249,6.5) ;
#264=CIRCLE('generated circle',#263,6.5) ;
#276=CIRCLE('generated circle',#275,6.5) ;
#281=CIRCLE('generated circle',#280,6.5) ;
#307=CIRCLE('generated circle',#306,6.5) ;
#321=CIRCLE('generated circle',#320,6.5) ;
#333=CIRCLE('generated circle',#332,6.5) ;
#338=CIRCLE('generated circle',#337,6.5) ;
#355=CIRCLE('generated circle',#354,6.5) ;
#381=CIRCLE('generated circle',#380,6.5) ;
#627=SHAPE_REPRESENTATION_RELATIONSHIP(' ',' ',#49,#626) ;
#56=CYLINDRICAL_SURFACE('generated cylinder',#55,6.5) ;
#206=CYLINDRICAL_SURFACE('generated cylinder',#205,5.) ;
#237=CYLINDRICAL_SURFACE('generated cylinder',#236,6.5) ;
#294=CYLINDRICAL_SURFACE('generated cylinder',#293,6.5) ;
#351=CYLINDRICAL_SURFACE('generated cylinder',#350,6.5) ;
#3=DESIGN_CONTEXT(' ',#1,'design') ;
#65=EDGE_CURVE('',#62,#64,#60,.T.) ;
#72=EDGE_CURVE('',#71,#62,#69,.F.) ;
#79=EDGE_CURVE('',#71,#78,#76,.T.) ;
#84=EDGE_CURVE('',#78,#64,#83,.F.) ;
#96=EDGE_CURVE('',#64,#62,#95,.T.) ;
#101=EDGE_CURVE('',#78,#71,#100,.T.) ;
#122=EDGE_CURVE('',#119,#121,#117,.F.) ;
#129=EDGE_CURVE('',#121,#128,#126,.F.) ;
#136=EDGE_CURVE('',#128,#135,#133,.T.) ;
#141=EDGE_CURVE('',#119,#135,#140,.F.) ;
#160=EDGE_CURVE('',#157,#159,#155,.F.) ;
#165=EDGE_CURVE('',#159,#157,#164,.F.) ;
#182=EDGE_CURVE('',#128,#181,#179,.F.) ;
#189=EDGE_CURVE('',#181,#188,#186,.T.) ;
#194=EDGE_CURVE('',#135,#188,#193,.F.) ;
#213=EDGE_CURVE('',#212,#119,#210,.F.) ;
#220=EDGE_CURVE('',#212,#219,#217,.F.) ;
#225=EDGE_CURVE('',#121,#219,#224,.T.) ;
#246=EDGE_CURVE('',#243,#245,#241,.F.) ;
#253=EDGE_CURVE('',#252,#243,#250,.F.) ;
#260=EDGE_CURVE('',#252,#259,#257,.F.) ;
#265=EDGE_CURVE('',#245,#259,#264,.T.) ;
#277=EDGE_CURVE('',#243,#252,#276,.F.) ;
#282=EDGE_CURVE('',#259,#245,#281,.T.) ;
#303=EDGE_CURVE('',#300,#302,#298,.F.) ;
#310=EDGE_CURVE('',#309,#300,#307,.F.) ;
#317=EDGE_CURVE('',#309,#316,#314,.F.) ;
#322=EDGE_CURVE('',#302,#316,#321,.T.) ;
#334=EDGE_CURVE('',#300,#309,#333,.F.) ;
#339=EDGE_CURVE('',#316,#302,#338,.T.) ;
#360=EDGE_CURVE('',#357,#359,#355,.T.) ;
#365=EDGE_CURVE('',#157,#357,#364,.F.) ;
#370=EDGE_CURVE('',#159,#359,#369,.F.) ;
#382=EDGE_CURVE('',#359,#357,#381,.T.) ;
#401=EDGE_CURVE('',#181,#400,#398,.F.) ;
#408=EDGE_CURVE('',#400,#407,#405,.T.) ;
#413=EDGE_CURVE('',#188,#407,#412,.F.) ;
#442=EDGE_CURVE('',#439,#441,#437,.F.) ;
#447=EDGE_CURVE('',#400,#439,#446,.F.) ;
#452=EDGE_CURVE('',#441,#219,#451,.F.) ;
#476=EDGE_CURVE('',#473,#475,#471,.F.) ;
#481=EDGE_CURVE('',#473,#439,#480,.F.) ;
#486=EDGE_CURVE('',#441,#475,#485,.T.) ;
#505=EDGE_CURVE('',#504,#212,#502,.F.) ;
#512=EDGE_CURVE('',#407,#511,#509,.F.) ;
#517=EDGE_CURVE('',#511,#504,#516,.F.) ;
#539=EDGE_CURVE('',#538,#504,#536,.F.) ;
#544=EDGE_CURVE('',#475,#538,#543,.T.) ;
#573=EDGE_CURVE('',#572,#538,#570,.F.) ;
#578=EDGE_CURVE('',#473,#572,#577,.T.) ;
#595=EDGE_CURVE('',#511,#572,#594,.F.) ;
#85=EDGE_LOOP('',(#86,#87,#88,#89)) ;
#102=EDGE_LOOP('',(#103,#104,#105,#106)) ;
#142=EDGE_LOOP('',(#143,#144,#145,#146)) ;
#148=EDGE_LOOP('',(#149,#150)) ;
#166=EDGE_LOOP('',(#167,#168)) ;
#195=EDGE_LOOP('',(#196,#197,#198,#199)) ;
#226=EDGE_LOOP('',(#227,#228,#229,#230)) ;
#266=EDGE_LOOP('',(#267,#268,#269,#270)) ;
#283=EDGE_LOOP('',(#284,#285,#286,#287)) ;
#323=EDGE_LOOP('',(#324,#325,#326,#327)) ;
#340=EDGE_LOOP('',(#341,#342,#343,#344)) ;
#371=EDGE_LOOP('',(#372,#373,#374,#375)) ;
#383=EDGE_LOOP('',(#384,#385,#386,#387)) ;
#414=EDGE_LOOP('',(#415,#416,#417,#418)) ;
#420=EDGE_LOOP('',(#421,#422)) ;
#424=EDGE_LOOP('',(#425,#426)) ;
#453=EDGE_LOOP('',(#454,#455,#456,#457,#458,#459,#460)) ;
#487=EDGE_LOOP('',(#488,#489,#490,#491)) ;
#518=EDGE_LOOP('',(#519,#520,#521,#522,#523,#524,#525)) ;
#545=EDGE_LOOP('',(#546,#547,#548,#549,#550,#551)) ;
#553=EDGE_LOOP('',(#554,#555)) ;
#557=EDGE_LOOP('',(#558,#559)) ;
#579=EDGE_LOOP('',(#580,#581,#582,#583)) ;
#596=EDGE_LOOP('',(#597,#598,#599,#600,#601,#602)) ;
#604=EDGE_LOOP('',(#605,#606)) ;
#608=EDGE_LOOP('',(#609,#610)) ;
#618=EDGE_LOOP('',(#619,#620,#621,#622)) ;
#90=FACE_OUTER_BOUND('',#85,.T.) ;
#107=FACE_OUTER_BOUND('',#102,.T.) ;
#147=FACE_OUTER_BOUND('',#142,.T.) ;
#200=FACE_OUTER_BOUND('',#195,.T.) ;
#231=FACE_OUTER_BOUND('',#226,.T.) ;
#271=FACE_OUTER_BOUND('',#266,.T.) ;
#288=FACE_OUTER_BOUND('',#283,.T.) ;
#328=FACE_OUTER_BOUND('',#323,.T.) ;
#345=FACE_OUTER_BOUND('',#340,.T.) ;
#376=FACE_OUTER_BOUND('',#371,.T.) ;
#388=FACE_OUTER_BOUND('',#383,.T.) ;
#419=FACE_OUTER_BOUND('',#414,.T.) ;
#461=FACE_OUTER_BOUND('',#453,.T.) ;
#492=FACE_OUTER_BOUND('',#487,.T.) ;
#526=FACE_OUTER_BOUND('',#518,.T.) ;
#552=FACE_OUTER_BOUND('',#545,.T.) ;
#584=FACE_OUTER_BOUND('',#579,.T.) ;
#603=FACE_OUTER_BOUND('',#596,.T.) ;
#623=FACE_OUTER_BOUND('',#618,.T.) ;
#45=UNCERTAINTY_MEASURE_WITH_UNIT(LENGTH_MEASURE(0.005),#41,'distance_accuracy_value','CONFUSED CURVE UNCERTAINTY') ;
#69=LINE('Line',#66,#68) ;
#83=LINE('Line',#80,#82) ;
#117=LINE('Line',#114,#116) ;
#126=LINE('Line',#123,#125) ;
#133=LINE('Line',#130,#132) ;
#140=LINE('Line',#137,#139) ;
#179=LINE('Line',#176,#178) ;
#186=LINE('Line',#183,#185) ;
#193=LINE('Line',#190,#192) ;
#217=LINE('Line',#214,#216) ;
#241=LINE('Line',#238,#240) ;
#257=LINE('Line',#254,#256) ;
#298=LINE('Line',#295,#297) ;
#314=LINE('Line',#311,#313) ;
#364=LINE('Line',#361,#363) ;
#369=LINE('Line',#366,#368) ;
#398=LINE('Line',#395,#397) ;
#405=LINE('Line',#402,#404) ;
#412=LINE('Line',#409,#411) ;
#437=LINE('Line',#434,#436) ;
#446=LINE('Line',#443,#445) ;
#451=LINE('Line',#448,#450) ;
#471=LINE('Line',#468,#470) ;
#480=LINE('Line',#477,#479) ;
#485=LINE('Line',#482,#484) ;
#502=LINE('Line',#499,#501) ;
#509=LINE('Line',#506,#508) ;
#516=LINE('Line',#513,#515) ;
#536=LINE('Line',#533,#535) ;
#543=LINE('Line',#540,#542) ;
#570=LINE('Line',#567,#569) ;
#577=LINE('Line',#574,#576) ;
#594=LINE('Line',#591,#593) ;
#2=MECHANICAL_CONTEXT(' ',#1,'mechanical') ;
#24=PERSONAL_ADDRESS(' ',' ',' ',' ',' ',' ',' ',' ',' ',' ',' ',' ',(#22),' ') ;
#113=PLANE('',#112) ;
#175=PLANE('',#174) ;
#394=PLANE('',#393) ;
#433=PLANE('',#432) ;
#467=PLANE('',#466) ;
#498=PLANE('',#497) ;
#532=PLANE('',#531) ;
#566=PLANE('',#565) ;
#590=PLANE('',#589) ;
#617=PLANE('',#616) ;
#43=PLANE_ANGLE_MEASURE_WITH_UNIT(PLANE_ANGLE_MEASURE(0.0174532925199),#42) ;
#7=PRODUCT_CATEGORY('part',$) ;
#9=PRODUCT_CATEGORY_RELATIONSHIP(' ',' ',#7,#8) ;
#6=PRODUCT_DEFINITION_FORMATION_WITH_SPECIFIED_SOURCE('',' ',#5,.NOT_KNOWN.) ;
#8=PRODUCT_RELATED_PRODUCT_CATEGORY('detail',$,(#5)) ;
#50=SHAPE_DEFINITION_REPRESENTATION(#40,#49) ;
#62=VERTEX_POINT('',#61) ;
#64=VERTEX_POINT('',#63) ;
#71=VERTEX_POINT('',#70) ;
#78=VERTEX_POINT('',#77) ;
#119=VERTEX_POINT('',#118) ;
#121=VERTEX_POINT('',#120) ;
#128=VERTEX_POINT('',#127) ;
#135=VERTEX_POINT('',#134) ;
#157=VERTEX_POINT('',#156) ;
#159=VERTEX_POINT('',#158) ;
#181=VERTEX_POINT('',#180) ;
#188=VERTEX_POINT('',#187) ;
#212=VERTEX_POINT('',#211) ;
#219=VERTEX_POINT('',#218) ;
#243=VERTEX_POINT('',#242) ;
#245=VERTEX_POINT('',#244) ;
#252=VERTEX_POINT('',#251) ;
#259=VERTEX_POINT('',#258) ;
#300=VERTEX_POINT('',#299) ;
#302=VERTEX_POINT('',#301) ;
#309=VERTEX_POINT('',#308) ;
#316=VERTEX_POINT('',#315) ;
#357=VERTEX_POINT('',#356) ;
#359=VERTEX_POINT('',#358) ;
#400=VERTEX_POINT('',#399) ;
#407=VERTEX_POINT('',#406) ;
#439=VERTEX_POINT('',#438) ;
#441=VERTEX_POINT('',#440) ;
#473=VERTEX_POINT('',#472) ;
#475=VERTEX_POINT('',#474) ;
#504=VERTEX_POINT('',#503) ;
#511=VERTEX_POINT('',#510) ;
#538=VERTEX_POINT('',#537) ;
#572=VERTEX_POINT('',#571) ;
#41=(LENGTH_UNIT()NAMED_UNIT(*)SI_UNIT(.MILLI.,.METRE.)) ;
#42=(NAMED_UNIT(*)PLANE_ANGLE_UNIT()SI_UNIT($,.RADIAN.)) ;
#44=(NAMED_UNIT(*)SI_UNIT($,.STERADIAN.)SOLID_ANGLE_UNIT()) ;
#46=(GEOMETRIC_REPRESENTATION_CONTEXT(3)GLOBAL_UNCERTAINTY_ASSIGNED_CONTEXT((#45))GLOBAL_UNIT_ASSIGNED_CONTEXT((#41,#42,#44))REPRESENTATION_CONTEXT(' ',' ')) ;
ENDSEC;
END-ISO-10303-21;
