ISO-10303-21;
HEADER;
FILE_DESCRIPTION(('CATIA V5 STEP Exchange'),'2;1');

FILE_NAME('C:\\Users\\Valy\\Downloads\\contrepoids.stp','2021-07-26T15:43:21+00:00',('none'),('none'),'CATIA Version 5 Release 20 GA (IN-10)','CATIA V5 STEP AP203','none');

FILE_SCHEMA(('CONFIG_CONTROL_DESIGN'));

ENDSEC;
/* file written by CATIA V5R20 */
DATA;
#5=PRODUCT('porte cellule','','',(#2)) ;
#1=APPLICATION_CONTEXT('configuration controlled 3D design of mechanical parts and assemblies') ;
#14=PRODUCT_DEFINITION('',' ',#6,#3) ;
#16=SECURITY_CLASSIFICATION(' ',' ',#15) ;
#15=SECURITY_CLASSIFICATION_LEVEL('unclassified') ;
#47=CARTESIAN_POINT(' ',(0.,0.,0.)) ;
#52=CARTESIAN_POINT('Axis2P3D Location',(-0.1,0.,11.25)) ;
#57=CARTESIAN_POINT('Line Origine',(-2.5,-1.07898775984,11.8394536997)) ;
#61=CARTESIAN_POINT('Vertex',(-16.96572384,-1.07898775984,11.8394536997)) ;
#63=CARTESIAN_POINT('Vertex',(-5.92759735594,-1.07898775984,11.8394536997)) ;
#67=CARTESIAN_POINT('Control Point',(-16.96572384,-1.07898775984,11.8394536997)) ;
#68=CARTESIAN_POINT('Control Point',(-16.9753155271,-0.928170557088,12.1155227376)) ;
#69=CARTESIAN_POINT('Control Point',(-16.9888359525,-0.689117252889,12.3432516692)) ;
#70=CARTESIAN_POINT('Control Point',(-17.0006614818,-0.38194393088,12.4847448259)) ;
#71=CARTESIAN_POINT('Control Point',(-17.0037301154,0.111815018674,12.5347136378)) ;
#72=CARTESIAN_POINT('Control Point',(-16.991787625,0.55832235567,12.3626318057)) ;
#73=CARTESIAN_POINT('Control Point',(-16.9864329411,0.696904178759,12.281487588)) ;
#74=CARTESIAN_POINT('Control Point',(-16.9693138358,1.05400830689,11.9859188428)) ;
#75=CARTESIAN_POINT('Control Point',(-16.9541745005,1.25106652497,11.5497855636)) ;
#76=CARTESIAN_POINT('Control Point',(-16.9510024981,1.28640189561,11.231087776)) ;
#77=CARTESIAN_POINT('Control Point',(-16.9565762487,1.22282211404,10.9238333196)) ;
#78=CARTESIAN_POINT('Control Point',(-16.96572384,1.07898775984,10.6605463003)) ;
#79=CARTESIAN_POINT('Vertex',(-16.96572384,1.07898775984,10.6605463003)) ;
#82=CARTESIAN_POINT('Line Origine',(-2.5,1.07898775984,10.6605463003)) ;
#86=CARTESIAN_POINT('Vertex',(-5.92759735594,1.07898775984,10.6605463003)) ;
#90=CARTESIAN_POINT('Control Point',(-5.92759735594,-1.07898775984,11.8394536997)) ;
#91=CARTESIAN_POINT('Control Point',(-5.9550347064,-0.928256146255,12.1153660677)) ;
#92=CARTESIAN_POINT('Control Point',(-5.99349110473,-0.689792225658,12.3422542591)) ;
#93=CARTESIAN_POINT('Control Point',(-6.02688458751,-0.38333732491,12.4849386578)) ;
#94=CARTESIAN_POINT('Control Point',(-6.03557158541,0.112427249273,12.5348440352)) ;
#95=CARTESIAN_POINT('Control Point',(-6.00172580593,0.559147042994,12.3622215088)) ;
#96=CARTESIAN_POINT('Control Point',(-5.98656830357,0.697448248899,12.2810173248)) ;
#97=CARTESIAN_POINT('Control Point',(-5.93804459924,1.05342454977,11.9862320959)) ;
#98=CARTESIAN_POINT('Control Point',(-5.89468267238,1.25048253506,11.5512478991)) ;
#99=CARTESIAN_POINT('Control Point',(-5.88531585859,1.28658276397,11.2308623993)) ;
#100=CARTESIAN_POINT('Control Point',(-5.9014536908,1.22261229951,10.9234492567)) ;
#101=CARTESIAN_POINT('Control Point',(-5.92759735594,1.07898775984,10.6605463003)) ;
#111=CARTESIAN_POINT('Control Point',(-16.96572384,1.07898775984,10.6605463003)) ;
#112=CARTESIAN_POINT('Control Point',(-16.9753155271,0.928170557102,10.3844772624)) ;
#113=CARTESIAN_POINT('Control Point',(-16.9888359525,0.689117252932,10.1567483308)) ;
#114=CARTESIAN_POINT('Control Point',(-17.0006614818,0.381943930822,10.0152551741)) ;
#115=CARTESIAN_POINT('Control Point',(-17.0037301154,-0.111815018703,9.96528636218)) ;
#116=CARTESIAN_POINT('Control Point',(-16.991787625,-0.558322355675,10.1373681943)) ;
#117=CARTESIAN_POINT('Control Point',(-16.9864329411,-0.696904178754,10.218512412)) ;
#118=CARTESIAN_POINT('Control Point',(-16.9693138358,-1.05400830684,10.5140811572)) ;
#119=CARTESIAN_POINT('Control Point',(-16.9541745005,-1.25106652492,10.9502144363)) ;
#120=CARTESIAN_POINT('Control Point',(-16.9510024981,-1.28640189559,11.2689122241)) ;
#121=CARTESIAN_POINT('Control Point',(-16.9565762487,-1.22282211401,11.5761666805)) ;
#122=CARTESIAN_POINT('Control Point',(-16.96572384,-1.07898775984,11.8394536997)) ;
#125=CARTESIAN_POINT('Control Point',(-5.92759735594,1.07898775984,10.6605463003)) ;
#126=CARTESIAN_POINT('Control Point',(-5.9550347064,0.928256146252,10.3846339323)) ;
#127=CARTESIAN_POINT('Control Point',(-5.99349110473,0.68979222565,10.1577457409)) ;
#128=CARTESIAN_POINT('Control Point',(-6.02688458751,0.38333732492,10.0150613422)) ;
#129=CARTESIAN_POINT('Control Point',(-6.03557158541,-0.112427249271,9.96515596482)) ;
#130=CARTESIAN_POINT('Control Point',(-6.00172580593,-0.559147042998,10.1377784912)) ;
#131=CARTESIAN_POINT('Control Point',(-5.98656830357,-0.697448248896,10.2189826752)) ;
#132=CARTESIAN_POINT('Control Point',(-5.93804459924,-1.05342454978,10.5137679041)) ;
#133=CARTESIAN_POINT('Control Point',(-5.89468267238,-1.25048253507,10.9487521009)) ;
#134=CARTESIAN_POINT('Control Point',(-5.88531585858,-1.28658276398,11.2691376007)) ;
#135=CARTESIAN_POINT('Control Point',(-5.9014536908,-1.22261229952,11.5765507433)) ;
#136=CARTESIAN_POINT('Control Point',(-5.92759735594,-1.07898775984,11.8394536997)) ;
#145=CARTESIAN_POINT('Axis2P3D Location',(0.,0.,11.25)) ;
#150=CARTESIAN_POINT('Line Origine',(12.,12.0415945788,11.25)) ;
#154=CARTESIAN_POINT('Vertex',(12.,12.0415945788,0.)) ;
#156=CARTESIAN_POINT('Vertex',(12.,12.0415945788,22.5)) ;
#159=CARTESIAN_POINT('Axis2P3D Location',(0.,0.,0.)) ;
#163=CARTESIAN_POINT('Vertex',(12.,-12.0415945788,0.)) ;
#166=CARTESIAN_POINT('Line Origine',(12.,-12.0415945788,11.25)) ;
#170=CARTESIAN_POINT('Vertex',(12.,-12.0415945788,22.5)) ;
#173=CARTESIAN_POINT('Axis2P3D Location',(0.,0.,22.5)) ;
#189=CARTESIAN_POINT('Axis2P3D Location',(0.,0.,0.)) ;
#194=CARTESIAN_POINT('Line Origine',(12.,0.,0.)) ;
#203=CARTESIAN_POINT('Axis2P3D Location',(0.,0.,0.)) ;
#207=CARTESIAN_POINT('Vertex',(0.,6.025,0.)) ;
#209=CARTESIAN_POINT('Vertex',(-7.37849696486E-016,-6.025,0.)) ;
#212=CARTESIAN_POINT('Axis2P3D Location',(0.,0.,0.)) ;
#222=CARTESIAN_POINT('Axis2P3D Location',(0.,0.,22.5)) ;
#227=CARTESIAN_POINT('Line Origine',(12.,0.,22.5)) ;
#236=CARTESIAN_POINT('Axis2P3D Location',(0.,0.,22.5)) ;
#240=CARTESIAN_POINT('Vertex',(-7.37849696486E-016,-6.025,22.5)) ;
#242=CARTESIAN_POINT('Vertex',(0.,6.025,22.5)) ;
#245=CARTESIAN_POINT('Axis2P3D Location',(0.,0.,22.5)) ;
#255=CARTESIAN_POINT('Axis2P3D Location',(12.,-12.0415945788,0.)) ;
#267=CARTESIAN_POINT('Axis2P3D Location',(0.,0.,11.25)) ;
#272=CARTESIAN_POINT('Line Origine',(-7.37849696486E-016,-6.025,11.25)) ;
#277=CARTESIAN_POINT('Line Origine',(0.,6.025,11.25)) ;
#53=DIRECTION('Axis2P3D Direction',(-1.,0.,-0.)) ;
#54=DIRECTION('Axis2P3D XDirection',(0.,0.87758256189,-0.479425538604)) ;
#58=DIRECTION('Vector Direction',(-1.,0.,0.)) ;
#83=DIRECTION('Vector Direction',(-1.,0.,0.)) ;
#146=DIRECTION('Axis2P3D Direction',(0.,-0.,1.)) ;
#147=DIRECTION('Axis2P3D XDirection',(0.705882352941,0.70832909287,0.)) ;
#151=DIRECTION('Vector Direction',(0.,0.,1.)) ;
#160=DIRECTION('Axis2P3D Direction',(0.,-0.,1.)) ;
#167=DIRECTION('Vector Direction',(0.,0.,1.)) ;
#174=DIRECTION('Axis2P3D Direction',(0.,-0.,1.)) ;
#190=DIRECTION('Axis2P3D Direction',(0.,-0.,1.)) ;
#191=DIRECTION('Axis2P3D XDirection',(0.,1.,0.)) ;
#195=DIRECTION('Vector Direction',(0.,1.,0.)) ;
#204=DIRECTION('Axis2P3D Direction',(0.,-0.,1.)) ;
#213=DIRECTION('Axis2P3D Direction',(0.,-0.,1.)) ;
#223=DIRECTION('Axis2P3D Direction',(0.,-0.,1.)) ;
#224=DIRECTION('Axis2P3D XDirection',(0.,1.,0.)) ;
#228=DIRECTION('Vector Direction',(0.,1.,0.)) ;
#237=DIRECTION('Axis2P3D Direction',(0.,-0.,1.)) ;
#246=DIRECTION('Axis2P3D Direction',(0.,-0.,1.)) ;
#256=DIRECTION('Axis2P3D Direction',(1.,0.,0.)) ;
#257=DIRECTION('Axis2P3D XDirection',(0.,1.,0.)) ;
#268=DIRECTION('Axis2P3D Direction',(0.,-0.,1.)) ;
#269=DIRECTION('Axis2P3D XDirection',(0.,1.,0.)) ;
#273=DIRECTION('Vector Direction',(0.,0.,1.)) ;
#278=DIRECTION('Vector Direction',(0.,0.,1.)) ;
#48=AXIS2_PLACEMENT_3D(' ',#47,$,$) ;
#55=AXIS2_PLACEMENT_3D('Cylinder Axis2P3D',#52,#53,#54) ;
#148=AXIS2_PLACEMENT_3D('Cylinder Axis2P3D',#145,#146,#147) ;
#161=AXIS2_PLACEMENT_3D('Circle Axis2P3D',#159,#160,$) ;
#175=AXIS2_PLACEMENT_3D('Circle Axis2P3D',#173,#174,$) ;
#192=AXIS2_PLACEMENT_3D('Plane Axis2P3D',#189,#190,#191) ;
#205=AXIS2_PLACEMENT_3D('Circle Axis2P3D',#203,#204,$) ;
#214=AXIS2_PLACEMENT_3D('Circle Axis2P3D',#212,#213,$) ;
#225=AXIS2_PLACEMENT_3D('Plane Axis2P3D',#222,#223,#224) ;
#238=AXIS2_PLACEMENT_3D('Circle Axis2P3D',#236,#237,$) ;
#247=AXIS2_PLACEMENT_3D('Circle Axis2P3D',#245,#246,$) ;
#258=AXIS2_PLACEMENT_3D('Plane Axis2P3D',#255,#256,#257) ;
#270=AXIS2_PLACEMENT_3D('Cylinder Axis2P3D',#267,#268,#269) ;
#40=PRODUCT_DEFINITION_SHAPE(' ',' ',#14) ;
#31=APPROVAL_PERSON_ORGANIZATION(#25,#21,#19) ;
#25=PERSON_AND_ORGANIZATION(#22,#23) ;
#22=PERSON(' ',' ',' ',$,$,$) ;
#23=ORGANIZATION(' ',' ',' ') ;
#21=APPROVAL(#20,' ') ;
#20=APPROVAL_STATUS('not_yet_approved') ;
#19=APPROVAL_ROLE('APPROVER') ;
#13=DATE_AND_TIME(#11,#12) ;
#12=LOCAL_TIME(17,43,21.,#10) ;
#10=COORDINATED_UNIVERSAL_TIME_OFFSET(0,0,.AHEAD.) ;
#104=ORIENTED_EDGE('',*,*,#65,.F.) ;
#105=ORIENTED_EDGE('',*,*,#81,.T.) ;
#106=ORIENTED_EDGE('',*,*,#88,.T.) ;
#107=ORIENTED_EDGE('',*,*,#102,.F.) ;
#139=ORIENTED_EDGE('',*,*,#88,.F.) ;
#140=ORIENTED_EDGE('',*,*,#123,.T.) ;
#141=ORIENTED_EDGE('',*,*,#65,.T.) ;
#142=ORIENTED_EDGE('',*,*,#137,.F.) ;
#179=ORIENTED_EDGE('',*,*,#158,.F.) ;
#180=ORIENTED_EDGE('',*,*,#165,.T.) ;
#181=ORIENTED_EDGE('',*,*,#172,.T.) ;
#182=ORIENTED_EDGE('',*,*,#177,.F.) ;
#185=ORIENTED_EDGE('',*,*,#123,.F.) ;
#186=ORIENTED_EDGE('',*,*,#81,.F.) ;
#200=ORIENTED_EDGE('',*,*,#165,.F.) ;
#201=ORIENTED_EDGE('',*,*,#198,.F.) ;
#218=ORIENTED_EDGE('',*,*,#211,.T.) ;
#219=ORIENTED_EDGE('',*,*,#216,.T.) ;
#233=ORIENTED_EDGE('',*,*,#231,.T.) ;
#234=ORIENTED_EDGE('',*,*,#177,.T.) ;
#251=ORIENTED_EDGE('',*,*,#244,.F.) ;
#252=ORIENTED_EDGE('',*,*,#249,.F.) ;
#261=ORIENTED_EDGE('',*,*,#172,.F.) ;
#262=ORIENTED_EDGE('',*,*,#198,.T.) ;
#263=ORIENTED_EDGE('',*,*,#158,.T.) ;
#264=ORIENTED_EDGE('',*,*,#231,.F.) ;
#283=ORIENTED_EDGE('',*,*,#249,.T.) ;
#284=ORIENTED_EDGE('',*,*,#276,.F.) ;
#285=ORIENTED_EDGE('',*,*,#211,.F.) ;
#286=ORIENTED_EDGE('',*,*,#281,.T.) ;
#289=ORIENTED_EDGE('',*,*,#102,.T.) ;
#290=ORIENTED_EDGE('',*,*,#137,.T.) ;
#294=ORIENTED_EDGE('',*,*,#244,.T.) ;
#295=ORIENTED_EDGE('',*,*,#281,.F.) ;
#296=ORIENTED_EDGE('',*,*,#216,.F.) ;
#297=ORIENTED_EDGE('',*,*,#276,.T.) ;
#187=FACE_BOUND('',#184,.T.) ;
#220=FACE_BOUND('',#217,.T.) ;
#253=FACE_BOUND('',#250,.T.) ;
#291=FACE_BOUND('',#288,.T.) ;
#51=CLOSED_SHELL('Closed Shell',(#109,#144,#188,#221,#254,#266,#292,#299)) ;
#59=VECTOR('Line Direction',#58,1.) ;
#84=VECTOR('Line Direction',#83,1.) ;
#152=VECTOR('Line Direction',#151,1.) ;
#168=VECTOR('Line Direction',#167,1.) ;
#196=VECTOR('Line Direction',#195,1.) ;
#229=VECTOR('Line Direction',#228,1.) ;
#274=VECTOR('Line Direction',#273,1.) ;
#279=VECTOR('Line Direction',#278,1.) ;
#301=ADVANCED_BREP_SHAPE_REPRESENTATION('NONE',(#300),#46) ;
#49=SHAPE_REPRESENTATION(' ',(#48),#46) ;
#109=ADVANCED_FACE('Corps principal',(#108),#56,.F.) ;
#144=ADVANCED_FACE('Corps principal',(#143),#56,.F.) ;
#188=ADVANCED_FACE('Corps principal',(#183,#187),#149,.T.) ;
#221=ADVANCED_FACE('Corps principal',(#202,#220),#193,.F.) ;
#254=ADVANCED_FACE('Corps principal',(#235,#253),#226,.T.) ;
#266=ADVANCED_FACE('Corps principal',(#265),#259,.T.) ;
#292=ADVANCED_FACE('Corps principal',(#287,#291),#271,.F.) ;
#299=ADVANCED_FACE('Corps principal',(#298),#271,.F.) ;
#4=APPLICATION_PROTOCOL_DEFINITION('international standard','config_control_design',1994,#1) ;
#32=APPROVAL_DATE_TIME(#13,#21) ;
#66=B_SPLINE_CURVE_WITH_KNOTS('',5,(#67,#68,#69,#70,#71,#72,#73,#74,#75,#76,#77,#78),.UNSPECIFIED.,.F.,.U.,(6,3,3,6),(0.,2.22544313317,3.34175999445,5.46416493242),.UNSPECIFIED.) ;
#89=B_SPLINE_CURVE_WITH_KNOTS('',5,(#90,#91,#92,#93,#94,#95,#96,#97,#98,#99,#100,#101),.UNSPECIFIED.,.F.,.U.,(6,3,3,6),(0.,2.23159653974,3.35045194881,5.47682755182),.UNSPECIFIED.) ;
#110=B_SPLINE_CURVE_WITH_KNOTS('',5,(#111,#112,#113,#114,#115,#116,#117,#118,#119,#120,#121,#122),.UNSPECIFIED.,.F.,.U.,(6,3,3,6),(0.,2.22544313297,3.34175999427,5.4641649318),.UNSPECIFIED.) ;
#124=B_SPLINE_CURVE_WITH_KNOTS('',5,(#125,#126,#127,#128,#129,#130,#131,#132,#133,#134,#135,#136),.UNSPECIFIED.,.F.,.U.,(6,3,3,6),(0.,2.23159653977,3.35045194886,5.47682755196),.UNSPECIFIED.) ;
#300=MANIFOLD_SOLID_BREP('Corps principal',#51) ;
#11=CALENDAR_DATE(2021,26,7) ;
#30=CC_DESIGN_APPROVAL(#21,(#16,#6,#14)) ;
#18=CC_DESIGN_DATE_AND_TIME_ASSIGNMENT(#13,#17,(#16)) ;
#29=CC_DESIGN_DATE_AND_TIME_ASSIGNMENT(#13,#28,(#14)) ;
#17=DATE_TIME_ROLE('classification_date') ;
#28=DATE_TIME_ROLE('creation_date') ;
#27=CC_DESIGN_PERSON_AND_ORGANIZATION_ASSIGNMENT(#25,#26,(#16)) ;
#33=CC_DESIGN_PERSON_AND_ORGANIZATION_ASSIGNMENT(#25,#34,(#6)) ;
#35=CC_DESIGN_PERSON_AND_ORGANIZATION_ASSIGNMENT(#25,#36,(#6,#14)) ;
#37=CC_DESIGN_PERSON_AND_ORGANIZATION_ASSIGNMENT(#25,#38,(#5)) ;
#26=PERSON_AND_ORGANIZATION_ROLE('classification_officer') ;
#34=PERSON_AND_ORGANIZATION_ROLE('design_supplier') ;
#36=PERSON_AND_ORGANIZATION_ROLE('creator') ;
#38=PERSON_AND_ORGANIZATION_ROLE('design_owner') ;
#39=CC_DESIGN_SECURITY_CLASSIFICATION(#16,(#6)) ;
#162=CIRCLE('generated circle',#161,17.) ;
#176=CIRCLE('generated circle',#175,17.) ;
#206=CIRCLE('generated circle',#205,6.025) ;
#215=CIRCLE('generated circle',#214,6.025) ;
#239=CIRCLE('generated circle',#238,6.025) ;
#248=CIRCLE('generated circle',#247,6.025) ;
#302=SHAPE_REPRESENTATION_RELATIONSHIP(' ',' ',#49,#301) ;
#56=CYLINDRICAL_SURFACE('generated cylinder',#55,1.2295) ;
#149=CYLINDRICAL_SURFACE('generated cylinder',#148,17.) ;
#271=CYLINDRICAL_SURFACE('generated cylinder',#270,6.025) ;
#3=DESIGN_CONTEXT(' ',#1,'design') ;
#65=EDGE_CURVE('',#62,#64,#60,.F.) ;
#81=EDGE_CURVE('',#62,#80,#66,.T.) ;
#88=EDGE_CURVE('',#80,#87,#85,.F.) ;
#102=EDGE_CURVE('',#64,#87,#89,.T.) ;
#123=EDGE_CURVE('',#80,#62,#110,.T.) ;
#137=EDGE_CURVE('',#87,#64,#124,.T.) ;
#158=EDGE_CURVE('',#155,#157,#153,.T.) ;
#165=EDGE_CURVE('',#155,#164,#162,.T.) ;
#172=EDGE_CURVE('',#164,#171,#169,.T.) ;
#177=EDGE_CURVE('',#157,#171,#176,.T.) ;
#198=EDGE_CURVE('',#164,#155,#197,.T.) ;
#211=EDGE_CURVE('',#208,#210,#206,.T.) ;
#216=EDGE_CURVE('',#210,#208,#215,.T.) ;
#231=EDGE_CURVE('',#171,#157,#230,.T.) ;
#244=EDGE_CURVE('',#241,#243,#239,.T.) ;
#249=EDGE_CURVE('',#243,#241,#248,.T.) ;
#276=EDGE_CURVE('',#210,#241,#275,.T.) ;
#281=EDGE_CURVE('',#208,#243,#280,.T.) ;
#103=EDGE_LOOP('',(#104,#105,#106,#107)) ;
#138=EDGE_LOOP('',(#139,#140,#141,#142)) ;
#178=EDGE_LOOP('',(#179,#180,#181,#182)) ;
#184=EDGE_LOOP('',(#185,#186)) ;
#199=EDGE_LOOP('',(#200,#201)) ;
#217=EDGE_LOOP('',(#218,#219)) ;
#232=EDGE_LOOP('',(#233,#234)) ;
#250=EDGE_LOOP('',(#251,#252)) ;
#260=EDGE_LOOP('',(#261,#262,#263,#264)) ;
#282=EDGE_LOOP('',(#283,#284,#285,#286)) ;
#288=EDGE_LOOP('',(#289,#290)) ;
#293=EDGE_LOOP('',(#294,#295,#296,#297)) ;
#108=FACE_OUTER_BOUND('',#103,.T.) ;
#143=FACE_OUTER_BOUND('',#138,.T.) ;
#183=FACE_OUTER_BOUND('',#178,.T.) ;
#202=FACE_OUTER_BOUND('',#199,.T.) ;
#235=FACE_OUTER_BOUND('',#232,.T.) ;
#265=FACE_OUTER_BOUND('',#260,.T.) ;
#287=FACE_OUTER_BOUND('',#282,.T.) ;
#298=FACE_OUTER_BOUND('',#293,.T.) ;
#45=UNCERTAINTY_MEASURE_WITH_UNIT(LENGTH_MEASURE(0.005),#41,'distance_accuracy_value','CONFUSED CURVE UNCERTAINTY') ;
#60=LINE('Line',#57,#59) ;
#85=LINE('Line',#82,#84) ;
#153=LINE('Line',#150,#152) ;
#169=LINE('Line',#166,#168) ;
#197=LINE('Line',#194,#196) ;
#230=LINE('Line',#227,#229) ;
#275=LINE('Line',#272,#274) ;
#280=LINE('Line',#277,#279) ;
#2=MECHANICAL_CONTEXT(' ',#1,'mechanical') ;
#24=PERSONAL_ADDRESS(' ',' ',' ',' ',' ',' ',' ',' ',' ',' ',' ',' ',(#22),' ') ;
#193=PLANE('Plane',#192) ;
#226=PLANE('Plane',#225) ;
#259=PLANE('Plane',#258) ;
#43=PLANE_ANGLE_MEASURE_WITH_UNIT(PLANE_ANGLE_MEASURE(0.0174532925199),#42) ;
#7=PRODUCT_CATEGORY('part',$) ;
#9=PRODUCT_CATEGORY_RELATIONSHIP(' ',' ',#7,#8) ;
#6=PRODUCT_DEFINITION_FORMATION_WITH_SPECIFIED_SOURCE('',' ',#5,.NOT_KNOWN.) ;
#8=PRODUCT_RELATED_PRODUCT_CATEGORY('detail',$,(#5)) ;
#50=SHAPE_DEFINITION_REPRESENTATION(#40,#49) ;
#62=VERTEX_POINT('',#61) ;
#64=VERTEX_POINT('',#63) ;
#80=VERTEX_POINT('',#79) ;
#87=VERTEX_POINT('',#86) ;
#155=VERTEX_POINT('',#154) ;
#157=VERTEX_POINT('',#156) ;
#164=VERTEX_POINT('',#163) ;
#171=VERTEX_POINT('',#170) ;
#208=VERTEX_POINT('',#207) ;
#210=VERTEX_POINT('',#209) ;
#241=VERTEX_POINT('',#240) ;
#243=VERTEX_POINT('',#242) ;
#41=(LENGTH_UNIT()NAMED_UNIT(*)SI_UNIT(.MILLI.,.METRE.)) ;
#42=(NAMED_UNIT(*)PLANE_ANGLE_UNIT()SI_UNIT($,.RADIAN.)) ;
#44=(NAMED_UNIT(*)SI_UNIT($,.STERADIAN.)SOLID_ANGLE_UNIT()) ;
#46=(GEOMETRIC_REPRESENTATION_CONTEXT(3)GLOBAL_UNCERTAINTY_ASSIGNED_CONTEXT((#45))GLOBAL_UNIT_ASSIGNED_CONTEXT((#41,#42,#44))REPRESENTATION_CONTEXT(' ',' ')) ;
ENDSEC;
END-ISO-10303-21;
