ISO-10303-21;
HEADER;
FILE_DESCRIPTION(('CATIA V5 STEP Exchange'),'2;1');

FILE_NAME('C:\\Users\\Valy\\Downloads\\porte cellule.stp','2021-07-26T16:00:21+00:00',('none'),('none'),'CATIA Version 5 Release 20 GA (IN-10)','CATIA V5 STEP AP203','none');

FILE_SCHEMA(('CONFIG_CONTROL_DESIGN'));

ENDSEC;
/* file written by CATIA V5R20 */
DATA;
#5=PRODUCT('porte cellule','','',(#2)) ;
#1=APPLICATION_CONTEXT('configuration controlled 3D design of mechanical parts and assemblies') ;
#14=PRODUCT_DEFINITION('',' ',#6,#3) ;
#16=SECURITY_CLASSIFICATION(' ',' ',#15) ;
#15=SECURITY_CLASSIFICATION_LEVEL('unclassified') ;
#47=CARTESIAN_POINT(' ',(0.,0.,0.)) ;
#52=CARTESIAN_POINT('Axis2P3D Location',(-6.25,3.25,0.1)) ;
#57=CARTESIAN_POINT('Line Origine',(-7.34697820236,2.65071807674,2.)) ;
#61=CARTESIAN_POINT('Vertex',(-7.34697820236,2.65071807674,4.)) ;
#63=CARTESIAN_POINT('Vertex',(-7.34697820236,2.65071807674,-8.32667268469E-017)) ;
#66=CARTESIAN_POINT('Axis2P3D Location',(-6.25,3.25,4.)) ;
#70=CARTESIAN_POINT('Vertex',(-5.15302179764,3.84928192326,4.)) ;
#73=CARTESIAN_POINT('Line Origine',(-5.15302179764,3.84928192326,2.)) ;
#77=CARTESIAN_POINT('Vertex',(-5.15302179764,3.84928192326,-8.32667268469E-017)) ;
#80=CARTESIAN_POINT('Axis2P3D Location',(-6.25,3.25,0.)) ;
#92=CARTESIAN_POINT('Axis2P3D Location',(-6.25,3.25,4.)) ;
#97=CARTESIAN_POINT('Axis2P3D Location',(-6.25,3.25,0.)) ;
#109=CARTESIAN_POINT('Axis2P3D Location',(0.,19.,0.)) ;
#114=CARTESIAN_POINT('Line Origine',(0.,19.,1.5)) ;
#118=CARTESIAN_POINT('Vertex',(0.,19.,0.)) ;
#120=CARTESIAN_POINT('Vertex',(0.,19.,3.)) ;
#123=CARTESIAN_POINT('Line Origine',(-4.,19.,0.)) ;
#127=CARTESIAN_POINT('Vertex',(-8.,19.,0.)) ;
#130=CARTESIAN_POINT('Line Origine',(-8.,19.,1.)) ;
#134=CARTESIAN_POINT('Vertex',(-8.,19.,2.)) ;
#137=CARTESIAN_POINT('Line Origine',(-11.5,19.,2.)) ;
#141=CARTESIAN_POINT('Vertex',(-15.,19.,2.)) ;
#144=CARTESIAN_POINT('Line Origine',(-15.,19.,2.5)) ;
#148=CARTESIAN_POINT('Vertex',(-15.,19.,3.)) ;
#151=CARTESIAN_POINT('Line Origine',(-14.5,19.,3.5)) ;
#155=CARTESIAN_POINT('Vertex',(-14.,19.,4.)) ;
#158=CARTESIAN_POINT('Line Origine',(-7.5,19.,4.)) ;
#162=CARTESIAN_POINT('Vertex',(-1.,19.,4.)) ;
#165=CARTESIAN_POINT('Line Origine',(-0.5,19.,3.5)) ;
#181=CARTESIAN_POINT('Axis2P3D Location',(-15.,-3.8,3.)) ;
#186=CARTESIAN_POINT('Line Origine',(-14.,9.5,4.)) ;
#190=CARTESIAN_POINT('Vertex',(-14.,0.,4.)) ;
#193=CARTESIAN_POINT('Line Origine',(-15.,9.5,3.)) ;
#197=CARTESIAN_POINT('Vertex',(-15.,0.,3.)) ;
#200=CARTESIAN_POINT('Line Origine',(-14.5,2.22044604925E-016,3.5)) ;
#212=CARTESIAN_POINT('Axis2P3D Location',(-15.,0.,0.)) ;
#217=CARTESIAN_POINT('Line Origine',(-7.5,0.,4.)) ;
#221=CARTESIAN_POINT('Vertex',(-1.,0.,4.)) ;
#224=CARTESIAN_POINT('Line Origine',(-15.,0.,2.5)) ;
#228=CARTESIAN_POINT('Vertex',(-15.,0.,2.)) ;
#231=CARTESIAN_POINT('Line Origine',(-11.5,0.,2.)) ;
#235=CARTESIAN_POINT('Vertex',(-8.,0.,2.)) ;
#238=CARTESIAN_POINT('Line Origine',(-8.,0.,1.)) ;
#242=CARTESIAN_POINT('Vertex',(-8.,0.,-2.22044604925E-016)) ;
#245=CARTESIAN_POINT('Line Origine',(-4.,0.,0.)) ;
#249=CARTESIAN_POINT('Vertex',(0.,0.,0.)) ;
#252=CARTESIAN_POINT('Line Origine',(0.,0.,1.5)) ;
#256=CARTESIAN_POINT('Vertex',(0.,0.,3.)) ;
#259=CARTESIAN_POINT('Line Origine',(-0.5,0.,3.5)) ;
#275=CARTESIAN_POINT('Axis2P3D Location',(0.,22.8,3.)) ;
#280=CARTESIAN_POINT('Line Origine',(-1.,9.5,4.)) ;
#285=CARTESIAN_POINT('Line Origine',(0.,9.5,3.)) ;
#297=CARTESIAN_POINT('Axis2P3D Location',(-19.8991146088,0.,2.)) ;
#302=CARTESIAN_POINT('Line Origine',(-3.5,14.,2.)) ;
#306=CARTESIAN_POINT('Vertex',(0.,14.,2.)) ;
#308=CARTESIAN_POINT('Vertex',(-7.,14.,2.)) ;
#311=CARTESIAN_POINT('Line Origine',(0.,9.5,2.)) ;
#315=CARTESIAN_POINT('Vertex',(0.,5.,2.)) ;
#318=CARTESIAN_POINT('Line Origine',(-3.5,5.,2.)) ;
#322=CARTESIAN_POINT('Vertex',(-7.,5.,2.)) ;
#325=CARTESIAN_POINT('Line Origine',(-7.5,4.5,2.)) ;
#329=CARTESIAN_POINT('Vertex',(-8.,4.,2.)) ;
#332=CARTESIAN_POINT('Line Origine',(-8.,2.,2.)) ;
#337=CARTESIAN_POINT('Line Origine',(-15.,9.5,2.)) ;
#342=CARTESIAN_POINT('Line Origine',(-8.,17.,2.)) ;
#346=CARTESIAN_POINT('Vertex',(-8.,15.,2.)) ;
#349=CARTESIAN_POINT('Line Origine',(-7.5,14.5,2.)) ;
#367=CARTESIAN_POINT('Axis2P3D Location',(-15.,19.,0.)) ;
#379=CARTESIAN_POINT('Axis2P3D Location',(-8.,0.,-0.541996002197)) ;
#384=CARTESIAN_POINT('Line Origine',(-8.,2.,-2.22044604925E-016)) ;
#388=CARTESIAN_POINT('Vertex',(-8.,4.,-2.22044604925E-016)) ;
#391=CARTESIAN_POINT('Line Origine',(-8.,4.,1.)) ;
#403=CARTESIAN_POINT('Axis2P3D Location',(0.,14.,2.)) ;
#408=CARTESIAN_POINT('Line Origine',(-7.,14.,1.)) ;
#412=CARTESIAN_POINT('Vertex',(-7.,14.,-4.4408920985E-016)) ;
#415=CARTESIAN_POINT('Line Origine',(-3.5,14.,-4.4408920985E-016)) ;
#419=CARTESIAN_POINT('Vertex',(0.,14.,-4.4408920985E-016)) ;
#422=CARTESIAN_POINT('Line Origine',(0.,14.,1.)) ;
#434=CARTESIAN_POINT('Axis2P3D Location',(0.,5.,-2.50892829895)) ;
#439=CARTESIAN_POINT('Line Origine',(-7.,5.,1.)) ;
#443=CARTESIAN_POINT('Vertex',(-7.,5.,4.4408920985E-016)) ;
#446=CARTESIAN_POINT('Line Origine',(0.,5.,1.)) ;
#450=CARTESIAN_POINT('Vertex',(0.,5.,4.4408920985E-016)) ;
#453=CARTESIAN_POINT('Line Origine',(-3.5,5.,4.4408920985E-016)) ;
#465=CARTESIAN_POINT('Axis2P3D Location',(-7.,5.,2.4)) ;
#470=CARTESIAN_POINT('Line Origine',(-7.5,4.5,-2.22044604925E-016)) ;
#482=CARTESIAN_POINT('Axis2P3D Location',(-8.,15.,2.4)) ;
#487=CARTESIAN_POINT('Line Origine',(-7.5,14.5,6.66133814775E-016)) ;
#491=CARTESIAN_POINT('Vertex',(-8.,15.,-2.22044604925E-016)) ;
#494=CARTESIAN_POINT('Line Origine',(-8.,15.,1.)) ;
#506=CARTESIAN_POINT('Line Origine',(-8.,17.,-2.22044604925E-016)) ;
#518=CARTESIAN_POINT('Axis2P3D Location',(0.,0.,0.)) ;
#523=CARTESIAN_POINT('Line Origine',(0.,16.5,0.)) ;
#528=CARTESIAN_POINT('Line Origine',(0.,2.5,0.)) ;
#544=CARTESIAN_POINT('Axis2P3D Location',(0.,0.,0.)) ;
#568=CARTESIAN_POINT('Axis2P3D Location',(-6.25,15.75,0.)) ;
#572=CARTESIAN_POINT('Vertex',(-5.15302179764,16.3492819233,0.)) ;
#574=CARTESIAN_POINT('Vertex',(-7.34697820236,15.1507180767,0.)) ;
#577=CARTESIAN_POINT('Axis2P3D Location',(-6.25,15.75,0.)) ;
#587=CARTESIAN_POINT('Axis2P3D Location',(0.,0.,4.)) ;
#598=CARTESIAN_POINT('Axis2P3D Location',(-6.25,15.75,4.)) ;
#602=CARTESIAN_POINT('Vertex',(-7.34697820236,15.1507180767,4.)) ;
#604=CARTESIAN_POINT('Vertex',(-5.15302179764,16.3492819233,4.)) ;
#607=CARTESIAN_POINT('Axis2P3D Location',(-6.25,15.75,4.)) ;
#621=CARTESIAN_POINT('Axis2P3D Location',(-6.25,15.75,0.1)) ;
#626=CARTESIAN_POINT('Line Origine',(-7.34697820236,15.1507180767,2.)) ;
#631=CARTESIAN_POINT('Line Origine',(-5.15302179764,16.3492819233,2.)) ;
#53=DIRECTION('Axis2P3D Direction',(0.,-0.,1.)) ;
#54=DIRECTION('Axis2P3D XDirection',(0.87758256189,0.479425538604,0.)) ;
#58=DIRECTION('Vector Direction',(0.,0.,1.)) ;
#67=DIRECTION('Axis2P3D Direction',(0.,-0.,1.)) ;
#74=DIRECTION('Vector Direction',(0.,0.,1.)) ;
#81=DIRECTION('Axis2P3D Direction',(0.,-0.,1.)) ;
#93=DIRECTION('Axis2P3D Direction',(0.,-0.,1.)) ;
#98=DIRECTION('Axis2P3D Direction',(0.,-0.,1.)) ;
#110=DIRECTION('Axis2P3D Direction',(0.,1.,-0.)) ;
#111=DIRECTION('Axis2P3D XDirection',(-1.,0.,0.)) ;
#115=DIRECTION('Vector Direction',(0.,0.,1.)) ;
#124=DIRECTION('Vector Direction',(-1.,0.,0.)) ;
#131=DIRECTION('Vector Direction',(0.,0.,-1.)) ;
#138=DIRECTION('Vector Direction',(-1.,0.,0.)) ;
#145=DIRECTION('Vector Direction',(0.,0.,1.)) ;
#152=DIRECTION('Vector Direction',(-0.707106781187,0.,-0.707106781187)) ;
#159=DIRECTION('Vector Direction',(-1.,0.,0.)) ;
#166=DIRECTION('Vector Direction',(-0.707106781187,0.,0.707106781187)) ;
#182=DIRECTION('Axis2P3D Direction',(0.707106781187,0.,-0.707106781187)) ;
#183=DIRECTION('Axis2P3D XDirection',(0.,1.,0.)) ;
#187=DIRECTION('Vector Direction',(0.,1.,0.)) ;
#194=DIRECTION('Vector Direction',(0.,1.,0.)) ;
#201=DIRECTION('Vector Direction',(0.707106781187,3.14018491737E-016,0.707106781187)) ;
#213=DIRECTION('Axis2P3D Direction',(0.,-1.,0.)) ;
#214=DIRECTION('Axis2P3D XDirection',(1.,0.,0.)) ;
#218=DIRECTION('Vector Direction',(1.,0.,0.)) ;
#225=DIRECTION('Vector Direction',(0.,0.,1.)) ;
#232=DIRECTION('Vector Direction',(1.,0.,0.)) ;
#239=DIRECTION('Vector Direction',(0.,0.,1.)) ;
#246=DIRECTION('Vector Direction',(1.,0.,0.)) ;
#253=DIRECTION('Vector Direction',(0.,0.,1.)) ;
#260=DIRECTION('Vector Direction',(0.707106781187,0.,-0.707106781187)) ;
#276=DIRECTION('Axis2P3D Direction',(-0.707106781187,-0.,-0.707106781187)) ;
#277=DIRECTION('Axis2P3D XDirection',(0.,-1.,0.)) ;
#281=DIRECTION('Vector Direction',(0.,-1.,0.)) ;
#286=DIRECTION('Vector Direction',(0.,-1.,0.)) ;
#298=DIRECTION('Axis2P3D Direction',(0.,0.,1.)) ;
#299=DIRECTION('Axis2P3D XDirection',(1.,0.,0.)) ;
#303=DIRECTION('Vector Direction',(-1.,0.,0.)) ;
#312=DIRECTION('Vector Direction',(0.,-1.,0.)) ;
#319=DIRECTION('Vector Direction',(-1.,0.,0.)) ;
#326=DIRECTION('Vector Direction',(0.707106781187,0.707106781187,0.)) ;
#333=DIRECTION('Vector Direction',(0.,1.,0.)) ;
#338=DIRECTION('Vector Direction',(0.,1.,0.)) ;
#343=DIRECTION('Vector Direction',(0.,1.,0.)) ;
#350=DIRECTION('Vector Direction',(-0.707106781187,0.707106781187,0.)) ;
#368=DIRECTION('Axis2P3D Direction',(-1.,0.,0.)) ;
#369=DIRECTION('Axis2P3D XDirection',(-0.,-1.,0.)) ;
#380=DIRECTION('Axis2P3D Direction',(-1.,0.,0.)) ;
#381=DIRECTION('Axis2P3D XDirection',(0.,0.,1.)) ;
#385=DIRECTION('Vector Direction',(0.,1.,0.)) ;
#392=DIRECTION('Vector Direction',(0.,0.,-1.)) ;
#404=DIRECTION('Axis2P3D Direction',(0.,1.,0.)) ;
#405=DIRECTION('Axis2P3D XDirection',(0.,-0.,-1.)) ;
#409=DIRECTION('Vector Direction',(0.,0.,-1.)) ;
#416=DIRECTION('Vector Direction',(-1.,0.,0.)) ;
#423=DIRECTION('Vector Direction',(0.,0.,-1.)) ;
#435=DIRECTION('Axis2P3D Direction',(0.,-1.,0.)) ;
#436=DIRECTION('Axis2P3D XDirection',(0.,0.,1.)) ;
#440=DIRECTION('Vector Direction',(0.,0.,-1.)) ;
#447=DIRECTION('Vector Direction',(0.,0.,1.)) ;
#454=DIRECTION('Vector Direction',(-1.,0.,0.)) ;
#466=DIRECTION('Axis2P3D Direction',(-0.707106781187,0.707106781187,0.)) ;
#467=DIRECTION('Axis2P3D XDirection',(0.,0.,-1.)) ;
#471=DIRECTION('Vector Direction',(-0.707106781187,-0.707106781187,-9.4205547521E-016)) ;
#483=DIRECTION('Axis2P3D Direction',(-0.707106781187,-0.707106781187,-0.)) ;
#484=DIRECTION('Axis2P3D XDirection',(0.,0.,-1.)) ;
#488=DIRECTION('Vector Direction',(0.707106781187,-0.707106781187,3.14018491737E-016)) ;
#495=DIRECTION('Vector Direction',(0.,0.,-1.)) ;
#507=DIRECTION('Vector Direction',(0.,1.,0.)) ;
#519=DIRECTION('Axis2P3D Direction',(1.,0.,0.)) ;
#520=DIRECTION('Axis2P3D XDirection',(0.,1.,0.)) ;
#524=DIRECTION('Vector Direction',(0.,1.,0.)) ;
#529=DIRECTION('Vector Direction',(0.,1.,0.)) ;
#545=DIRECTION('Axis2P3D Direction',(0.,-0.,1.)) ;
#546=DIRECTION('Axis2P3D XDirection',(0.,1.,0.)) ;
#569=DIRECTION('Axis2P3D Direction',(0.,-0.,1.)) ;
#578=DIRECTION('Axis2P3D Direction',(0.,-0.,1.)) ;
#588=DIRECTION('Axis2P3D Direction',(0.,-0.,1.)) ;
#589=DIRECTION('Axis2P3D XDirection',(0.,1.,0.)) ;
#599=DIRECTION('Axis2P3D Direction',(0.,-0.,1.)) ;
#608=DIRECTION('Axis2P3D Direction',(0.,-0.,1.)) ;
#622=DIRECTION('Axis2P3D Direction',(0.,0.,1.)) ;
#623=DIRECTION('Axis2P3D XDirection',(0.87758256189,0.479425538604,0.)) ;
#627=DIRECTION('Vector Direction',(0.,0.,1.)) ;
#632=DIRECTION('Vector Direction',(0.,0.,1.)) ;
#48=AXIS2_PLACEMENT_3D(' ',#47,$,$) ;
#55=AXIS2_PLACEMENT_3D('Cylinder Axis2P3D',#52,#53,#54) ;
#68=AXIS2_PLACEMENT_3D('Circle Axis2P3D',#66,#67,$) ;
#82=AXIS2_PLACEMENT_3D('Circle Axis2P3D',#80,#81,$) ;
#94=AXIS2_PLACEMENT_3D('Circle Axis2P3D',#92,#93,$) ;
#99=AXIS2_PLACEMENT_3D('Circle Axis2P3D',#97,#98,$) ;
#112=AXIS2_PLACEMENT_3D('Plane Axis2P3D',#109,#110,#111) ;
#184=AXIS2_PLACEMENT_3D('Plane Axis2P3D',#181,#182,#183) ;
#215=AXIS2_PLACEMENT_3D('Plane Axis2P3D',#212,#213,#214) ;
#278=AXIS2_PLACEMENT_3D('Plane Axis2P3D',#275,#276,#277) ;
#300=AXIS2_PLACEMENT_3D('Plane Axis2P3D',#297,#298,#299) ;
#370=AXIS2_PLACEMENT_3D('Plane Axis2P3D',#367,#368,#369) ;
#382=AXIS2_PLACEMENT_3D('Plane Axis2P3D',#379,#380,#381) ;
#406=AXIS2_PLACEMENT_3D('Plane Axis2P3D',#403,#404,#405) ;
#437=AXIS2_PLACEMENT_3D('Plane Axis2P3D',#434,#435,#436) ;
#468=AXIS2_PLACEMENT_3D('Plane Axis2P3D',#465,#466,#467) ;
#485=AXIS2_PLACEMENT_3D('Plane Axis2P3D',#482,#483,#484) ;
#521=AXIS2_PLACEMENT_3D('Plane Axis2P3D',#518,#519,#520) ;
#547=AXIS2_PLACEMENT_3D('Plane Axis2P3D',#544,#545,#546) ;
#570=AXIS2_PLACEMENT_3D('Circle Axis2P3D',#568,#569,$) ;
#579=AXIS2_PLACEMENT_3D('Circle Axis2P3D',#577,#578,$) ;
#590=AXIS2_PLACEMENT_3D('Plane Axis2P3D',#587,#588,#589) ;
#600=AXIS2_PLACEMENT_3D('Circle Axis2P3D',#598,#599,$) ;
#609=AXIS2_PLACEMENT_3D('Circle Axis2P3D',#607,#608,$) ;
#624=AXIS2_PLACEMENT_3D('Cylinder Axis2P3D',#621,#622,#623) ;
#40=PRODUCT_DEFINITION_SHAPE(' ',' ',#14) ;
#31=APPROVAL_PERSON_ORGANIZATION(#25,#21,#19) ;
#25=PERSON_AND_ORGANIZATION(#22,#23) ;
#22=PERSON(' ',' ',' ',$,$,$) ;
#23=ORGANIZATION(' ',' ',' ') ;
#21=APPROVAL(#20,' ') ;
#20=APPROVAL_STATUS('not_yet_approved') ;
#19=APPROVAL_ROLE('APPROVER') ;
#13=DATE_AND_TIME(#11,#12) ;
#12=LOCAL_TIME(18,0,21.,#10) ;
#10=COORDINATED_UNIVERSAL_TIME_OFFSET(0,0,.AHEAD.) ;
#86=ORIENTED_EDGE('',*,*,#65,.F.) ;
#87=ORIENTED_EDGE('',*,*,#72,.T.) ;
#88=ORIENTED_EDGE('',*,*,#79,.T.) ;
#89=ORIENTED_EDGE('',*,*,#84,.F.) ;
#103=ORIENTED_EDGE('',*,*,#79,.F.) ;
#104=ORIENTED_EDGE('',*,*,#96,.T.) ;
#105=ORIENTED_EDGE('',*,*,#65,.T.) ;
#106=ORIENTED_EDGE('',*,*,#101,.F.) ;
#171=ORIENTED_EDGE('',*,*,#122,.F.) ;
#172=ORIENTED_EDGE('',*,*,#129,.T.) ;
#173=ORIENTED_EDGE('',*,*,#136,.F.) ;
#174=ORIENTED_EDGE('',*,*,#143,.T.) ;
#175=ORIENTED_EDGE('',*,*,#150,.T.) ;
#176=ORIENTED_EDGE('',*,*,#157,.F.) ;
#177=ORIENTED_EDGE('',*,*,#164,.F.) ;
#178=ORIENTED_EDGE('',*,*,#169,.F.) ;
#206=ORIENTED_EDGE('',*,*,#192,.F.) ;
#207=ORIENTED_EDGE('',*,*,#157,.T.) ;
#208=ORIENTED_EDGE('',*,*,#199,.T.) ;
#209=ORIENTED_EDGE('',*,*,#204,.T.) ;
#265=ORIENTED_EDGE('',*,*,#223,.F.) ;
#266=ORIENTED_EDGE('',*,*,#204,.F.) ;
#267=ORIENTED_EDGE('',*,*,#230,.F.) ;
#268=ORIENTED_EDGE('',*,*,#237,.T.) ;
#269=ORIENTED_EDGE('',*,*,#244,.T.) ;
#270=ORIENTED_EDGE('',*,*,#251,.T.) ;
#271=ORIENTED_EDGE('',*,*,#258,.T.) ;
#272=ORIENTED_EDGE('',*,*,#263,.F.) ;
#291=ORIENTED_EDGE('',*,*,#284,.F.) ;
#292=ORIENTED_EDGE('',*,*,#263,.T.) ;
#293=ORIENTED_EDGE('',*,*,#289,.T.) ;
#294=ORIENTED_EDGE('',*,*,#169,.T.) ;
#355=ORIENTED_EDGE('',*,*,#310,.F.) ;
#356=ORIENTED_EDGE('',*,*,#317,.T.) ;
#357=ORIENTED_EDGE('',*,*,#324,.T.) ;
#358=ORIENTED_EDGE('',*,*,#331,.F.) ;
#359=ORIENTED_EDGE('',*,*,#336,.F.) ;
#360=ORIENTED_EDGE('',*,*,#237,.F.) ;
#361=ORIENTED_EDGE('',*,*,#341,.T.) ;
#362=ORIENTED_EDGE('',*,*,#143,.F.) ;
#363=ORIENTED_EDGE('',*,*,#348,.F.) ;
#364=ORIENTED_EDGE('',*,*,#353,.F.) ;
#373=ORIENTED_EDGE('',*,*,#150,.F.) ;
#374=ORIENTED_EDGE('',*,*,#341,.F.) ;
#375=ORIENTED_EDGE('',*,*,#230,.T.) ;
#376=ORIENTED_EDGE('',*,*,#199,.F.) ;
#397=ORIENTED_EDGE('',*,*,#390,.F.) ;
#398=ORIENTED_EDGE('',*,*,#244,.F.) ;
#399=ORIENTED_EDGE('',*,*,#336,.T.) ;
#400=ORIENTED_EDGE('',*,*,#395,.T.) ;
#428=ORIENTED_EDGE('',*,*,#414,.T.) ;
#429=ORIENTED_EDGE('',*,*,#421,.F.) ;
#430=ORIENTED_EDGE('',*,*,#426,.T.) ;
#431=ORIENTED_EDGE('',*,*,#310,.T.) ;
#459=ORIENTED_EDGE('',*,*,#445,.F.) ;
#460=ORIENTED_EDGE('',*,*,#324,.F.) ;
#461=ORIENTED_EDGE('',*,*,#452,.T.) ;
#462=ORIENTED_EDGE('',*,*,#457,.T.) ;
#476=ORIENTED_EDGE('',*,*,#474,.T.) ;
#477=ORIENTED_EDGE('',*,*,#395,.F.) ;
#478=ORIENTED_EDGE('',*,*,#331,.T.) ;
#479=ORIENTED_EDGE('',*,*,#445,.T.) ;
#500=ORIENTED_EDGE('',*,*,#493,.T.) ;
#501=ORIENTED_EDGE('',*,*,#414,.F.) ;
#502=ORIENTED_EDGE('',*,*,#353,.T.) ;
#503=ORIENTED_EDGE('',*,*,#498,.T.) ;
#512=ORIENTED_EDGE('',*,*,#348,.T.) ;
#513=ORIENTED_EDGE('',*,*,#136,.T.) ;
#514=ORIENTED_EDGE('',*,*,#510,.F.) ;
#515=ORIENTED_EDGE('',*,*,#498,.F.) ;
#534=ORIENTED_EDGE('',*,*,#527,.T.) ;
#535=ORIENTED_EDGE('',*,*,#122,.T.) ;
#536=ORIENTED_EDGE('',*,*,#289,.F.) ;
#537=ORIENTED_EDGE('',*,*,#258,.F.) ;
#538=ORIENTED_EDGE('',*,*,#532,.T.) ;
#539=ORIENTED_EDGE('',*,*,#452,.F.) ;
#540=ORIENTED_EDGE('',*,*,#317,.F.) ;
#541=ORIENTED_EDGE('',*,*,#426,.F.) ;
#550=ORIENTED_EDGE('',*,*,#474,.F.) ;
#551=ORIENTED_EDGE('',*,*,#457,.F.) ;
#552=ORIENTED_EDGE('',*,*,#532,.F.) ;
#553=ORIENTED_EDGE('',*,*,#251,.F.) ;
#554=ORIENTED_EDGE('',*,*,#390,.T.) ;
#557=ORIENTED_EDGE('',*,*,#84,.T.) ;
#558=ORIENTED_EDGE('',*,*,#101,.T.) ;
#562=ORIENTED_EDGE('',*,*,#493,.F.) ;
#563=ORIENTED_EDGE('',*,*,#510,.T.) ;
#564=ORIENTED_EDGE('',*,*,#129,.F.) ;
#565=ORIENTED_EDGE('',*,*,#527,.F.) ;
#566=ORIENTED_EDGE('',*,*,#421,.T.) ;
#583=ORIENTED_EDGE('',*,*,#576,.T.) ;
#584=ORIENTED_EDGE('',*,*,#581,.T.) ;
#593=ORIENTED_EDGE('',*,*,#164,.T.) ;
#594=ORIENTED_EDGE('',*,*,#192,.T.) ;
#595=ORIENTED_EDGE('',*,*,#223,.T.) ;
#596=ORIENTED_EDGE('',*,*,#284,.T.) ;
#613=ORIENTED_EDGE('',*,*,#606,.F.) ;
#614=ORIENTED_EDGE('',*,*,#611,.F.) ;
#617=ORIENTED_EDGE('',*,*,#96,.F.) ;
#618=ORIENTED_EDGE('',*,*,#72,.F.) ;
#637=ORIENTED_EDGE('',*,*,#630,.F.) ;
#638=ORIENTED_EDGE('',*,*,#606,.T.) ;
#639=ORIENTED_EDGE('',*,*,#635,.T.) ;
#640=ORIENTED_EDGE('',*,*,#581,.F.) ;
#644=ORIENTED_EDGE('',*,*,#635,.F.) ;
#645=ORIENTED_EDGE('',*,*,#611,.T.) ;
#646=ORIENTED_EDGE('',*,*,#630,.T.) ;
#647=ORIENTED_EDGE('',*,*,#576,.F.) ;
#559=FACE_BOUND('',#556,.T.) ;
#585=FACE_BOUND('',#582,.T.) ;
#615=FACE_BOUND('',#612,.T.) ;
#619=FACE_BOUND('',#616,.T.) ;
#51=CLOSED_SHELL('Closed Shell',(#91,#108,#180,#211,#274,#296,#366,#378,#402,#433,#464,#481,#505,#517,#543,#560,#586,#620,#642,#649)) ;
#59=VECTOR('Line Direction',#58,1.) ;
#75=VECTOR('Line Direction',#74,1.) ;
#116=VECTOR('Line Direction',#115,1.) ;
#125=VECTOR('Line Direction',#124,1.) ;
#132=VECTOR('Line Direction',#131,1.) ;
#139=VECTOR('Line Direction',#138,1.) ;
#146=VECTOR('Line Direction',#145,1.) ;
#153=VECTOR('Line Direction',#152,1.) ;
#160=VECTOR('Line Direction',#159,1.) ;
#167=VECTOR('Line Direction',#166,1.) ;
#188=VECTOR('Line Direction',#187,1.) ;
#195=VECTOR('Line Direction',#194,1.) ;
#202=VECTOR('Line Direction',#201,1.) ;
#219=VECTOR('Line Direction',#218,1.) ;
#226=VECTOR('Line Direction',#225,1.) ;
#233=VECTOR('Line Direction',#232,1.) ;
#240=VECTOR('Line Direction',#239,1.) ;
#247=VECTOR('Line Direction',#246,1.) ;
#254=VECTOR('Line Direction',#253,1.) ;
#261=VECTOR('Line Direction',#260,1.) ;
#282=VECTOR('Line Direction',#281,1.) ;
#287=VECTOR('Line Direction',#286,1.) ;
#304=VECTOR('Line Direction',#303,1.) ;
#313=VECTOR('Line Direction',#312,1.) ;
#320=VECTOR('Line Direction',#319,1.) ;
#327=VECTOR('Line Direction',#326,1.) ;
#334=VECTOR('Line Direction',#333,1.) ;
#339=VECTOR('Line Direction',#338,1.) ;
#344=VECTOR('Line Direction',#343,1.) ;
#351=VECTOR('Line Direction',#350,1.) ;
#386=VECTOR('Line Direction',#385,1.) ;
#393=VECTOR('Line Direction',#392,1.) ;
#410=VECTOR('Line Direction',#409,1.) ;
#417=VECTOR('Line Direction',#416,1.) ;
#424=VECTOR('Line Direction',#423,1.) ;
#441=VECTOR('Line Direction',#440,1.) ;
#448=VECTOR('Line Direction',#447,1.) ;
#455=VECTOR('Line Direction',#454,1.) ;
#472=VECTOR('Line Direction',#471,1.) ;
#489=VECTOR('Line Direction',#488,1.) ;
#496=VECTOR('Line Direction',#495,1.) ;
#508=VECTOR('Line Direction',#507,1.) ;
#525=VECTOR('Line Direction',#524,1.) ;
#530=VECTOR('Line Direction',#529,1.) ;
#628=VECTOR('Line Direction',#627,1.) ;
#633=VECTOR('Line Direction',#632,1.) ;
#651=ADVANCED_BREP_SHAPE_REPRESENTATION('NONE',(#650),#46) ;
#49=SHAPE_REPRESENTATION(' ',(#48),#46) ;
#91=ADVANCED_FACE('Corps principal',(#90),#56,.F.) ;
#108=ADVANCED_FACE('Corps principal',(#107),#56,.F.) ;
#180=ADVANCED_FACE('Corps principal',(#179),#113,.T.) ;
#211=ADVANCED_FACE('Corps principal',(#210),#185,.F.) ;
#274=ADVANCED_FACE('Corps principal',(#273),#216,.T.) ;
#296=ADVANCED_FACE('Corps principal',(#295),#279,.F.) ;
#366=ADVANCED_FACE('Corps principal',(#365),#301,.F.) ;
#378=ADVANCED_FACE('Corps principal',(#377),#371,.T.) ;
#402=ADVANCED_FACE('Corps principal',(#401),#383,.T.) ;
#433=ADVANCED_FACE('Corps principal',(#432),#407,.F.) ;
#464=ADVANCED_FACE('Corps principal',(#463),#438,.F.) ;
#481=ADVANCED_FACE('Corps principal',(#480),#469,.T.) ;
#505=ADVANCED_FACE('Corps principal',(#504),#486,.T.) ;
#517=ADVANCED_FACE('Corps principal',(#516),#383,.T.) ;
#543=ADVANCED_FACE('Corps principal',(#542),#522,.T.) ;
#560=ADVANCED_FACE('Corps principal',(#555,#559),#548,.F.) ;
#586=ADVANCED_FACE('Corps principal',(#567,#585),#548,.F.) ;
#620=ADVANCED_FACE('Corps principal',(#597,#615,#619),#591,.T.) ;
#642=ADVANCED_FACE('Corps principal',(#641),#625,.F.) ;
#649=ADVANCED_FACE('Corps principal',(#648),#625,.F.) ;
#4=APPLICATION_PROTOCOL_DEFINITION('international standard','config_control_design',1994,#1) ;
#32=APPROVAL_DATE_TIME(#13,#21) ;
#650=MANIFOLD_SOLID_BREP('Corps principal',#51) ;
#11=CALENDAR_DATE(2021,26,7) ;
#30=CC_DESIGN_APPROVAL(#21,(#16,#6,#14)) ;
#18=CC_DESIGN_DATE_AND_TIME_ASSIGNMENT(#13,#17,(#16)) ;
#29=CC_DESIGN_DATE_AND_TIME_ASSIGNMENT(#13,#28,(#14)) ;
#17=DATE_TIME_ROLE('classification_date') ;
#28=DATE_TIME_ROLE('creation_date') ;
#27=CC_DESIGN_PERSON_AND_ORGANIZATION_ASSIGNMENT(#25,#26,(#16)) ;
#33=CC_DESIGN_PERSON_AND_ORGANIZATION_ASSIGNMENT(#25,#34,(#6)) ;
#35=CC_DESIGN_PERSON_AND_ORGANIZATION_ASSIGNMENT(#25,#36,(#6,#14)) ;
#37=CC_DESIGN_PERSON_AND_ORGANIZATION_ASSIGNMENT(#25,#38,(#5)) ;
#26=PERSON_AND_ORGANIZATION_ROLE('classification_officer') ;
#34=PERSON_AND_ORGANIZATION_ROLE('design_supplier') ;
#36=PERSON_AND_ORGANIZATION_ROLE('creator') ;
#38=PERSON_AND_ORGANIZATION_ROLE('design_owner') ;
#39=CC_DESIGN_SECURITY_CLASSIFICATION(#16,(#6)) ;
#69=CIRCLE('generated circle',#68,1.25) ;
#83=CIRCLE('generated circle',#82,1.25) ;
#95=CIRCLE('generated circle',#94,1.25) ;
#100=CIRCLE('generated circle',#99,1.25) ;
#571=CIRCLE('generated circle',#570,1.25) ;
#580=CIRCLE('generated circle',#579,1.25) ;
#601=CIRCLE('generated circle',#600,1.25) ;
#610=CIRCLE('generated circle',#609,1.25) ;
#652=SHAPE_REPRESENTATION_RELATIONSHIP(' ',' ',#49,#651) ;
#56=CYLINDRICAL_SURFACE('generated cylinder',#55,1.25) ;
#625=CYLINDRICAL_SURFACE('generated cylinder',#624,1.25) ;
#3=DESIGN_CONTEXT(' ',#1,'design') ;
#65=EDGE_CURVE('',#62,#64,#60,.F.) ;
#72=EDGE_CURVE('',#62,#71,#69,.T.) ;
#79=EDGE_CURVE('',#71,#78,#76,.F.) ;
#84=EDGE_CURVE('',#64,#78,#83,.T.) ;
#96=EDGE_CURVE('',#71,#62,#95,.T.) ;
#101=EDGE_CURVE('',#78,#64,#100,.T.) ;
#122=EDGE_CURVE('',#119,#121,#117,.T.) ;
#129=EDGE_CURVE('',#119,#128,#126,.T.) ;
#136=EDGE_CURVE('',#135,#128,#133,.T.) ;
#143=EDGE_CURVE('',#135,#142,#140,.T.) ;
#150=EDGE_CURVE('',#142,#149,#147,.T.) ;
#157=EDGE_CURVE('',#156,#149,#154,.T.) ;
#164=EDGE_CURVE('',#163,#156,#161,.T.) ;
#169=EDGE_CURVE('',#121,#163,#168,.T.) ;
#192=EDGE_CURVE('',#156,#191,#189,.F.) ;
#199=EDGE_CURVE('',#149,#198,#196,.F.) ;
#204=EDGE_CURVE('',#198,#191,#203,.T.) ;
#223=EDGE_CURVE('',#191,#222,#220,.T.) ;
#230=EDGE_CURVE('',#229,#198,#227,.T.) ;
#237=EDGE_CURVE('',#229,#236,#234,.T.) ;
#244=EDGE_CURVE('',#236,#243,#241,.F.) ;
#251=EDGE_CURVE('',#243,#250,#248,.T.) ;
#258=EDGE_CURVE('',#250,#257,#255,.T.) ;
#263=EDGE_CURVE('',#222,#257,#262,.T.) ;
#284=EDGE_CURVE('',#222,#163,#283,.F.) ;
#289=EDGE_CURVE('',#257,#121,#288,.F.) ;
#310=EDGE_CURVE('',#307,#309,#305,.T.) ;
#317=EDGE_CURVE('',#307,#316,#314,.T.) ;
#324=EDGE_CURVE('',#316,#323,#321,.T.) ;
#331=EDGE_CURVE('',#330,#323,#328,.T.) ;
#336=EDGE_CURVE('',#236,#330,#335,.T.) ;
#341=EDGE_CURVE('',#229,#142,#340,.T.) ;
#348=EDGE_CURVE('',#347,#135,#345,.T.) ;
#353=EDGE_CURVE('',#309,#347,#352,.T.) ;
#390=EDGE_CURVE('',#243,#389,#387,.T.) ;
#395=EDGE_CURVE('',#330,#389,#394,.T.) ;
#414=EDGE_CURVE('',#309,#413,#411,.T.) ;
#421=EDGE_CURVE('',#420,#413,#418,.T.) ;
#426=EDGE_CURVE('',#420,#307,#425,.F.) ;
#445=EDGE_CURVE('',#323,#444,#442,.T.) ;
#452=EDGE_CURVE('',#316,#451,#449,.F.) ;
#457=EDGE_CURVE('',#451,#444,#456,.T.) ;
#474=EDGE_CURVE('',#444,#389,#473,.T.) ;
#493=EDGE_CURVE('',#492,#413,#490,.T.) ;
#498=EDGE_CURVE('',#347,#492,#497,.T.) ;
#510=EDGE_CURVE('',#492,#128,#509,.T.) ;
#527=EDGE_CURVE('',#420,#119,#526,.T.) ;
#532=EDGE_CURVE('',#250,#451,#531,.T.) ;
#576=EDGE_CURVE('',#573,#575,#571,.T.) ;
#581=EDGE_CURVE('',#575,#573,#580,.T.) ;
#606=EDGE_CURVE('',#603,#605,#601,.T.) ;
#611=EDGE_CURVE('',#605,#603,#610,.T.) ;
#630=EDGE_CURVE('',#603,#575,#629,.F.) ;
#635=EDGE_CURVE('',#605,#573,#634,.F.) ;
#85=EDGE_LOOP('',(#86,#87,#88,#89)) ;
#102=EDGE_LOOP('',(#103,#104,#105,#106)) ;
#170=EDGE_LOOP('',(#171,#172,#173,#174,#175,#176,#177,#178)) ;
#205=EDGE_LOOP('',(#206,#207,#208,#209)) ;
#264=EDGE_LOOP('',(#265,#266,#267,#268,#269,#270,#271,#272)) ;
#290=EDGE_LOOP('',(#291,#292,#293,#294)) ;
#354=EDGE_LOOP('',(#355,#356,#357,#358,#359,#360,#361,#362,#363,#364)) ;
#372=EDGE_LOOP('',(#373,#374,#375,#376)) ;
#396=EDGE_LOOP('',(#397,#398,#399,#400)) ;
#427=EDGE_LOOP('',(#428,#429,#430,#431)) ;
#458=EDGE_LOOP('',(#459,#460,#461,#462)) ;
#475=EDGE_LOOP('',(#476,#477,#478,#479)) ;
#499=EDGE_LOOP('',(#500,#501,#502,#503)) ;
#511=EDGE_LOOP('',(#512,#513,#514,#515)) ;
#533=EDGE_LOOP('',(#534,#535,#536,#537,#538,#539,#540,#541)) ;
#549=EDGE_LOOP('',(#550,#551,#552,#553,#554)) ;
#556=EDGE_LOOP('',(#557,#558)) ;
#561=EDGE_LOOP('',(#562,#563,#564,#565,#566)) ;
#582=EDGE_LOOP('',(#583,#584)) ;
#592=EDGE_LOOP('',(#593,#594,#595,#596)) ;
#612=EDGE_LOOP('',(#613,#614)) ;
#616=EDGE_LOOP('',(#617,#618)) ;
#636=EDGE_LOOP('',(#637,#638,#639,#640)) ;
#643=EDGE_LOOP('',(#644,#645,#646,#647)) ;
#90=FACE_OUTER_BOUND('',#85,.T.) ;
#107=FACE_OUTER_BOUND('',#102,.T.) ;
#179=FACE_OUTER_BOUND('',#170,.T.) ;
#210=FACE_OUTER_BOUND('',#205,.T.) ;
#273=FACE_OUTER_BOUND('',#264,.T.) ;
#295=FACE_OUTER_BOUND('',#290,.T.) ;
#365=FACE_OUTER_BOUND('',#354,.T.) ;
#377=FACE_OUTER_BOUND('',#372,.T.) ;
#401=FACE_OUTER_BOUND('',#396,.T.) ;
#432=FACE_OUTER_BOUND('',#427,.T.) ;
#463=FACE_OUTER_BOUND('',#458,.T.) ;
#480=FACE_OUTER_BOUND('',#475,.T.) ;
#504=FACE_OUTER_BOUND('',#499,.T.) ;
#516=FACE_OUTER_BOUND('',#511,.T.) ;
#542=FACE_OUTER_BOUND('',#533,.T.) ;
#555=FACE_OUTER_BOUND('',#549,.T.) ;
#567=FACE_OUTER_BOUND('',#561,.T.) ;
#597=FACE_OUTER_BOUND('',#592,.T.) ;
#641=FACE_OUTER_BOUND('',#636,.T.) ;
#648=FACE_OUTER_BOUND('',#643,.T.) ;
#45=UNCERTAINTY_MEASURE_WITH_UNIT(LENGTH_MEASURE(0.005),#41,'distance_accuracy_value','CONFUSED CURVE UNCERTAINTY') ;
#60=LINE('Line',#57,#59) ;
#76=LINE('Line',#73,#75) ;
#117=LINE('Line',#114,#116) ;
#126=LINE('Line',#123,#125) ;
#133=LINE('Line',#130,#132) ;
#140=LINE('Line',#137,#139) ;
#147=LINE('Line',#144,#146) ;
#154=LINE('Line',#151,#153) ;
#161=LINE('Line',#158,#160) ;
#168=LINE('Line',#165,#167) ;
#189=LINE('Line',#186,#188) ;
#196=LINE('Line',#193,#195) ;
#203=LINE('Line',#200,#202) ;
#220=LINE('Line',#217,#219) ;
#227=LINE('Line',#224,#226) ;
#234=LINE('Line',#231,#233) ;
#241=LINE('Line',#238,#240) ;
#248=LINE('Line',#245,#247) ;
#255=LINE('Line',#252,#254) ;
#262=LINE('Line',#259,#261) ;
#283=LINE('Line',#280,#282) ;
#288=LINE('Line',#285,#287) ;
#305=LINE('Line',#302,#304) ;
#314=LINE('Line',#311,#313) ;
#321=LINE('Line',#318,#320) ;
#328=LINE('Line',#325,#327) ;
#335=LINE('Line',#332,#334) ;
#340=LINE('Line',#337,#339) ;
#345=LINE('Line',#342,#344) ;
#352=LINE('Line',#349,#351) ;
#387=LINE('Line',#384,#386) ;
#394=LINE('Line',#391,#393) ;
#411=LINE('Line',#408,#410) ;
#418=LINE('Line',#415,#417) ;
#425=LINE('Line',#422,#424) ;
#442=LINE('Line',#439,#441) ;
#449=LINE('Line',#446,#448) ;
#456=LINE('Line',#453,#455) ;
#473=LINE('Line',#470,#472) ;
#490=LINE('Line',#487,#489) ;
#497=LINE('Line',#494,#496) ;
#509=LINE('Line',#506,#508) ;
#526=LINE('Line',#523,#525) ;
#531=LINE('Line',#528,#530) ;
#629=LINE('Line',#626,#628) ;
#634=LINE('Line',#631,#633) ;
#2=MECHANICAL_CONTEXT(' ',#1,'mechanical') ;
#24=PERSONAL_ADDRESS(' ',' ',' ',' ',' ',' ',' ',' ',' ',' ',' ',' ',(#22),' ') ;
#113=PLANE('Plane',#112) ;
#185=PLANE('Plane',#184) ;
#216=PLANE('Plane',#215) ;
#279=PLANE('Plane',#278) ;
#301=PLANE('Plane',#300) ;
#371=PLANE('Plane',#370) ;
#383=PLANE('Plane',#382) ;
#407=PLANE('Plane',#406) ;
#438=PLANE('Plane',#437) ;
#469=PLANE('Plane',#468) ;
#486=PLANE('Plane',#485) ;
#522=PLANE('Plane',#521) ;
#548=PLANE('Plane',#547) ;
#591=PLANE('Plane',#590) ;
#43=PLANE_ANGLE_MEASURE_WITH_UNIT(PLANE_ANGLE_MEASURE(0.0174532925199),#42) ;
#7=PRODUCT_CATEGORY('part',$) ;
#9=PRODUCT_CATEGORY_RELATIONSHIP(' ',' ',#7,#8) ;
#6=PRODUCT_DEFINITION_FORMATION_WITH_SPECIFIED_SOURCE('',' ',#5,.NOT_KNOWN.) ;
#8=PRODUCT_RELATED_PRODUCT_CATEGORY('detail',$,(#5)) ;
#50=SHAPE_DEFINITION_REPRESENTATION(#40,#49) ;
#62=VERTEX_POINT('',#61) ;
#64=VERTEX_POINT('',#63) ;
#71=VERTEX_POINT('',#70) ;
#78=VERTEX_POINT('',#77) ;
#119=VERTEX_POINT('',#118) ;
#121=VERTEX_POINT('',#120) ;
#128=VERTEX_POINT('',#127) ;
#135=VERTEX_POINT('',#134) ;
#142=VERTEX_POINT('',#141) ;
#149=VERTEX_POINT('',#148) ;
#156=VERTEX_POINT('',#155) ;
#163=VERTEX_POINT('',#162) ;
#191=VERTEX_POINT('',#190) ;
#198=VERTEX_POINT('',#197) ;
#222=VERTEX_POINT('',#221) ;
#229=VERTEX_POINT('',#228) ;
#236=VERTEX_POINT('',#235) ;
#243=VERTEX_POINT('',#242) ;
#250=VERTEX_POINT('',#249) ;
#257=VERTEX_POINT('',#256) ;
#307=VERTEX_POINT('',#306) ;
#309=VERTEX_POINT('',#308) ;
#316=VERTEX_POINT('',#315) ;
#323=VERTEX_POINT('',#322) ;
#330=VERTEX_POINT('',#329) ;
#347=VERTEX_POINT('',#346) ;
#389=VERTEX_POINT('',#388) ;
#413=VERTEX_POINT('',#412) ;
#420=VERTEX_POINT('',#419) ;
#444=VERTEX_POINT('',#443) ;
#451=VERTEX_POINT('',#450) ;
#492=VERTEX_POINT('',#491) ;
#573=VERTEX_POINT('',#572) ;
#575=VERTEX_POINT('',#574) ;
#603=VERTEX_POINT('',#602) ;
#605=VERTEX_POINT('',#604) ;
#41=(LENGTH_UNIT()NAMED_UNIT(*)SI_UNIT(.MILLI.,.METRE.)) ;
#42=(NAMED_UNIT(*)PLANE_ANGLE_UNIT()SI_UNIT($,.RADIAN.)) ;
#44=(NAMED_UNIT(*)SI_UNIT($,.STERADIAN.)SOLID_ANGLE_UNIT()) ;
#46=(GEOMETRIC_REPRESENTATION_CONTEXT(3)GLOBAL_UNCERTAINTY_ASSIGNED_CONTEXT((#45))GLOBAL_UNIT_ASSIGNED_CONTEXT((#41,#42,#44))REPRESENTATION_CONTEXT(' ',' ')) ;
ENDSEC;
END-ISO-10303-21;
