ISO-10303-21;
HEADER;
FILE_DESCRIPTION(('CATIA V5 STEP Exchange'),'2;1');

FILE_NAME('C:\\Users\\METHODES 1\\Desktop\\Perso local\\RAC\\Cup axe de roue L74\\Cup axe de roue.stp','2021-07-20T12:35:13+00:00',('none'),('none'),'CATIA Version 5-6 Release 2018','CATIA V5 STEP AP203','none');

FILE_SCHEMA(('CONFIG_CONTROL_DESIGN'));

ENDSEC;
DATA;
#5=PRODUCT('Part1','','',(#2)) ;
#1=APPLICATION_CONTEXT('configuration controlled 3D design of mechanical parts and assemblies') ;
#14=PRODUCT_DEFINITION('',' ',#6,#3) ;
#16=SECURITY_CLASSIFICATION(' ',' ',#15) ;
#15=SECURITY_CLASSIFICATION_LEVEL('unclassified') ;
#46=CARTESIAN_POINT(' ',(0.,0.,0.)) ;
#51=CARTESIAN_POINT('Axis2P3D Location',(13.8564064606,-1.7763568394E-014,1.5)) ;
#56=CARTESIAN_POINT('Line Origine',(13.8564064606,-1.7763568394E-014,0.75)) ;
#60=CARTESIAN_POINT('Vertex',(13.8564064606,-1.7763568394E-014,1.5)) ;
#62=CARTESIAN_POINT('Vertex',(13.8564064606,-8.881784197E-015,0.)) ;
#65=CARTESIAN_POINT('Line Origine',(10.3923048454,6.,1.5)) ;
#69=CARTESIAN_POINT('Vertex',(6.92820323028,12.,1.5)) ;
#72=CARTESIAN_POINT('Line Origine',(6.92820323028,12.,0.75)) ;
#76=CARTESIAN_POINT('Vertex',(6.92820323028,12.,0.)) ;
#79=CARTESIAN_POINT('Line Origine',(10.3923048454,6.,0.)) ;
#91=CARTESIAN_POINT('Axis2P3D Location',(0.,18.75,1.5)) ;
#96=CARTESIAN_POINT('Axis2P3D Location',(0.,0.,1.5)) ;
#100=CARTESIAN_POINT('Vertex',(8.98922884883,-16.4546730354,1.5)) ;
#102=CARTESIAN_POINT('Vertex',(-8.98922884883,16.4546730354,1.5)) ;
#105=CARTESIAN_POINT('Axis2P3D Location',(0.,0.,1.5)) ;
#114=CARTESIAN_POINT('Line Origine',(10.3923048454,-6.,1.5)) ;
#118=CARTESIAN_POINT('Vertex',(6.92820323028,-12.,1.5)) ;
#121=CARTESIAN_POINT('Line Origine',(-5.3290705182E-015,-12.,1.5)) ;
#125=CARTESIAN_POINT('Vertex',(-6.92820323028,-12.,1.5)) ;
#128=CARTESIAN_POINT('Line Origine',(-10.3923048454,-6.,1.5)) ;
#132=CARTESIAN_POINT('Vertex',(-13.8564064606,0.,1.5)) ;
#135=CARTESIAN_POINT('Line Origine',(-10.3923048454,6.,1.5)) ;
#139=CARTESIAN_POINT('Vertex',(-6.92820323028,12.,1.5)) ;
#142=CARTESIAN_POINT('Line Origine',(8.881784197E-016,12.,1.5)) ;
#156=CARTESIAN_POINT('Axis2P3D Location',(6.92820323028,12.,1.5)) ;
#161=CARTESIAN_POINT('Line Origine',(-6.92820323028,12.,0.75)) ;
#165=CARTESIAN_POINT('Vertex',(-6.92820323028,12.,0.)) ;
#168=CARTESIAN_POINT('Line Origine',(-8.881784197E-016,12.,0.)) ;
#180=CARTESIAN_POINT('Axis2P3D Location',(0.,0.,13.5)) ;
#185=CARTESIAN_POINT('Axis2P3D Location',(0.,0.,23.)) ;
#189=CARTESIAN_POINT('Vertex',(8.98922884883,-16.4546730354,23.)) ;
#191=CARTESIAN_POINT('Vertex',(-8.98922884883,16.4546730354,23.)) ;
#194=CARTESIAN_POINT('Line Origine',(-8.98922884883,16.4546730354,14.25)) ;
#199=CARTESIAN_POINT('Line Origine',(8.98922884883,-16.4546730354,14.25)) ;
#211=CARTESIAN_POINT('Axis2P3D Location',(0.,0.,23.)) ;
#223=CARTESIAN_POINT('Axis2P3D Location',(7.1054273576E-015,5.3290705182E-015,23.)) ;
#228=CARTESIAN_POINT('Axis2P3D Location',(10.9069310032,-19.965003283,23.)) ;
#232=CARTESIAN_POINT('Vertex',(10.9069310032,-19.965003283,27.)) ;
#235=CARTESIAN_POINT('Axis2P3D Location',(7.1054273576E-015,5.3290705182E-015,27.)) ;
#239=CARTESIAN_POINT('Vertex',(-10.9069310032,19.965003283,27.)) ;
#242=CARTESIAN_POINT('Axis2P3D Location',(-10.9069310032,19.965003283,23.)) ;
#254=CARTESIAN_POINT('Axis2P3D Location',(-7.1054273576E-015,-3.94129173742E-015,23.)) ;
#259=CARTESIAN_POINT('Axis2P3D Location',(-7.1054273576E-015,-3.94129173742E-015,27.)) ;
#271=CARTESIAN_POINT('Axis2P3D Location',(0.,25.75,27.)) ;
#276=CARTESIAN_POINT('Axis2P3D Location',(0.,0.,27.)) ;
#280=CARTESIAN_POINT('Vertex',(12.3452076191,-22.5977509687,27.)) ;
#282=CARTESIAN_POINT('Vertex',(-12.3452076191,22.5977509687,27.)) ;
#285=CARTESIAN_POINT('Axis2P3D Location',(0.,0.,27.)) ;
#299=CARTESIAN_POINT('Axis2P3D Location',(0.,0.,13.5)) ;
#304=CARTESIAN_POINT('Line Origine',(-12.3452076191,22.5977509687,26.)) ;
#308=CARTESIAN_POINT('Vertex',(-12.3452076191,22.5977509687,25.)) ;
#311=CARTESIAN_POINT('Line Origine',(12.3452076191,-22.5977509687,26.)) ;
#315=CARTESIAN_POINT('Vertex',(12.3452076191,-22.5977509687,25.)) ;
#318=CARTESIAN_POINT('Axis2P3D Location',(0.,0.,25.)) ;
#330=CARTESIAN_POINT('Axis2P3D Location',(0.,0.,25.)) ;
#342=CARTESIAN_POINT('Axis2P3D Location',(0.,20.75,25.)) ;
#351=CARTESIAN_POINT('Axis2P3D Location',(-1.14295169531E-015,0.,25.)) ;
#355=CARTESIAN_POINT('Vertex',(-11.8657820805,21.7201684068,25.)) ;
#357=CARTESIAN_POINT('Vertex',(11.8657820805,-21.7201684068,25.)) ;
#360=CARTESIAN_POINT('Axis2P3D Location',(-1.14295169531E-015,0.,25.)) ;
#370=CARTESIAN_POINT('Axis2P3D Location',(0.,0.,13.5)) ;
#375=CARTESIAN_POINT('Line Origine',(9.94807992604,-18.2098381592,12.5)) ;
#379=CARTESIAN_POINT('Vertex',(9.94807992604,-18.2098381592,0.)) ;
#381=CARTESIAN_POINT('Vertex',(9.94807992604,-18.2098381592,21.)) ;
#384=CARTESIAN_POINT('Axis2P3D Location',(0.,0.,0.)) ;
#388=CARTESIAN_POINT('Vertex',(-9.94807992604,18.2098381592,0.)) ;
#391=CARTESIAN_POINT('Line Origine',(-9.94807992604,18.2098381592,12.5)) ;
#395=CARTESIAN_POINT('Vertex',(-9.94807992604,18.2098381592,21.)) ;
#398=CARTESIAN_POINT('Axis2P3D Location',(0.,0.,21.)) ;
#410=CARTESIAN_POINT('Axis2P3D Location',(0.,0.,0.)) ;
#415=CARTESIAN_POINT('Axis2P3D Location',(0.,0.,21.)) ;
#427=CARTESIAN_POINT('Axis2P3D Location',(-7.1054273576E-015,5.3290705182E-015,21.)) ;
#432=CARTESIAN_POINT('Axis2P3D Location',(11.8657820805,-21.7201684068,21.)) ;
#437=CARTESIAN_POINT('Axis2P3D Location',(-11.8657820805,21.7201684068,21.)) ;
#449=CARTESIAN_POINT('Axis2P3D Location',(0.,-1.11022302463E-016,21.)) ;
#461=CARTESIAN_POINT('Axis2P3D Location',(-6.92820323028,12.,1.5)) ;
#466=CARTESIAN_POINT('Line Origine',(-13.8564064606,1.7763568394E-015,0.75)) ;
#470=CARTESIAN_POINT('Vertex',(-13.8564064606,1.7763568394E-015,0.)) ;
#473=CARTESIAN_POINT('Line Origine',(-10.3923048454,6.,0.)) ;
#485=CARTESIAN_POINT('Axis2P3D Location',(-13.8564064606,8.881784197E-016,1.5)) ;
#490=CARTESIAN_POINT('Line Origine',(-6.92820323028,-12.,0.75)) ;
#494=CARTESIAN_POINT('Vertex',(-6.92820323028,-12.,0.)) ;
#497=CARTESIAN_POINT('Line Origine',(-10.3923048454,-6.,0.)) ;
#509=CARTESIAN_POINT('Axis2P3D Location',(-6.92820323028,-12.,1.5)) ;
#514=CARTESIAN_POINT('Line Origine',(6.92820323028,-12.,0.75)) ;
#518=CARTESIAN_POINT('Vertex',(6.92820323028,-12.,0.)) ;
#521=CARTESIAN_POINT('Line Origine',(-5.3290705182E-015,-12.,0.)) ;
#533=CARTESIAN_POINT('Axis2P3D Location',(0.,0.,0.)) ;
#542=CARTESIAN_POINT('Line Origine',(10.3923048454,-6.,0.)) ;
#556=CARTESIAN_POINT('Axis2P3D Location',(6.92820323028,-12.,1.5)) ;
#52=DIRECTION('Axis2P3D Direction',(-0.866025403784,-0.5,-0.)) ;
#53=DIRECTION('Axis2P3D XDirection',(-0.5,0.866025403784,0.)) ;
#57=DIRECTION('Vector Direction',(0.,0.,-1.)) ;
#66=DIRECTION('Vector Direction',(-0.5,0.866025403784,0.)) ;
#73=DIRECTION('Vector Direction',(0.,0.,-1.)) ;
#80=DIRECTION('Vector Direction',(-0.5,0.866025403784,0.)) ;
#92=DIRECTION('Axis2P3D Direction',(0.,0.,1.)) ;
#93=DIRECTION('Axis2P3D XDirection',(1.,0.,0.)) ;
#97=DIRECTION('Axis2P3D Direction',(0.,0.,1.)) ;
#106=DIRECTION('Axis2P3D Direction',(0.,0.,1.)) ;
#115=DIRECTION('Vector Direction',(0.5,0.866025403784,0.)) ;
#122=DIRECTION('Vector Direction',(1.,0.,0.)) ;
#129=DIRECTION('Vector Direction',(0.5,-0.866025403784,0.)) ;
#136=DIRECTION('Vector Direction',(-0.5,-0.866025403784,0.)) ;
#143=DIRECTION('Vector Direction',(-1.,0.,0.)) ;
#157=DIRECTION('Axis2P3D Direction',(-0.,-1.,-0.)) ;
#158=DIRECTION('Axis2P3D XDirection',(-1.,0.,0.)) ;
#162=DIRECTION('Vector Direction',(0.,0.,-1.)) ;
#169=DIRECTION('Vector Direction',(-1.,0.,0.)) ;
#181=DIRECTION('Axis2P3D Direction',(0.,0.,1.)) ;
#182=DIRECTION('Axis2P3D XDirection',(-0.479425538604,0.87758256189,0.)) ;
#186=DIRECTION('Axis2P3D Direction',(0.,0.,1.)) ;
#195=DIRECTION('Vector Direction',(0.,0.,1.)) ;
#200=DIRECTION('Vector Direction',(0.,0.,1.)) ;
#212=DIRECTION('Axis2P3D Direction',(0.,0.,1.)) ;
#224=DIRECTION('Axis2P3D Direction',(0.,0.,1.)) ;
#225=DIRECTION('Axis2P3D XDirection',(0.479425538604,-0.87758256189,0.)) ;
#229=DIRECTION('Axis2P3D Direction',(-0.87758256189,-0.479425538604,0.)) ;
#236=DIRECTION('Axis2P3D Direction',(0.,0.,1.)) ;
#243=DIRECTION('Axis2P3D Direction',(0.87758256189,0.479425538604,-0.)) ;
#255=DIRECTION('Axis2P3D Direction',(0.,-0.,1.)) ;
#256=DIRECTION('Axis2P3D XDirection',(-0.479425538604,0.87758256189,0.)) ;
#260=DIRECTION('Axis2P3D Direction',(0.,-0.,1.)) ;
#272=DIRECTION('Axis2P3D Direction',(0.,0.,1.)) ;
#273=DIRECTION('Axis2P3D XDirection',(1.,0.,0.)) ;
#277=DIRECTION('Axis2P3D Direction',(0.,0.,1.)) ;
#286=DIRECTION('Axis2P3D Direction',(0.,0.,1.)) ;
#300=DIRECTION('Axis2P3D Direction',(0.,0.,1.)) ;
#301=DIRECTION('Axis2P3D XDirection',(-0.479425538604,0.87758256189,0.)) ;
#305=DIRECTION('Vector Direction',(0.,0.,1.)) ;
#312=DIRECTION('Vector Direction',(0.,0.,1.)) ;
#319=DIRECTION('Axis2P3D Direction',(0.,0.,1.)) ;
#331=DIRECTION('Axis2P3D Direction',(0.,0.,1.)) ;
#343=DIRECTION('Axis2P3D Direction',(0.,0.,1.)) ;
#344=DIRECTION('Axis2P3D XDirection',(1.,0.,0.)) ;
#352=DIRECTION('Axis2P3D Direction',(0.,0.,1.)) ;
#361=DIRECTION('Axis2P3D Direction',(0.,0.,1.)) ;
#371=DIRECTION('Axis2P3D Direction',(0.,0.,1.)) ;
#372=DIRECTION('Axis2P3D XDirection',(-0.479425538604,0.87758256189,0.)) ;
#376=DIRECTION('Vector Direction',(0.,0.,1.)) ;
#385=DIRECTION('Axis2P3D Direction',(0.,0.,1.)) ;
#392=DIRECTION('Vector Direction',(0.,0.,1.)) ;
#399=DIRECTION('Axis2P3D Direction',(0.,0.,1.)) ;
#411=DIRECTION('Axis2P3D Direction',(0.,0.,1.)) ;
#416=DIRECTION('Axis2P3D Direction',(0.,0.,1.)) ;
#428=DIRECTION('Axis2P3D Direction',(0.,0.,1.)) ;
#429=DIRECTION('Axis2P3D XDirection',(0.479425538604,-0.87758256189,0.)) ;
#433=DIRECTION('Axis2P3D Direction',(-0.87758256189,-0.479425538604,0.)) ;
#438=DIRECTION('Axis2P3D Direction',(0.87758256189,0.479425538604,-0.)) ;
#450=DIRECTION('Axis2P3D Direction',(0.,-0.,1.)) ;
#451=DIRECTION('Axis2P3D XDirection',(-0.479425538604,0.87758256189,0.)) ;
#462=DIRECTION('Axis2P3D Direction',(0.866025403784,-0.5,0.)) ;
#463=DIRECTION('Axis2P3D XDirection',(-0.5,-0.866025403784,-0.)) ;
#467=DIRECTION('Vector Direction',(0.,0.,-1.)) ;
#474=DIRECTION('Vector Direction',(-0.5,-0.866025403784,0.)) ;
#486=DIRECTION('Axis2P3D Direction',(0.866025403784,0.5,0.)) ;
#487=DIRECTION('Axis2P3D XDirection',(0.5,-0.866025403784,0.)) ;
#491=DIRECTION('Vector Direction',(0.,0.,-1.)) ;
#498=DIRECTION('Vector Direction',(0.5,-0.866025403784,0.)) ;
#510=DIRECTION('Axis2P3D Direction',(-0.,1.,0.)) ;
#511=DIRECTION('Axis2P3D XDirection',(1.,0.,0.)) ;
#515=DIRECTION('Vector Direction',(0.,0.,-1.)) ;
#522=DIRECTION('Vector Direction',(1.,0.,0.)) ;
#534=DIRECTION('Axis2P3D Direction',(0.,0.,1.)) ;
#535=DIRECTION('Axis2P3D XDirection',(1.,0.,0.)) ;
#543=DIRECTION('Vector Direction',(0.5,0.866025403784,0.)) ;
#557=DIRECTION('Axis2P3D Direction',(-0.866025403784,0.5,0.)) ;
#558=DIRECTION('Axis2P3D XDirection',(0.5,0.866025403784,0.)) ;
#47=AXIS2_PLACEMENT_3D(' ',#46,$,$) ;
#54=AXIS2_PLACEMENT_3D('Plane Axis2P3D',#51,#52,#53) ;
#94=AXIS2_PLACEMENT_3D('Plane Axis2P3D',#91,#92,#93) ;
#98=AXIS2_PLACEMENT_3D('Circle Axis2P3D',#96,#97,$) ;
#107=AXIS2_PLACEMENT_3D('Circle Axis2P3D',#105,#106,$) ;
#159=AXIS2_PLACEMENT_3D('Plane Axis2P3D',#156,#157,#158) ;
#183=AXIS2_PLACEMENT_3D('Cylinder Axis2P3D',#180,#181,#182) ;
#187=AXIS2_PLACEMENT_3D('Circle Axis2P3D',#185,#186,$) ;
#213=AXIS2_PLACEMENT_3D('Circle Axis2P3D',#211,#212,$) ;
#226=AXIS2_PLACEMENT_3D('Torus Axis2P3D',#223,#224,#225) ;
#230=AXIS2_PLACEMENT_3D('Circle Axis2P3D',#228,#229,$) ;
#237=AXIS2_PLACEMENT_3D('Circle Axis2P3D',#235,#236,$) ;
#244=AXIS2_PLACEMENT_3D('Circle Axis2P3D',#242,#243,$) ;
#257=AXIS2_PLACEMENT_3D('Torus Axis2P3D',#254,#255,#256) ;
#261=AXIS2_PLACEMENT_3D('Circle Axis2P3D',#259,#260,$) ;
#274=AXIS2_PLACEMENT_3D('Plane Axis2P3D',#271,#272,#273) ;
#278=AXIS2_PLACEMENT_3D('Circle Axis2P3D',#276,#277,$) ;
#287=AXIS2_PLACEMENT_3D('Circle Axis2P3D',#285,#286,$) ;
#302=AXIS2_PLACEMENT_3D('Cylinder Axis2P3D',#299,#300,#301) ;
#320=AXIS2_PLACEMENT_3D('Circle Axis2P3D',#318,#319,$) ;
#332=AXIS2_PLACEMENT_3D('Circle Axis2P3D',#330,#331,$) ;
#345=AXIS2_PLACEMENT_3D('Plane Axis2P3D',#342,#343,#344) ;
#353=AXIS2_PLACEMENT_3D('Circle Axis2P3D',#351,#352,$) ;
#362=AXIS2_PLACEMENT_3D('Circle Axis2P3D',#360,#361,$) ;
#373=AXIS2_PLACEMENT_3D('Cylinder Axis2P3D',#370,#371,#372) ;
#386=AXIS2_PLACEMENT_3D('Circle Axis2P3D',#384,#385,$) ;
#400=AXIS2_PLACEMENT_3D('Circle Axis2P3D',#398,#399,$) ;
#412=AXIS2_PLACEMENT_3D('Circle Axis2P3D',#410,#411,$) ;
#417=AXIS2_PLACEMENT_3D('Circle Axis2P3D',#415,#416,$) ;
#430=AXIS2_PLACEMENT_3D('Torus Axis2P3D',#427,#428,#429) ;
#434=AXIS2_PLACEMENT_3D('Circle Axis2P3D',#432,#433,$) ;
#439=AXIS2_PLACEMENT_3D('Circle Axis2P3D',#437,#438,$) ;
#452=AXIS2_PLACEMENT_3D('Torus Axis2P3D',#449,#450,#451) ;
#464=AXIS2_PLACEMENT_3D('Plane Axis2P3D',#461,#462,#463) ;
#488=AXIS2_PLACEMENT_3D('Plane Axis2P3D',#485,#486,#487) ;
#512=AXIS2_PLACEMENT_3D('Plane Axis2P3D',#509,#510,#511) ;
#536=AXIS2_PLACEMENT_3D('Plane Axis2P3D',#533,#534,#535) ;
#559=AXIS2_PLACEMENT_3D('Plane Axis2P3D',#556,#557,#558) ;
#40=PRODUCT_DEFINITION_SHAPE(' ',' ',#14) ;
#31=APPROVAL_PERSON_ORGANIZATION(#25,#21,#19) ;
#25=PERSON_AND_ORGANIZATION(#22,#23) ;
#22=PERSON(' ',' ',' ',$,$,$) ;
#23=ORGANIZATION(' ',' ',' ') ;
#21=APPROVAL(#20,' ') ;
#20=APPROVAL_STATUS('not_yet_approved') ;
#19=APPROVAL_ROLE('APPROVER') ;
#13=DATE_AND_TIME(#11,#12) ;
#12=LOCAL_TIME(14,35,11.,#10) ;
#10=COORDINATED_UNIVERSAL_TIME_OFFSET(0,0,.AHEAD.) ;
#85=ORIENTED_EDGE('',*,*,#64,.F.) ;
#86=ORIENTED_EDGE('',*,*,#71,.T.) ;
#87=ORIENTED_EDGE('',*,*,#78,.T.) ;
#88=ORIENTED_EDGE('',*,*,#83,.F.) ;
#111=ORIENTED_EDGE('',*,*,#104,.T.) ;
#112=ORIENTED_EDGE('',*,*,#109,.T.) ;
#148=ORIENTED_EDGE('',*,*,#120,.F.) ;
#149=ORIENTED_EDGE('',*,*,#127,.F.) ;
#150=ORIENTED_EDGE('',*,*,#134,.F.) ;
#151=ORIENTED_EDGE('',*,*,#141,.F.) ;
#152=ORIENTED_EDGE('',*,*,#146,.F.) ;
#153=ORIENTED_EDGE('',*,*,#71,.F.) ;
#174=ORIENTED_EDGE('',*,*,#78,.F.) ;
#175=ORIENTED_EDGE('',*,*,#146,.T.) ;
#176=ORIENTED_EDGE('',*,*,#167,.T.) ;
#177=ORIENTED_EDGE('',*,*,#172,.F.) ;
#205=ORIENTED_EDGE('',*,*,#193,.T.) ;
#206=ORIENTED_EDGE('',*,*,#198,.T.) ;
#207=ORIENTED_EDGE('',*,*,#104,.F.) ;
#208=ORIENTED_EDGE('',*,*,#203,.F.) ;
#217=ORIENTED_EDGE('',*,*,#215,.T.) ;
#218=ORIENTED_EDGE('',*,*,#203,.T.) ;
#219=ORIENTED_EDGE('',*,*,#109,.F.) ;
#220=ORIENTED_EDGE('',*,*,#198,.F.) ;
#248=ORIENTED_EDGE('',*,*,#234,.T.) ;
#249=ORIENTED_EDGE('',*,*,#241,.T.) ;
#250=ORIENTED_EDGE('',*,*,#246,.F.) ;
#251=ORIENTED_EDGE('',*,*,#193,.F.) ;
#265=ORIENTED_EDGE('',*,*,#246,.T.) ;
#266=ORIENTED_EDGE('',*,*,#263,.T.) ;
#267=ORIENTED_EDGE('',*,*,#234,.F.) ;
#268=ORIENTED_EDGE('',*,*,#215,.F.) ;
#291=ORIENTED_EDGE('',*,*,#284,.T.) ;
#292=ORIENTED_EDGE('',*,*,#289,.T.) ;
#295=ORIENTED_EDGE('',*,*,#241,.F.) ;
#296=ORIENTED_EDGE('',*,*,#263,.F.) ;
#324=ORIENTED_EDGE('',*,*,#310,.T.) ;
#325=ORIENTED_EDGE('',*,*,#284,.F.) ;
#326=ORIENTED_EDGE('',*,*,#317,.F.) ;
#327=ORIENTED_EDGE('',*,*,#322,.T.) ;
#336=ORIENTED_EDGE('',*,*,#317,.T.) ;
#337=ORIENTED_EDGE('',*,*,#289,.F.) ;
#338=ORIENTED_EDGE('',*,*,#310,.F.) ;
#339=ORIENTED_EDGE('',*,*,#334,.T.) ;
#348=ORIENTED_EDGE('',*,*,#334,.F.) ;
#349=ORIENTED_EDGE('',*,*,#322,.F.) ;
#366=ORIENTED_EDGE('',*,*,#359,.F.) ;
#367=ORIENTED_EDGE('',*,*,#364,.F.) ;
#404=ORIENTED_EDGE('',*,*,#383,.F.) ;
#405=ORIENTED_EDGE('',*,*,#390,.T.) ;
#406=ORIENTED_EDGE('',*,*,#397,.T.) ;
#407=ORIENTED_EDGE('',*,*,#402,.T.) ;
#421=ORIENTED_EDGE('',*,*,#397,.F.) ;
#422=ORIENTED_EDGE('',*,*,#414,.T.) ;
#423=ORIENTED_EDGE('',*,*,#383,.T.) ;
#424=ORIENTED_EDGE('',*,*,#419,.T.) ;
#443=ORIENTED_EDGE('',*,*,#359,.T.) ;
#444=ORIENTED_EDGE('',*,*,#436,.T.) ;
#445=ORIENTED_EDGE('',*,*,#402,.F.) ;
#446=ORIENTED_EDGE('',*,*,#441,.F.) ;
#455=ORIENTED_EDGE('',*,*,#364,.T.) ;
#456=ORIENTED_EDGE('',*,*,#441,.T.) ;
#457=ORIENTED_EDGE('',*,*,#419,.F.) ;
#458=ORIENTED_EDGE('',*,*,#436,.F.) ;
#479=ORIENTED_EDGE('',*,*,#167,.F.) ;
#480=ORIENTED_EDGE('',*,*,#141,.T.) ;
#481=ORIENTED_EDGE('',*,*,#472,.T.) ;
#482=ORIENTED_EDGE('',*,*,#477,.F.) ;
#503=ORIENTED_EDGE('',*,*,#472,.F.) ;
#504=ORIENTED_EDGE('',*,*,#134,.T.) ;
#505=ORIENTED_EDGE('',*,*,#496,.T.) ;
#506=ORIENTED_EDGE('',*,*,#501,.F.) ;
#527=ORIENTED_EDGE('',*,*,#496,.F.) ;
#528=ORIENTED_EDGE('',*,*,#127,.T.) ;
#529=ORIENTED_EDGE('',*,*,#520,.T.) ;
#530=ORIENTED_EDGE('',*,*,#525,.F.) ;
#539=ORIENTED_EDGE('',*,*,#390,.F.) ;
#540=ORIENTED_EDGE('',*,*,#414,.F.) ;
#548=ORIENTED_EDGE('',*,*,#83,.T.) ;
#549=ORIENTED_EDGE('',*,*,#172,.T.) ;
#550=ORIENTED_EDGE('',*,*,#477,.T.) ;
#551=ORIENTED_EDGE('',*,*,#501,.T.) ;
#552=ORIENTED_EDGE('',*,*,#525,.T.) ;
#553=ORIENTED_EDGE('',*,*,#546,.T.) ;
#562=ORIENTED_EDGE('',*,*,#520,.F.) ;
#563=ORIENTED_EDGE('',*,*,#120,.T.) ;
#564=ORIENTED_EDGE('',*,*,#64,.T.) ;
#565=ORIENTED_EDGE('',*,*,#546,.F.) ;
#154=FACE_BOUND('',#147,.T.) ;
#297=FACE_BOUND('',#294,.T.) ;
#368=FACE_BOUND('',#365,.T.) ;
#554=FACE_BOUND('',#547,.T.) ;
#50=CLOSED_SHELL('Closed Shell',(#90,#155,#179,#210,#222,#253,#270,#298,#329,#341,#369,#409,#426,#448,#460,#484,#508,#532,#555,#567)) ;
#58=VECTOR('Line Direction',#57,1.) ;
#67=VECTOR('Line Direction',#66,1.) ;
#74=VECTOR('Line Direction',#73,1.) ;
#81=VECTOR('Line Direction',#80,1.) ;
#116=VECTOR('Line Direction',#115,1.) ;
#123=VECTOR('Line Direction',#122,1.) ;
#130=VECTOR('Line Direction',#129,1.) ;
#137=VECTOR('Line Direction',#136,1.) ;
#144=VECTOR('Line Direction',#143,1.) ;
#163=VECTOR('Line Direction',#162,1.) ;
#170=VECTOR('Line Direction',#169,1.) ;
#196=VECTOR('Line Direction',#195,1.) ;
#201=VECTOR('Line Direction',#200,1.) ;
#306=VECTOR('Line Direction',#305,1.) ;
#313=VECTOR('Line Direction',#312,1.) ;
#377=VECTOR('Line Direction',#376,1.) ;
#393=VECTOR('Line Direction',#392,1.) ;
#468=VECTOR('Line Direction',#467,1.) ;
#475=VECTOR('Line Direction',#474,1.) ;
#492=VECTOR('Line Direction',#491,1.) ;
#499=VECTOR('Line Direction',#498,1.) ;
#516=VECTOR('Line Direction',#515,1.) ;
#523=VECTOR('Line Direction',#522,1.) ;
#544=VECTOR('Line Direction',#543,1.) ;
#569=ADVANCED_BREP_SHAPE_REPRESENTATION('NONE',(#568),#45) ;
#48=SHAPE_REPRESENTATION(' ',(#47),#45) ;
#90=ADVANCED_FACE('Corps principal',(#89),#55,.T.) ;
#155=ADVANCED_FACE('Corps principal',(#113,#154),#95,.T.) ;
#179=ADVANCED_FACE('Corps principal',(#178),#160,.T.) ;
#210=ADVANCED_FACE('Corps principal',(#209),#184,.F.) ;
#222=ADVANCED_FACE('Corps principal',(#221),#184,.F.) ;
#253=ADVANCED_FACE('Corps principal',(#252),#227,.T.) ;
#270=ADVANCED_FACE('Corps principal',(#269),#258,.T.) ;
#298=ADVANCED_FACE('Corps principal',(#293,#297),#275,.T.) ;
#329=ADVANCED_FACE('Corps principal',(#328),#303,.T.) ;
#341=ADVANCED_FACE('Corps principal',(#340),#303,.T.) ;
#369=ADVANCED_FACE('Corps principal',(#350,#368),#346,.F.) ;
#409=ADVANCED_FACE('Corps principal',(#408),#374,.T.) ;
#426=ADVANCED_FACE('Corps principal',(#425),#374,.T.) ;
#448=ADVANCED_FACE('Corps principal',(#447),#431,.F.) ;
#460=ADVANCED_FACE('Corps principal',(#459),#453,.F.) ;
#484=ADVANCED_FACE('Corps principal',(#483),#465,.T.) ;
#508=ADVANCED_FACE('Corps principal',(#507),#489,.T.) ;
#532=ADVANCED_FACE('Corps principal',(#531),#513,.T.) ;
#555=ADVANCED_FACE('Corps principal',(#541,#554),#537,.F.) ;
#567=ADVANCED_FACE('Corps principal',(#566),#560,.T.) ;
#4=APPLICATION_PROTOCOL_DEFINITION('international standard','config_control_design',1994,#1) ;
#32=APPROVAL_DATE_TIME(#13,#21) ;
#568=MANIFOLD_SOLID_BREP('Corps principal',#50) ;
#11=CALENDAR_DATE(2021,20,7) ;
#30=CC_DESIGN_APPROVAL(#21,(#16,#6,#14)) ;
#18=CC_DESIGN_DATE_AND_TIME_ASSIGNMENT(#13,#17,(#16)) ;
#29=CC_DESIGN_DATE_AND_TIME_ASSIGNMENT(#13,#28,(#14)) ;
#17=DATE_TIME_ROLE('classification_date') ;
#28=DATE_TIME_ROLE('creation_date') ;
#27=CC_DESIGN_PERSON_AND_ORGANIZATION_ASSIGNMENT(#25,#26,(#16)) ;
#33=CC_DESIGN_PERSON_AND_ORGANIZATION_ASSIGNMENT(#25,#34,(#6)) ;
#35=CC_DESIGN_PERSON_AND_ORGANIZATION_ASSIGNMENT(#25,#36,(#6,#14)) ;
#37=CC_DESIGN_PERSON_AND_ORGANIZATION_ASSIGNMENT(#25,#38,(#5)) ;
#26=PERSON_AND_ORGANIZATION_ROLE('classification_officer') ;
#34=PERSON_AND_ORGANIZATION_ROLE('design_supplier') ;
#36=PERSON_AND_ORGANIZATION_ROLE('creator') ;
#38=PERSON_AND_ORGANIZATION_ROLE('design_owner') ;
#39=CC_DESIGN_SECURITY_CLASSIFICATION(#16,(#6)) ;
#99=CIRCLE('generated circle',#98,18.75) ;
#108=CIRCLE('generated circle',#107,18.75) ;
#188=CIRCLE('generated circle',#187,18.75) ;
#214=CIRCLE('generated circle',#213,18.75) ;
#231=CIRCLE('generated circle',#230,4.) ;
#238=CIRCLE('generated circle',#237,22.75) ;
#245=CIRCLE('generated circle',#244,4.) ;
#262=CIRCLE('generated circle',#261,22.75) ;
#279=CIRCLE('generated circle',#278,25.75) ;
#288=CIRCLE('generated circle',#287,25.75) ;
#321=CIRCLE('generated circle',#320,25.75) ;
#333=CIRCLE('generated circle',#332,25.75) ;
#354=CIRCLE('generated circle',#353,24.75) ;
#363=CIRCLE('generated circle',#362,24.75) ;
#387=CIRCLE('generated circle',#386,20.75) ;
#401=CIRCLE('generated circle',#400,20.75) ;
#413=CIRCLE('generated circle',#412,20.75) ;
#418=CIRCLE('generated circle',#417,20.75) ;
#435=CIRCLE('generated circle',#434,4.) ;
#440=CIRCLE('generated circle',#439,4.) ;
#570=SHAPE_REPRESENTATION_RELATIONSHIP(' ',' ',#48,#569) ;
#184=CYLINDRICAL_SURFACE('generated cylinder',#183,18.75) ;
#303=CYLINDRICAL_SURFACE('generated cylinder',#302,25.75) ;
#374=CYLINDRICAL_SURFACE('generated cylinder',#373,20.75) ;
#227=TOROIDAL_SURFACE('homeo Torus',#226,22.75,4.) ;
#258=TOROIDAL_SURFACE('homeo Torus',#257,22.75,4.) ;
#431=TOROIDAL_SURFACE('homeo Torus',#430,24.75,4.) ;
#453=TOROIDAL_SURFACE('homeo Torus',#452,24.75,4.) ;
#3=DESIGN_CONTEXT(' ',#1,'design') ;
#64=EDGE_CURVE('',#61,#63,#59,.T.) ;
#71=EDGE_CURVE('',#61,#70,#68,.T.) ;
#78=EDGE_CURVE('',#70,#77,#75,.T.) ;
#83=EDGE_CURVE('',#63,#77,#82,.T.) ;
#104=EDGE_CURVE('',#101,#103,#99,.T.) ;
#109=EDGE_CURVE('',#103,#101,#108,.T.) ;
#120=EDGE_CURVE('',#119,#61,#117,.T.) ;
#127=EDGE_CURVE('',#126,#119,#124,.T.) ;
#134=EDGE_CURVE('',#133,#126,#131,.T.) ;
#141=EDGE_CURVE('',#140,#133,#138,.T.) ;
#146=EDGE_CURVE('',#70,#140,#145,.T.) ;
#167=EDGE_CURVE('',#140,#166,#164,.T.) ;
#172=EDGE_CURVE('',#77,#166,#171,.T.) ;
#193=EDGE_CURVE('',#190,#192,#188,.T.) ;
#198=EDGE_CURVE('',#192,#103,#197,.F.) ;
#203=EDGE_CURVE('',#190,#101,#202,.F.) ;
#215=EDGE_CURVE('',#192,#190,#214,.T.) ;
#234=EDGE_CURVE('',#190,#233,#231,.F.) ;
#241=EDGE_CURVE('',#233,#240,#238,.T.) ;
#246=EDGE_CURVE('',#192,#240,#245,.F.) ;
#263=EDGE_CURVE('',#240,#233,#262,.T.) ;
#284=EDGE_CURVE('',#281,#283,#279,.T.) ;
#289=EDGE_CURVE('',#283,#281,#288,.T.) ;
#310=EDGE_CURVE('',#309,#283,#307,.T.) ;
#317=EDGE_CURVE('',#316,#281,#314,.T.) ;
#322=EDGE_CURVE('',#316,#309,#321,.T.) ;
#334=EDGE_CURVE('',#309,#316,#333,.T.) ;
#359=EDGE_CURVE('',#356,#358,#354,.F.) ;
#364=EDGE_CURVE('',#358,#356,#363,.F.) ;
#383=EDGE_CURVE('',#380,#382,#378,.T.) ;
#390=EDGE_CURVE('',#380,#389,#387,.T.) ;
#397=EDGE_CURVE('',#389,#396,#394,.T.) ;
#402=EDGE_CURVE('',#396,#382,#401,.F.) ;
#414=EDGE_CURVE('',#389,#380,#413,.T.) ;
#419=EDGE_CURVE('',#382,#396,#418,.F.) ;
#436=EDGE_CURVE('',#358,#382,#435,.T.) ;
#441=EDGE_CURVE('',#356,#396,#440,.T.) ;
#472=EDGE_CURVE('',#133,#471,#469,.T.) ;
#477=EDGE_CURVE('',#166,#471,#476,.T.) ;
#496=EDGE_CURVE('',#126,#495,#493,.T.) ;
#501=EDGE_CURVE('',#471,#495,#500,.T.) ;
#520=EDGE_CURVE('',#119,#519,#517,.T.) ;
#525=EDGE_CURVE('',#495,#519,#524,.T.) ;
#546=EDGE_CURVE('',#519,#63,#545,.T.) ;
#84=EDGE_LOOP('',(#85,#86,#87,#88)) ;
#110=EDGE_LOOP('',(#111,#112)) ;
#147=EDGE_LOOP('',(#148,#149,#150,#151,#152,#153)) ;
#173=EDGE_LOOP('',(#174,#175,#176,#177)) ;
#204=EDGE_LOOP('',(#205,#206,#207,#208)) ;
#216=EDGE_LOOP('',(#217,#218,#219,#220)) ;
#247=EDGE_LOOP('',(#248,#249,#250,#251)) ;
#264=EDGE_LOOP('',(#265,#266,#267,#268)) ;
#290=EDGE_LOOP('',(#291,#292)) ;
#294=EDGE_LOOP('',(#295,#296)) ;
#323=EDGE_LOOP('',(#324,#325,#326,#327)) ;
#335=EDGE_LOOP('',(#336,#337,#338,#339)) ;
#347=EDGE_LOOP('',(#348,#349)) ;
#365=EDGE_LOOP('',(#366,#367)) ;
#403=EDGE_LOOP('',(#404,#405,#406,#407)) ;
#420=EDGE_LOOP('',(#421,#422,#423,#424)) ;
#442=EDGE_LOOP('',(#443,#444,#445,#446)) ;
#454=EDGE_LOOP('',(#455,#456,#457,#458)) ;
#478=EDGE_LOOP('',(#479,#480,#481,#482)) ;
#502=EDGE_LOOP('',(#503,#504,#505,#506)) ;
#526=EDGE_LOOP('',(#527,#528,#529,#530)) ;
#538=EDGE_LOOP('',(#539,#540)) ;
#547=EDGE_LOOP('',(#548,#549,#550,#551,#552,#553)) ;
#561=EDGE_LOOP('',(#562,#563,#564,#565)) ;
#89=FACE_OUTER_BOUND('',#84,.T.) ;
#113=FACE_OUTER_BOUND('',#110,.T.) ;
#178=FACE_OUTER_BOUND('',#173,.T.) ;
#209=FACE_OUTER_BOUND('',#204,.T.) ;
#221=FACE_OUTER_BOUND('',#216,.T.) ;
#252=FACE_OUTER_BOUND('',#247,.T.) ;
#269=FACE_OUTER_BOUND('',#264,.T.) ;
#293=FACE_OUTER_BOUND('',#290,.T.) ;
#328=FACE_OUTER_BOUND('',#323,.T.) ;
#340=FACE_OUTER_BOUND('',#335,.T.) ;
#350=FACE_OUTER_BOUND('',#347,.T.) ;
#408=FACE_OUTER_BOUND('',#403,.T.) ;
#425=FACE_OUTER_BOUND('',#420,.T.) ;
#447=FACE_OUTER_BOUND('',#442,.T.) ;
#459=FACE_OUTER_BOUND('',#454,.T.) ;
#483=FACE_OUTER_BOUND('',#478,.T.) ;
#507=FACE_OUTER_BOUND('',#502,.T.) ;
#531=FACE_OUTER_BOUND('',#526,.T.) ;
#541=FACE_OUTER_BOUND('',#538,.T.) ;
#566=FACE_OUTER_BOUND('',#561,.T.) ;
#44=UNCERTAINTY_MEASURE_WITH_UNIT(LENGTH_MEASURE(0.005),#41,'distance_accuracy_value','CONFUSED CURVE UNCERTAINTY') ;
#59=LINE('Line',#56,#58) ;
#68=LINE('Line',#65,#67) ;
#75=LINE('Line',#72,#74) ;
#82=LINE('Line',#79,#81) ;
#117=LINE('Line',#114,#116) ;
#124=LINE('Line',#121,#123) ;
#131=LINE('Line',#128,#130) ;
#138=LINE('Line',#135,#137) ;
#145=LINE('Line',#142,#144) ;
#164=LINE('Line',#161,#163) ;
#171=LINE('Line',#168,#170) ;
#197=LINE('Line',#194,#196) ;
#202=LINE('Line',#199,#201) ;
#307=LINE('Line',#304,#306) ;
#314=LINE('Line',#311,#313) ;
#378=LINE('Line',#375,#377) ;
#394=LINE('Line',#391,#393) ;
#469=LINE('Line',#466,#468) ;
#476=LINE('Line',#473,#475) ;
#493=LINE('Line',#490,#492) ;
#500=LINE('Line',#497,#499) ;
#517=LINE('Line',#514,#516) ;
#524=LINE('Line',#521,#523) ;
#545=LINE('Line',#542,#544) ;
#2=MECHANICAL_CONTEXT(' ',#1,'mechanical') ;
#24=PERSONAL_ADDRESS(' ',' ',' ',' ',' ',' ',' ',' ',' ',' ',' ',' ',(#22),' ') ;
#55=PLANE('',#54) ;
#95=PLANE('',#94) ;
#160=PLANE('',#159) ;
#275=PLANE('',#274) ;
#346=PLANE('',#345) ;
#465=PLANE('',#464) ;
#489=PLANE('',#488) ;
#513=PLANE('',#512) ;
#537=PLANE('',#536) ;
#560=PLANE('',#559) ;
#7=PRODUCT_CATEGORY('part',$) ;
#9=PRODUCT_CATEGORY_RELATIONSHIP(' ',' ',#7,#8) ;
#6=PRODUCT_DEFINITION_FORMATION_WITH_SPECIFIED_SOURCE('',' ',#5,.NOT_KNOWN.) ;
#8=PRODUCT_RELATED_PRODUCT_CATEGORY('detail',$,(#5)) ;
#49=SHAPE_DEFINITION_REPRESENTATION(#40,#48) ;
#61=VERTEX_POINT('',#60) ;
#63=VERTEX_POINT('',#62) ;
#70=VERTEX_POINT('',#69) ;
#77=VERTEX_POINT('',#76) ;
#101=VERTEX_POINT('',#100) ;
#103=VERTEX_POINT('',#102) ;
#119=VERTEX_POINT('',#118) ;
#126=VERTEX_POINT('',#125) ;
#133=VERTEX_POINT('',#132) ;
#140=VERTEX_POINT('',#139) ;
#166=VERTEX_POINT('',#165) ;
#190=VERTEX_POINT('',#189) ;
#192=VERTEX_POINT('',#191) ;
#233=VERTEX_POINT('',#232) ;
#240=VERTEX_POINT('',#239) ;
#281=VERTEX_POINT('',#280) ;
#283=VERTEX_POINT('',#282) ;
#309=VERTEX_POINT('',#308) ;
#316=VERTEX_POINT('',#315) ;
#356=VERTEX_POINT('',#355) ;
#358=VERTEX_POINT('',#357) ;
#380=VERTEX_POINT('',#379) ;
#382=VERTEX_POINT('',#381) ;
#389=VERTEX_POINT('',#388) ;
#396=VERTEX_POINT('',#395) ;
#471=VERTEX_POINT('',#470) ;
#495=VERTEX_POINT('',#494) ;
#519=VERTEX_POINT('',#518) ;
#41=(LENGTH_UNIT()NAMED_UNIT(*)SI_UNIT(.MILLI.,.METRE.)) ;
#42=(NAMED_UNIT(*)PLANE_ANGLE_UNIT()SI_UNIT($,.RADIAN.)) ;
#43=(NAMED_UNIT(*)SI_UNIT($,.STERADIAN.)SOLID_ANGLE_UNIT()) ;
#45=(GEOMETRIC_REPRESENTATION_CONTEXT(3)GLOBAL_UNCERTAINTY_ASSIGNED_CONTEXT((#44))GLOBAL_UNIT_ASSIGNED_CONTEXT((#41,#42,#43))REPRESENTATION_CONTEXT(' ',' ')) ;
ENDSEC;
END-ISO-10303-21;
