ISO-10303-21;
HEADER;
FILE_DESCRIPTION(('CATIA V5 STEP Exchange'),'2;1');

FILE_NAME('C:\\Users\\verme\\OneDrive\\Bureau\\step\\pad acier 6mm.stp','2021-06-29T08:13:12+00:00',('none'),('none'),'CATIA Version 5 Release 17 (IN-10)','CATIA V5 STEP AP203','none');

FILE_SCHEMA(('CONFIG_CONTROL_DESIGN'));

ENDSEC;
/* file written by CATIA V5R17 */
DATA;
#5=PRODUCT('Part1','','',(#2)) ;
#1=APPLICATION_CONTEXT('configuration controlled 3D design of mechanical parts and assemblies') ;
#14=PRODUCT_DEFINITION(' ',' ',#6,#3) ;
#16=SECURITY_CLASSIFICATION(' ',' ',#15) ;
#15=SECURITY_CLASSIFICATION_LEVEL('unclassified') ;
#47=CARTESIAN_POINT(' ',(0.,0.,0.)) ;
#52=CARTESIAN_POINT('Axis2P3D Location',(3.,-10.,-15.)) ;
#57=CARTESIAN_POINT('Line Origine',(3.,-10.,-25.)) ;
#61=CARTESIAN_POINT('Vertex',(0.,-10.,-25.)) ;
#63=CARTESIAN_POINT('Vertex',(6.,-10.,-25.)) ;
#66=CARTESIAN_POINT('Axis2P3D Location',(0.,-10.,-15.)) ;
#70=CARTESIAN_POINT('Vertex',(0.,5.3290705182E-015,-15.)) ;
#73=CARTESIAN_POINT('Line Origine',(3.,5.3290705182E-015,-15.)) ;
#77=CARTESIAN_POINT('Vertex',(6.,5.3290705182E-015,-15.)) ;
#80=CARTESIAN_POINT('Axis2P3D Location',(6.,-10.,-15.)) ;
#92=CARTESIAN_POINT('Axis2P3D Location',(0.,3.30091889973E-015,17.)) ;
#97=CARTESIAN_POINT('Line Origine',(0.,3.30091889973E-015,1.)) ;
#101=CARTESIAN_POINT('Vertex',(0.,3.30091889973E-015,17.)) ;
#104=CARTESIAN_POINT('Line Origine',(3.,3.30091889973E-015,17.)) ;
#108=CARTESIAN_POINT('Vertex',(6.,3.30091889973E-015,17.)) ;
#111=CARTESIAN_POINT('Line Origine',(6.,3.30091889973E-015,1.)) ;
#123=CARTESIAN_POINT('Axis2P3D Location',(3.,-8.,17.)) ;
#128=CARTESIAN_POINT('Axis2P3D Location',(0.,-8.,17.)) ;
#132=CARTESIAN_POINT('Vertex',(0.,-8.,25.)) ;
#135=CARTESIAN_POINT('Line Origine',(3.,-8.,25.)) ;
#139=CARTESIAN_POINT('Vertex',(6.,-8.,25.)) ;
#142=CARTESIAN_POINT('Axis2P3D Location',(6.,-8.,17.)) ;
#154=CARTESIAN_POINT('Axis2P3D Location',(0.,-8.,25.)) ;
#159=CARTESIAN_POINT('Line Origine',(0.,-11.5,25.)) ;
#163=CARTESIAN_POINT('Vertex',(0.,-15.,25.)) ;
#166=CARTESIAN_POINT('Line Origine',(3.,-15.,25.)) ;
#170=CARTESIAN_POINT('Vertex',(6.,-15.,25.)) ;
#173=CARTESIAN_POINT('Line Origine',(6.,-11.5,25.)) ;
#185=CARTESIAN_POINT('Axis2P3D Location',(3.,-15.,19.)) ;
#190=CARTESIAN_POINT('Axis2P3D Location',(0.,-15.,19.)) ;
#194=CARTESIAN_POINT('Vertex',(0.,-20.1961524227,22.)) ;
#197=CARTESIAN_POINT('Line Origine',(3.,-20.1961524227,22.)) ;
#201=CARTESIAN_POINT('Vertex',(6.,-20.1961524227,22.)) ;
#204=CARTESIAN_POINT('Axis2P3D Location',(6.,-15.,19.)) ;
#216=CARTESIAN_POINT('Axis2P3D Location',(0.,-31.5783870175,2.2853913781)) ;
#221=CARTESIAN_POINT('Line Origine',(0.,-25.8872697201,12.1426956891)) ;
#225=CARTESIAN_POINT('Vertex',(0.,-31.5783870175,2.2853913781)) ;
#228=CARTESIAN_POINT('Line Origine',(3.,-31.5783870175,2.2853913781)) ;
#232=CARTESIAN_POINT('Vertex',(6.,-31.5783870175,2.2853913781)) ;
#235=CARTESIAN_POINT('Line Origine',(6.,-25.8872697201,12.1426956891)) ;
#247=CARTESIAN_POINT('Axis2P3D Location',(3.,-21.1860821721,-3.7146086219)) ;
#252=CARTESIAN_POINT('Axis2P3D Location',(0.,-21.1860821721,-3.7146086219)) ;
#256=CARTESIAN_POINT('Vertex',(0.,-29.05879052,-12.7711235846)) ;
#259=CARTESIAN_POINT('Line Origine',(3.,-29.05879052,-12.7711235846)) ;
#263=CARTESIAN_POINT('Vertex',(6.,-29.05879052,-12.7711235846)) ;
#266=CARTESIAN_POINT('Axis2P3D Location',(6.,-21.1860821721,-3.7146086219)) ;
#278=CARTESIAN_POINT('Axis2P3D Location',(0.,-17.2484722319,-23.0376766418)) ;
#283=CARTESIAN_POINT('Line Origine',(0.,-23.153631376,-17.9044001132)) ;
#287=CARTESIAN_POINT('Vertex',(0.,-17.2484722319,-23.0376766418)) ;
#290=CARTESIAN_POINT('Line Origine',(3.,-17.2484722319,-23.0376766418)) ;
#294=CARTESIAN_POINT('Vertex',(6.,-17.2484722319,-23.0376766418)) ;
#297=CARTESIAN_POINT('Line Origine',(6.,-23.153631376,-17.9044001132)) ;
#309=CARTESIAN_POINT('Axis2P3D Location',(3.,-12.,-17.)) ;
#314=CARTESIAN_POINT('Axis2P3D Location',(0.,-12.,-17.)) ;
#318=CARTESIAN_POINT('Vertex',(0.,-12.,-25.)) ;
#321=CARTESIAN_POINT('Line Origine',(3.,-12.,-25.)) ;
#325=CARTESIAN_POINT('Vertex',(6.,-12.,-25.)) ;
#328=CARTESIAN_POINT('Axis2P3D Location',(6.,-12.,-17.)) ;
#340=CARTESIAN_POINT('Axis2P3D Location',(0.,-10.,-25.)) ;
#345=CARTESIAN_POINT('Line Origine',(0.,-11.,-25.)) ;
#350=CARTESIAN_POINT('Line Origine',(6.,-11.,-25.)) ;
#362=CARTESIAN_POINT('Axis2P3D Location',(0.,0.,0.)) ;
#380=CARTESIAN_POINT('Axis2P3D Location',(6.,0.,0.)) ;
#53=DIRECTION('Axis2P3D Direction',(1.,0.,0.)) ;
#54=DIRECTION('Axis2P3D XDirection',(0.,7.04487466627E-016,-1.)) ;
#58=DIRECTION('Vector Direction',(1.,0.,0.)) ;
#67=DIRECTION('Axis2P3D Direction',(1.,0.,0.)) ;
#74=DIRECTION('Vector Direction',(1.,0.,0.)) ;
#81=DIRECTION('Axis2P3D Direction',(1.,0.,0.)) ;
#93=DIRECTION('Axis2P3D Direction',(0.,-1.,0.)) ;
#94=DIRECTION('Axis2P3D XDirection',(0.,0.,-1.)) ;
#98=DIRECTION('Vector Direction',(0.,0.,-1.)) ;
#105=DIRECTION('Vector Direction',(1.,0.,0.)) ;
#112=DIRECTION('Vector Direction',(0.,0.,-1.)) ;
#124=DIRECTION('Axis2P3D Direction',(1.,0.,0.)) ;
#125=DIRECTION('Axis2P3D XDirection',(0.,1.,4.4408920985E-016)) ;
#129=DIRECTION('Axis2P3D Direction',(1.,0.,0.)) ;
#136=DIRECTION('Vector Direction',(1.,0.,0.)) ;
#143=DIRECTION('Axis2P3D Direction',(1.,0.,0.)) ;
#155=DIRECTION('Axis2P3D Direction',(0.,0.,1.)) ;
#156=DIRECTION('Axis2P3D XDirection',(0.,-1.,0.)) ;
#160=DIRECTION('Vector Direction',(0.,-1.,0.)) ;
#167=DIRECTION('Vector Direction',(1.,0.,0.)) ;
#174=DIRECTION('Vector Direction',(0.,-1.,0.)) ;
#186=DIRECTION('Axis2P3D Direction',(1.,0.,0.)) ;
#187=DIRECTION('Axis2P3D XDirection',(0.,7.27364132466E-016,1.)) ;
#191=DIRECTION('Axis2P3D Direction',(1.,0.,0.)) ;
#198=DIRECTION('Vector Direction',(1.,0.,0.)) ;
#205=DIRECTION('Axis2P3D Direction',(1.,0.,0.)) ;
#217=DIRECTION('Axis2P3D Direction',(0.,0.866025403784,-0.5)) ;
#218=DIRECTION('Axis2P3D XDirection',(0.,0.5,0.866025403784)) ;
#222=DIRECTION('Vector Direction',(0.,0.5,0.866025403784)) ;
#229=DIRECTION('Vector Direction',(1.,0.,0.)) ;
#236=DIRECTION('Vector Direction',(0.,0.5,0.866025403784)) ;
#248=DIRECTION('Axis2P3D Direction',(1.,0.,0.)) ;
#249=DIRECTION('Axis2P3D XDirection',(0.,-0.866025403784,0.5)) ;
#253=DIRECTION('Axis2P3D Direction',(1.,0.,0.)) ;
#260=DIRECTION('Vector Direction',(1.,0.,0.)) ;
#267=DIRECTION('Axis2P3D Direction',(1.,0.,0.)) ;
#279=DIRECTION('Axis2P3D Direction',(0.,0.656059028991,0.754709580223)) ;
#280=DIRECTION('Axis2P3D XDirection',(0.,-0.754709580223,0.656059028991)) ;
#284=DIRECTION('Vector Direction',(0.,-0.754709580223,0.656059028991)) ;
#291=DIRECTION('Vector Direction',(1.,0.,0.)) ;
#298=DIRECTION('Vector Direction',(0.,-0.754709580223,0.656059028991)) ;
#310=DIRECTION('Axis2P3D Direction',(1.,0.,0.)) ;
#311=DIRECTION('Axis2P3D XDirection',(0.,-0.656059028991,-0.754709580223)) ;
#315=DIRECTION('Axis2P3D Direction',(1.,0.,0.)) ;
#322=DIRECTION('Vector Direction',(1.,0.,0.)) ;
#329=DIRECTION('Axis2P3D Direction',(1.,0.,0.)) ;
#341=DIRECTION('Axis2P3D Direction',(0.,0.,1.)) ;
#342=DIRECTION('Axis2P3D XDirection',(0.,-1.,0.)) ;
#346=DIRECTION('Vector Direction',(0.,-1.,0.)) ;
#351=DIRECTION('Vector Direction',(0.,-1.,0.)) ;
#363=DIRECTION('Axis2P3D Direction',(1.,0.,0.)) ;
#364=DIRECTION('Axis2P3D XDirection',(0.,1.,0.)) ;
#381=DIRECTION('Axis2P3D Direction',(1.,0.,0.)) ;
#382=DIRECTION('Axis2P3D XDirection',(0.,1.,0.)) ;
#48=AXIS2_PLACEMENT_3D(' ',#47,$,$) ;
#55=AXIS2_PLACEMENT_3D('Cylinder Axis2P3D',#52,#53,#54) ;
#68=AXIS2_PLACEMENT_3D('Circle Axis2P3D',#66,#67,$) ;
#82=AXIS2_PLACEMENT_3D('Circle Axis2P3D',#80,#81,$) ;
#95=AXIS2_PLACEMENT_3D('Plane Axis2P3D',#92,#93,#94) ;
#126=AXIS2_PLACEMENT_3D('Cylinder Axis2P3D',#123,#124,#125) ;
#130=AXIS2_PLACEMENT_3D('Circle Axis2P3D',#128,#129,$) ;
#144=AXIS2_PLACEMENT_3D('Circle Axis2P3D',#142,#143,$) ;
#157=AXIS2_PLACEMENT_3D('Plane Axis2P3D',#154,#155,#156) ;
#188=AXIS2_PLACEMENT_3D('Cylinder Axis2P3D',#185,#186,#187) ;
#192=AXIS2_PLACEMENT_3D('Circle Axis2P3D',#190,#191,$) ;
#206=AXIS2_PLACEMENT_3D('Circle Axis2P3D',#204,#205,$) ;
#219=AXIS2_PLACEMENT_3D('Plane Axis2P3D',#216,#217,#218) ;
#250=AXIS2_PLACEMENT_3D('Cylinder Axis2P3D',#247,#248,#249) ;
#254=AXIS2_PLACEMENT_3D('Circle Axis2P3D',#252,#253,$) ;
#268=AXIS2_PLACEMENT_3D('Circle Axis2P3D',#266,#267,$) ;
#281=AXIS2_PLACEMENT_3D('Plane Axis2P3D',#278,#279,#280) ;
#312=AXIS2_PLACEMENT_3D('Cylinder Axis2P3D',#309,#310,#311) ;
#316=AXIS2_PLACEMENT_3D('Circle Axis2P3D',#314,#315,$) ;
#330=AXIS2_PLACEMENT_3D('Circle Axis2P3D',#328,#329,$) ;
#343=AXIS2_PLACEMENT_3D('Plane Axis2P3D',#340,#341,#342) ;
#365=AXIS2_PLACEMENT_3D('Plane Axis2P3D',#362,#363,#364) ;
#383=AXIS2_PLACEMENT_3D('Plane Axis2P3D',#380,#381,#382) ;
#40=PRODUCT_DEFINITION_SHAPE(' ',' ',#14) ;
#31=APPROVAL_PERSON_ORGANIZATION(#25,#21,#19) ;
#25=PERSON_AND_ORGANIZATION(#22,#23) ;
#22=PERSON(' ',' ',' ',$,$,$) ;
#23=ORGANIZATION(' ',' ',' ') ;
#21=APPROVAL(#20,' ') ;
#20=APPROVAL_STATUS('not_yet_approved') ;
#19=APPROVAL_ROLE('APPROVER') ;
#13=DATE_AND_TIME(#11,#12) ;
#12=LOCAL_TIME(10,13,12.,#10) ;
#10=COORDINATED_UNIVERSAL_TIME_OFFSET(0,0,.AHEAD.) ;
#86=ORIENTED_EDGE('',*,*,#65,.F.) ;
#87=ORIENTED_EDGE('',*,*,#72,.T.) ;
#88=ORIENTED_EDGE('',*,*,#79,.T.) ;
#89=ORIENTED_EDGE('',*,*,#84,.F.) ;
#117=ORIENTED_EDGE('',*,*,#79,.F.) ;
#118=ORIENTED_EDGE('',*,*,#103,.T.) ;
#119=ORIENTED_EDGE('',*,*,#110,.T.) ;
#120=ORIENTED_EDGE('',*,*,#115,.F.) ;
#148=ORIENTED_EDGE('',*,*,#110,.F.) ;
#149=ORIENTED_EDGE('',*,*,#134,.T.) ;
#150=ORIENTED_EDGE('',*,*,#141,.T.) ;
#151=ORIENTED_EDGE('',*,*,#146,.F.) ;
#179=ORIENTED_EDGE('',*,*,#141,.F.) ;
#180=ORIENTED_EDGE('',*,*,#165,.T.) ;
#181=ORIENTED_EDGE('',*,*,#172,.T.) ;
#182=ORIENTED_EDGE('',*,*,#177,.F.) ;
#210=ORIENTED_EDGE('',*,*,#172,.F.) ;
#211=ORIENTED_EDGE('',*,*,#196,.T.) ;
#212=ORIENTED_EDGE('',*,*,#203,.T.) ;
#213=ORIENTED_EDGE('',*,*,#208,.F.) ;
#241=ORIENTED_EDGE('',*,*,#203,.F.) ;
#242=ORIENTED_EDGE('',*,*,#227,.T.) ;
#243=ORIENTED_EDGE('',*,*,#234,.T.) ;
#244=ORIENTED_EDGE('',*,*,#239,.F.) ;
#272=ORIENTED_EDGE('',*,*,#234,.F.) ;
#273=ORIENTED_EDGE('',*,*,#258,.T.) ;
#274=ORIENTED_EDGE('',*,*,#265,.T.) ;
#275=ORIENTED_EDGE('',*,*,#270,.F.) ;
#303=ORIENTED_EDGE('',*,*,#265,.F.) ;
#304=ORIENTED_EDGE('',*,*,#289,.T.) ;
#305=ORIENTED_EDGE('',*,*,#296,.T.) ;
#306=ORIENTED_EDGE('',*,*,#301,.F.) ;
#334=ORIENTED_EDGE('',*,*,#296,.F.) ;
#335=ORIENTED_EDGE('',*,*,#320,.T.) ;
#336=ORIENTED_EDGE('',*,*,#327,.T.) ;
#337=ORIENTED_EDGE('',*,*,#332,.F.) ;
#356=ORIENTED_EDGE('',*,*,#327,.F.) ;
#357=ORIENTED_EDGE('',*,*,#349,.T.) ;
#358=ORIENTED_EDGE('',*,*,#65,.T.) ;
#359=ORIENTED_EDGE('',*,*,#354,.F.) ;
#368=ORIENTED_EDGE('',*,*,#349,.F.) ;
#369=ORIENTED_EDGE('',*,*,#320,.F.) ;
#370=ORIENTED_EDGE('',*,*,#289,.F.) ;
#371=ORIENTED_EDGE('',*,*,#258,.F.) ;
#372=ORIENTED_EDGE('',*,*,#227,.F.) ;
#373=ORIENTED_EDGE('',*,*,#196,.F.) ;
#374=ORIENTED_EDGE('',*,*,#165,.F.) ;
#375=ORIENTED_EDGE('',*,*,#134,.F.) ;
#376=ORIENTED_EDGE('',*,*,#103,.F.) ;
#377=ORIENTED_EDGE('',*,*,#72,.F.) ;
#386=ORIENTED_EDGE('',*,*,#84,.T.) ;
#387=ORIENTED_EDGE('',*,*,#115,.T.) ;
#388=ORIENTED_EDGE('',*,*,#146,.T.) ;
#389=ORIENTED_EDGE('',*,*,#177,.T.) ;
#390=ORIENTED_EDGE('',*,*,#208,.T.) ;
#391=ORIENTED_EDGE('',*,*,#239,.T.) ;
#392=ORIENTED_EDGE('',*,*,#270,.T.) ;
#393=ORIENTED_EDGE('',*,*,#301,.T.) ;
#394=ORIENTED_EDGE('',*,*,#332,.T.) ;
#395=ORIENTED_EDGE('',*,*,#354,.T.) ;
#51=CLOSED_SHELL('Closed Shell',(#91,#122,#153,#184,#215,#246,#277,#308,#339,#361,#379,#397)) ;
#59=VECTOR('Line Direction',#58,1.) ;
#75=VECTOR('Line Direction',#74,1.) ;
#99=VECTOR('Line Direction',#98,1.) ;
#106=VECTOR('Line Direction',#105,1.) ;
#113=VECTOR('Line Direction',#112,1.) ;
#137=VECTOR('Line Direction',#136,1.) ;
#161=VECTOR('Line Direction',#160,1.) ;
#168=VECTOR('Line Direction',#167,1.) ;
#175=VECTOR('Line Direction',#174,1.) ;
#199=VECTOR('Line Direction',#198,1.) ;
#223=VECTOR('Line Direction',#222,1.) ;
#230=VECTOR('Line Direction',#229,1.) ;
#237=VECTOR('Line Direction',#236,1.) ;
#261=VECTOR('Line Direction',#260,1.) ;
#285=VECTOR('Line Direction',#284,1.) ;
#292=VECTOR('Line Direction',#291,1.) ;
#299=VECTOR('Line Direction',#298,1.) ;
#323=VECTOR('Line Direction',#322,1.) ;
#347=VECTOR('Line Direction',#346,1.) ;
#352=VECTOR('Line Direction',#351,1.) ;
#399=ADVANCED_BREP_SHAPE_REPRESENTATION('NONE',(#398),#46) ;
#49=SHAPE_REPRESENTATION(' ',(#48),#46) ;
#91=ADVANCED_FACE('',(#90),#56,.T.) ;
#122=ADVANCED_FACE('',(#121),#96,.F.) ;
#153=ADVANCED_FACE('',(#152),#127,.T.) ;
#184=ADVANCED_FACE('',(#183),#158,.T.) ;
#215=ADVANCED_FACE('',(#214),#189,.T.) ;
#246=ADVANCED_FACE('',(#245),#220,.F.) ;
#277=ADVANCED_FACE('',(#276),#251,.T.) ;
#308=ADVANCED_FACE('',(#307),#282,.F.) ;
#339=ADVANCED_FACE('',(#338),#313,.T.) ;
#361=ADVANCED_FACE('',(#360),#344,.F.) ;
#379=ADVANCED_FACE('',(#378),#366,.F.) ;
#397=ADVANCED_FACE('',(#396),#384,.T.) ;
#4=APPLICATION_PROTOCOL_DEFINITION('international standard','config_control_design',1994,#1) ;
#32=APPROVAL_DATE_TIME(#13,#21) ;
#398=MANIFOLD_SOLID_BREP('Corps principal',#51) ;
#11=CALENDAR_DATE(2021,29,6) ;
#30=CC_DESIGN_APPROVAL(#21,(#16,#6,#14)) ;
#18=CC_DESIGN_DATE_AND_TIME_ASSIGNMENT(#13,#17,(#16)) ;
#29=CC_DESIGN_DATE_AND_TIME_ASSIGNMENT(#13,#28,(#14)) ;
#17=DATE_TIME_ROLE('classification_date') ;
#28=DATE_TIME_ROLE('creation_date') ;
#27=CC_DESIGN_PERSON_AND_ORGANIZATION_ASSIGNMENT(#25,#26,(#16)) ;
#33=CC_DESIGN_PERSON_AND_ORGANIZATION_ASSIGNMENT(#25,#34,(#6)) ;
#35=CC_DESIGN_PERSON_AND_ORGANIZATION_ASSIGNMENT(#25,#36,(#6,#14)) ;
#37=CC_DESIGN_PERSON_AND_ORGANIZATION_ASSIGNMENT(#25,#38,(#5)) ;
#26=PERSON_AND_ORGANIZATION_ROLE('classification_officer') ;
#34=PERSON_AND_ORGANIZATION_ROLE('design_supplier') ;
#36=PERSON_AND_ORGANIZATION_ROLE('creator') ;
#38=PERSON_AND_ORGANIZATION_ROLE('design_owner') ;
#39=CC_DESIGN_SECURITY_CLASSIFICATION(#16,(#6)) ;
#69=CIRCLE('generated circle',#68,10.) ;
#83=CIRCLE('generated circle',#82,10.) ;
#131=CIRCLE('generated circle',#130,8.) ;
#145=CIRCLE('generated circle',#144,8.) ;
#193=CIRCLE('generated circle',#192,6.) ;
#207=CIRCLE('generated circle',#206,6.) ;
#255=CIRCLE('generated circle',#254,12.) ;
#269=CIRCLE('generated circle',#268,12.) ;
#317=CIRCLE('generated circle',#316,8.) ;
#331=CIRCLE('generated circle',#330,8.) ;
#400=SHAPE_REPRESENTATION_RELATIONSHIP(' ',' ',#49,#399) ;
#56=CYLINDRICAL_SURFACE('generated cylinder',#55,10.) ;
#127=CYLINDRICAL_SURFACE('generated cylinder',#126,8.) ;
#189=CYLINDRICAL_SURFACE('generated cylinder',#188,6.) ;
#251=CYLINDRICAL_SURFACE('generated cylinder',#250,12.) ;
#313=CYLINDRICAL_SURFACE('generated cylinder',#312,8.) ;
#3=DESIGN_CONTEXT(' ',#1,'design') ;
#65=EDGE_CURVE('',#62,#64,#60,.T.) ;
#72=EDGE_CURVE('',#62,#71,#69,.T.) ;
#79=EDGE_CURVE('',#71,#78,#76,.T.) ;
#84=EDGE_CURVE('',#64,#78,#83,.T.) ;
#103=EDGE_CURVE('',#71,#102,#100,.F.) ;
#110=EDGE_CURVE('',#102,#109,#107,.T.) ;
#115=EDGE_CURVE('',#78,#109,#114,.F.) ;
#134=EDGE_CURVE('',#102,#133,#131,.T.) ;
#141=EDGE_CURVE('',#133,#140,#138,.T.) ;
#146=EDGE_CURVE('',#109,#140,#145,.T.) ;
#165=EDGE_CURVE('',#133,#164,#162,.T.) ;
#172=EDGE_CURVE('',#164,#171,#169,.T.) ;
#177=EDGE_CURVE('',#140,#171,#176,.T.) ;
#196=EDGE_CURVE('',#164,#195,#193,.T.) ;
#203=EDGE_CURVE('',#195,#202,#200,.T.) ;
#208=EDGE_CURVE('',#171,#202,#207,.T.) ;
#227=EDGE_CURVE('',#195,#226,#224,.F.) ;
#234=EDGE_CURVE('',#226,#233,#231,.T.) ;
#239=EDGE_CURVE('',#202,#233,#238,.F.) ;
#258=EDGE_CURVE('',#226,#257,#255,.T.) ;
#265=EDGE_CURVE('',#257,#264,#262,.T.) ;
#270=EDGE_CURVE('',#233,#264,#269,.T.) ;
#289=EDGE_CURVE('',#257,#288,#286,.F.) ;
#296=EDGE_CURVE('',#288,#295,#293,.T.) ;
#301=EDGE_CURVE('',#264,#295,#300,.F.) ;
#320=EDGE_CURVE('',#288,#319,#317,.T.) ;
#327=EDGE_CURVE('',#319,#326,#324,.T.) ;
#332=EDGE_CURVE('',#295,#326,#331,.T.) ;
#349=EDGE_CURVE('',#319,#62,#348,.F.) ;
#354=EDGE_CURVE('',#326,#64,#353,.F.) ;
#85=EDGE_LOOP('',(#86,#87,#88,#89)) ;
#116=EDGE_LOOP('',(#117,#118,#119,#120)) ;
#147=EDGE_LOOP('',(#148,#149,#150,#151)) ;
#178=EDGE_LOOP('',(#179,#180,#181,#182)) ;
#209=EDGE_LOOP('',(#210,#211,#212,#213)) ;
#240=EDGE_LOOP('',(#241,#242,#243,#244)) ;
#271=EDGE_LOOP('',(#272,#273,#274,#275)) ;
#302=EDGE_LOOP('',(#303,#304,#305,#306)) ;
#333=EDGE_LOOP('',(#334,#335,#336,#337)) ;
#355=EDGE_LOOP('',(#356,#357,#358,#359)) ;
#367=EDGE_LOOP('',(#368,#369,#370,#371,#372,#373,#374,#375,#376,#377)) ;
#385=EDGE_LOOP('',(#386,#387,#388,#389,#390,#391,#392,#393,#394,#395)) ;
#90=FACE_OUTER_BOUND('',#85,.T.) ;
#121=FACE_OUTER_BOUND('',#116,.T.) ;
#152=FACE_OUTER_BOUND('',#147,.T.) ;
#183=FACE_OUTER_BOUND('',#178,.T.) ;
#214=FACE_OUTER_BOUND('',#209,.T.) ;
#245=FACE_OUTER_BOUND('',#240,.T.) ;
#276=FACE_OUTER_BOUND('',#271,.T.) ;
#307=FACE_OUTER_BOUND('',#302,.T.) ;
#338=FACE_OUTER_BOUND('',#333,.T.) ;
#360=FACE_OUTER_BOUND('',#355,.T.) ;
#378=FACE_OUTER_BOUND('',#367,.T.) ;
#396=FACE_OUTER_BOUND('',#385,.T.) ;
#45=UNCERTAINTY_MEASURE_WITH_UNIT(LENGTH_MEASURE(0.005),#41,'distance_accuracy_value','CONFUSED CURVE UNCERTAINTY') ;
#60=LINE('Line',#57,#59) ;
#76=LINE('Line',#73,#75) ;
#100=LINE('Line',#97,#99) ;
#107=LINE('Line',#104,#106) ;
#114=LINE('Line',#111,#113) ;
#138=LINE('Line',#135,#137) ;
#162=LINE('Line',#159,#161) ;
#169=LINE('Line',#166,#168) ;
#176=LINE('Line',#173,#175) ;
#200=LINE('Line',#197,#199) ;
#224=LINE('Line',#221,#223) ;
#231=LINE('Line',#228,#230) ;
#238=LINE('Line',#235,#237) ;
#262=LINE('Line',#259,#261) ;
#286=LINE('Line',#283,#285) ;
#293=LINE('Line',#290,#292) ;
#300=LINE('Line',#297,#299) ;
#324=LINE('Line',#321,#323) ;
#348=LINE('Line',#345,#347) ;
#353=LINE('Line',#350,#352) ;
#2=MECHANICAL_CONTEXT(' ',#1,'mechanical') ;
#24=PERSONAL_ADDRESS(' ',' ',' ',' ',' ',' ',' ',' ',' ',' ',' ',' ',(#22),' ') ;
#96=PLANE('Plane',#95) ;
#158=PLANE('Plane',#157) ;
#220=PLANE('Plane',#219) ;
#282=PLANE('Plane',#281) ;
#344=PLANE('Plane',#343) ;
#366=PLANE('Plane',#365) ;
#384=PLANE('Plane',#383) ;
#43=PLANE_ANGLE_MEASURE_WITH_UNIT(PLANE_ANGLE_MEASURE(0.0174532925199),#42) ;
#7=PRODUCT_CATEGORY('part',$) ;
#9=PRODUCT_CATEGORY_RELATIONSHIP(' ',' ',#7,#8) ;
#6=PRODUCT_DEFINITION_FORMATION_WITH_SPECIFIED_SOURCE('',' ',#5,.NOT_KNOWN.) ;
#8=PRODUCT_RELATED_PRODUCT_CATEGORY('detail',$,(#5)) ;
#50=SHAPE_DEFINITION_REPRESENTATION(#40,#49) ;
#62=VERTEX_POINT('',#61) ;
#64=VERTEX_POINT('',#63) ;
#71=VERTEX_POINT('',#70) ;
#78=VERTEX_POINT('',#77) ;
#102=VERTEX_POINT('',#101) ;
#109=VERTEX_POINT('',#108) ;
#133=VERTEX_POINT('',#132) ;
#140=VERTEX_POINT('',#139) ;
#164=VERTEX_POINT('',#163) ;
#171=VERTEX_POINT('',#170) ;
#195=VERTEX_POINT('',#194) ;
#202=VERTEX_POINT('',#201) ;
#226=VERTEX_POINT('',#225) ;
#233=VERTEX_POINT('',#232) ;
#257=VERTEX_POINT('',#256) ;
#264=VERTEX_POINT('',#263) ;
#288=VERTEX_POINT('',#287) ;
#295=VERTEX_POINT('',#294) ;
#319=VERTEX_POINT('',#318) ;
#326=VERTEX_POINT('',#325) ;
#41=(LENGTH_UNIT()NAMED_UNIT(*)SI_UNIT(.MILLI.,.METRE.)) ;
#42=(NAMED_UNIT(*)PLANE_ANGLE_UNIT()SI_UNIT($,.RADIAN.)) ;
#44=(NAMED_UNIT(*)SI_UNIT($,.STERADIAN.)SOLID_ANGLE_UNIT()) ;
#46=(GEOMETRIC_REPRESENTATION_CONTEXT(3)GLOBAL_UNCERTAINTY_ASSIGNED_CONTEXT((#45))GLOBAL_UNIT_ASSIGNED_CONTEXT((#41,#42,#44))REPRESENTATION_CONTEXT(' ',' ')) ;
ENDSEC;
END-ISO-10303-21;
