ISO-10303-21;
HEADER;
FILE_DESCRIPTION (( 'STEP AP203' ),
    '1' );
FILE_NAME ('manchon70-69.STEP',
    '2021-06-11T16:48:35',
    ( 'omR' ),
    ( '' ),
    'SwSTEP 2.0',
    'SolidWorks 2016',
    '' );
FILE_SCHEMA (( 'CONFIG_CONTROL_DESIGN' ));
ENDSEC;

DATA;
#1 = ORIENTED_EDGE ( 'NONE', *, *, #269, .T. ) ;
#2 = AXIS2_PLACEMENT_3D ( 'NONE', #160, #321, #104 ) ;
#3 = AXIS2_PLACEMENT_3D ( 'NONE', #166, #67, #260 ) ;
#4 = ORIENTED_EDGE ( 'NONE', *, *, #236, .T. ) ;
#5 = AXIS2_PLACEMENT_3D ( 'NONE', #307, #79, #157 ) ;
#6 = CYLINDRICAL_SURFACE ( 'NONE', #24, 35.00000000000000700 ) ;
#7 = SECURITY_CLASSIFICATION_LEVEL ( 'unclassified' ) ;
#8 = VECTOR ( 'NONE', #210, 1000.000000000000000 ) ;
#9 = ORIENTED_EDGE ( 'NONE', *, *, #243, .F. ) ;
#10 = CARTESIAN_POINT ( 'NONE',  ( 0.0000000000000000000, 0.0000000000000000000, 190.0000000000000300 ) ) ;
#11 = APPROVAL_DATE_TIME ( #196, #32 ) ;
#12 = CARTESIAN_POINT ( 'NONE',  ( -31.80000000000000800, 0.0000000000000000000, 0.0000000000000000000 ) ) ;
#13 = CC_DESIGN_APPROVAL ( #328, ( #26 ) ) ;
#14 = LINE ( 'NONE', #20, #246 ) ;
#15 = ORIENTED_EDGE ( 'NONE', *, *, #302, .F. ) ;
#16 = DIRECTION ( 'NONE',  ( 0.0000000000000000000, 0.0000000000000000000, -1.000000000000000000 ) ) ;
#17 = DIRECTION ( 'NONE',  ( 1.000000000000000000, 0.0000000000000000000, 0.0000000000000000000 ) ) ;
#18 = LINE ( 'NONE', #255, #8 ) ;
#19 = MECHANICAL_CONTEXT ( 'NONE', #308, 'mechanical' ) ;
#20 = CARTESIAN_POINT ( 'NONE',  ( 31.80000000000000800, 3.894376821288584300E-015, 350.0000000000000000 ) ) ;
#21 = ORIENTED_EDGE ( 'NONE', *, *, #142, .F. ) ;
#22 = APPROVAL_PERSON_ORGANIZATION ( #229, #328, #159 ) ;
#23 = FACE_OUTER_BOUND ( 'NONE', #76, .T. ) ;
#24 = AXIS2_PLACEMENT_3D ( 'NONE', #127, #309, #60 ) ;
#25 = ORIENTED_EDGE ( 'NONE', *, *, #87, .F. ) ;
#26 = PRODUCT_DEFINITION_FORMATION_WITH_SPECIFIED_SOURCE ( 'ANY', '', #298, .NOT_KNOWN. ) ;
#27 = CALENDAR_DATE ( 2021, 11, 6 ) ;
#28 = EDGE_LOOP ( 'NONE', ( #131, #4, #92, #168 ) ) ;
#29 = VERTEX_POINT ( 'NONE', #272 ) ;
#30 = CARTESIAN_POINT ( 'NONE',  ( 0.0000000000000000000, 0.0000000000000000000, 190.0000000000000300 ) ) ;
#31 = AXIS2_PLACEMENT_3D ( 'NONE', #39, #278, #106 ) ;
#32 = APPROVAL ( #114, 'UNSPECIFIED' ) ;
#33 = DIRECTION ( 'NONE',  ( -1.000000000000000000, 0.0000000000000000000, 0.0000000000000000000 ) ) ;
#34 = CARTESIAN_POINT ( 'NONE',  ( -34.49999999999999300, 0.0000000000000000000, 190.0000000000000300 ) ) ;
#35 = DIRECTION ( 'NONE',  ( -0.0000000000000000000, -0.0000000000000000000, -1.000000000000000000 ) ) ;
#36 = LOCAL_TIME ( 18, 48, 35.00000000000000000, #169 ) ;
#37 = DIRECTION ( 'NONE',  ( 1.000000000000000000, 0.0000000000000000000, 0.0000000000000000000 ) ) ;
#38 = DATE_AND_TIME ( #305, #71 ) ;
#39 = CARTESIAN_POINT ( 'NONE',  ( 0.0000000000000000000, 0.0000000000000000000, 350.0000000000000000 ) ) ;
#40 = VERTEX_POINT ( 'NONE', #201 ) ;
#41 = ORIENTED_EDGE ( 'NONE', *, *, #236, .F. ) ;
#42 = APPROVAL_ROLE ( '' ) ;
#43 = LINE ( 'NONE', #112, #199 ) ;
#44 = PERSON_AND_ORGANIZATION_ROLE ( 'classification_officer' ) ;
#45 = AXIS2_PLACEMENT_3D ( 'NONE', #262, #186, #259 ) ;
#46 = DIRECTION ( 'NONE',  ( -1.000000000000000000, 0.0000000000000000000, 0.0000000000000000000 ) ) ;
#47 = CARTESIAN_POINT ( 'NONE',  ( 34.49999999999999300, 4.225031457058367300E-015, 0.0000000000000000000 ) ) ;
#48 = CARTESIAN_POINT ( 'NONE',  ( 0.0000000000000000000, 0.0000000000000000000, 0.0000000000000000000 ) ) ;
#49 = COORDINATED_UNIVERSAL_TIME_OFFSET ( 1, 0, .AHEAD. ) ;
#50 = CC_DESIGN_DATE_AND_TIME_ASSIGNMENT ( #83, #293, ( #297 ) ) ;
#51 = PERSON ( 'UNSPECIFIED', 'UNSPECIFIED', 'UNSPECIFIED', ('UNSPECIFIED'), ('UNSPECIFIED'), ('UNSPECIFIED') ) ;
#52 = CIRCLE ( 'NONE', #90, 31.80000000000000800 ) ;
#53 = FACE_BOUND ( 'NONE', #277, .T. ) ;
#54 = AXIS2_PLACEMENT_3D ( 'NONE', #156, #65, #130 ) ;
#55 = CC_DESIGN_PERSON_AND_ORGANIZATION_ASSIGNMENT ( #264, #286, ( #297 ) ) ;
#56 = ORIENTED_EDGE ( 'NONE', *, *, #243, .T. ) ;
#57 = CALENDAR_DATE ( 2021, 11, 6 ) ;
#58 = EDGE_CURVE ( 'NONE', #271, #290, #220, .T. ) ;
#59 = ORIENTED_EDGE ( 'NONE', *, *, #225, .F. ) ;
#60 = DIRECTION ( 'NONE',  ( -1.000000000000000000, 0.0000000000000000000, 0.0000000000000000000 ) ) ;
#61 = FACE_OUTER_BOUND ( 'NONE', #125, .T. ) ;
#62 = ORIENTED_EDGE ( 'NONE', *, *, #269, .F. ) ;
#63 = SECURITY_CLASSIFICATION ( '', '', #7 ) ;
#64 = DIRECTION ( 'NONE',  ( -1.000000000000000000, 0.0000000000000000000, 0.0000000000000000000 ) ) ;
#65 = DIRECTION ( 'NONE',  ( -0.0000000000000000000, -0.0000000000000000000, -1.000000000000000000 ) ) ;
#66 = APPLICATION_PROTOCOL_DEFINITION ( 'international standard', 'config_control_design', 1994, #308 ) ;
#67 = DIRECTION ( 'NONE',  ( 0.0000000000000000000, 0.0000000000000000000, 1.000000000000000000 ) ) ;
#68 = EDGE_CURVE ( 'NONE', #29, #271, #85, .T. ) ;
#69 = ORIENTED_EDGE ( 'NONE', *, *, #302, .T. ) ;
#70 = ADVANCED_FACE ( 'NONE', ( #289 ), #6, .T. ) ;
#71 = LOCAL_TIME ( 18, 48, 35.00000000000000000, #152 ) ;
#72 = AXIS2_PLACEMENT_3D ( 'NONE', #284, #135, #188 ) ;
#73 = VECTOR ( 'NONE', #134, 1000.000000000000000 ) ;
#74 = EDGE_LOOP ( 'NONE', ( #56, #329 ) ) ;
#75 = CC_DESIGN_PERSON_AND_ORGANIZATION_ASSIGNMENT ( #105, #44, ( #63 ) ) ;
#76 = EDGE_LOOP ( 'NONE', ( #84, #118, #176, #59 ) ) ;
#77 = CYLINDRICAL_SURFACE ( 'NONE', #31, 31.80000000000000800 ) ;
#78 = ORIENTED_EDGE ( 'NONE', *, *, #102, .F. ) ;
#79 = DIRECTION ( 'NONE',  ( 0.0000000000000000000, 0.0000000000000000000, -1.000000000000000000 ) ) ;
#80 = AXIS2_PLACEMENT_3D ( 'NONE', #48, #294, #46 ) ;
#81 = PLANE ( 'NONE',  #275 ) ;
#82 = CARTESIAN_POINT ( 'NONE',  ( 0.0000000000000000000, 0.0000000000000000000, 350.0000000000000000 ) ) ;
#83 = DATE_AND_TIME ( #300, #36 ) ;
#84 = ORIENTED_EDGE ( 'NONE', *, *, #323, .F. ) ;
#85 = LINE ( 'NONE', #101, #274 ) ;
#86 = CARTESIAN_POINT ( 'NONE',  ( 31.80000000000000800, 3.894376821288584300E-015, 0.0000000000000000000 ) ) ;
#87 = EDGE_CURVE ( 'NONE', #194, #252, #214, .T. ) ;
#88 = CIRCLE ( 'NONE', #3, 31.80000000000000800 ) ;
#89 = CARTESIAN_POINT ( 'NONE',  ( 0.0000000000000000000, 0.0000000000000000000, 0.0000000000000000000 ) ) ;
#90 = AXIS2_PLACEMENT_3D ( 'NONE', #192, #324, #17 ) ;
#91 = DIRECTION ( 'NONE',  ( 0.0000000000000000000, 0.0000000000000000000, -1.000000000000000000 ) ) ;
#92 = ORIENTED_EDGE ( 'NONE', *, *, #203, .F. ) ;
#93 = ADVANCED_FACE ( 'NONE', ( #139 ), #149, .F. ) ;
#94 = CC_DESIGN_DATE_AND_TIME_ASSIGNMENT ( #245, #215, ( #63 ) ) ;
#95 = LOCAL_TIME ( 18, 48, 35.00000000000000000, #285 ) ;
#96 = ORIENTED_EDGE ( 'NONE', *, *, #203, .T. ) ;
#97 = VERTEX_POINT ( 'NONE', #12 ) ;
#98 = ADVANCED_FACE ( 'NONE', ( #261 ), #77, .F. ) ;
#99 = ORIENTED_EDGE ( 'NONE', *, *, #323, .T. ) ;
#100 = EDGE_LOOP ( 'NONE', ( #248, #164 ) ) ;
#101 = CARTESIAN_POINT ( 'NONE',  ( 35.00000000000000700, 4.286263797015737300E-015, 350.0000000000000000 ) ) ;
#102 = EDGE_CURVE ( 'NONE', #240, #290, #18, .T. ) ;
#103 = DIRECTION ( 'NONE',  ( 0.0000000000000000000, 0.0000000000000000000, 1.000000000000000000 ) ) ;
#104 = DIRECTION ( 'NONE',  ( 1.000000000000000000, 0.0000000000000000000, 0.0000000000000000000 ) ) ;
#105 = PERSON_AND_ORGANIZATION ( #51, #247 ) ;
#106 = DIRECTION ( 'NONE',  ( -1.000000000000000000, 0.0000000000000000000, 0.0000000000000000000 ) ) ;
#107 = DIRECTION ( 'NONE',  ( 0.0000000000000000000, 0.0000000000000000000, 1.000000000000000000 ) ) ;
#108 = FACE_OUTER_BOUND ( 'NONE', #100, .T. ) ;
#109 = DIRECTION ( 'NONE',  ( 1.000000000000000000, 0.0000000000000000000, 0.0000000000000000000 ) ) ;
#110 = CC_DESIGN_APPROVAL ( #146, ( #63 ) ) ;
#111 = EDGE_LOOP ( 'NONE', ( #123, #121 ) ) ;
#112 = CARTESIAN_POINT ( 'NONE',  ( 34.49999999999999300, 4.225031457058367300E-015, 190.0000000000000300 ) ) ;
#113 = PLANE ( 'NONE',  #191 ) ;
#114 = APPROVAL_STATUS ( 'not_yet_approved' ) ;
#115 = DIRECTION ( 'NONE',  ( 1.000000000000000000, 0.0000000000000000000, -0.0000000000000000000 ) ) ;
#116 = CARTESIAN_POINT ( 'NONE',  ( 0.0000000000000000000, 0.0000000000000000000, 350.0000000000000000 ) ) ;
#117 = APPROVAL_DATE_TIME ( #314, #328 ) ;
#118 = ORIENTED_EDGE ( 'NONE', *, *, #189, .T. ) ;
#119 = FACE_OUTER_BOUND ( 'NONE', #111, .T. ) ;
#120 = APPROVAL_PERSON_ORGANIZATION ( #133, #32, #42 ) ;
#121 = ORIENTED_EDGE ( 'NONE', *, *, #58, .T. ) ;
#122 = EDGE_CURVE ( 'NONE', #194, #97, #204, .T. ) ;
#123 = ORIENTED_EDGE ( 'NONE', *, *, #205, .T. ) ;
#124 = CIRCLE ( 'NONE', #80, 34.49999999999999300 ) ;
#125 = EDGE_LOOP ( 'NONE', ( #150, #224, #244, #78 ) ) ;
#126 = CC_DESIGN_SECURITY_CLASSIFICATION ( #63, ( #26 ) ) ;
#127 = CARTESIAN_POINT ( 'NONE',  ( 0.0000000000000000000, 0.0000000000000000000, 350.0000000000000000 ) ) ;
#128 = CARTESIAN_POINT ( 'NONE',  ( 0.0000000000000000000, 0.0000000000000000000, 350.0000000000000000 ) ) ;
#129 = DIRECTION ( 'NONE',  ( -0.0000000000000000000, -0.0000000000000000000, -1.000000000000000000 ) ) ;
#130 = DIRECTION ( 'NONE',  ( -1.000000000000000000, 0.0000000000000000000, 0.0000000000000000000 ) ) ;
#131 = ORIENTED_EDGE ( 'NONE', *, *, #87, .T. ) ;
#132 = CARTESIAN_POINT ( 'NONE',  ( 0.0000000000000000000, 0.0000000000000000000, 190.0000000000000300 ) ) ;
#133 = PERSON_AND_ORGANIZATION ( #51, #247 ) ;
#134 = DIRECTION ( 'NONE',  ( -0.0000000000000000000, -0.0000000000000000000, -1.000000000000000000 ) ) ;
#135 = DIRECTION ( 'NONE',  ( 0.0000000000000000000, 0.0000000000000000000, -1.000000000000000000 ) ) ;
#136 = PERSON_AND_ORGANIZATION_ROLE ( 'creator' ) ;
#137 = APPROVAL_STATUS ( 'not_yet_approved' ) ;
#138 = CARTESIAN_POINT ( 'NONE',  ( 31.80000000000000800, 3.894376821288584300E-015, 350.0000000000000000 ) ) ;
#139 = FACE_OUTER_BOUND ( 'NONE', #28, .T. ) ;
#140 = LINE ( 'NONE', #226, #268 ) ;
#141 =( LENGTH_UNIT ( ) NAMED_UNIT ( * ) SI_UNIT ( .MILLI., .METRE. ) );
#142 = EDGE_CURVE ( 'NONE', #153, #267, #140, .T. ) ;
#143 = DIRECTION ( 'NONE',  ( -1.000000000000000000, 0.0000000000000000000, -0.0000000000000000000 ) ) ;
#144 =( GEOMETRIC_REPRESENTATION_CONTEXT ( 3 ) GLOBAL_UNCERTAINTY_ASSIGNED_CONTEXT ( ( #228 ) ) GLOBAL_UNIT_ASSIGNED_CONTEXT ( ( #141, #162, #235 ) ) REPRESENTATION_CONTEXT ( 'NONE', 'WORKASPACE' ) );
#145 = LOCAL_TIME ( 18, 48, 35.00000000000000000, #208 ) ;
#146 = APPROVAL ( #325, 'UNSPECIFIED' ) ;
#147 = CIRCLE ( 'NONE', #72, 35.00000000000000700 ) ;
#148 = SHAPE_DEFINITION_REPRESENTATION ( #249, #299 ) ;
#149 = CYLINDRICAL_SURFACE ( 'NONE', #172, 31.80000000000000800 ) ;
#150 = ORIENTED_EDGE ( 'NONE', *, *, #295, .F. ) ;
#151 = CLOSED_SHELL ( 'NONE', ( #198, #93, #170, #265, #70, #303, #98, #221, #174 ) ) ;
#152 = COORDINATED_UNIVERSAL_TIME_OFFSET ( 1, 0, .AHEAD. ) ;
#153 = VERTEX_POINT ( 'NONE', #34 ) ;
#154 = FACE_OUTER_BOUND ( 'NONE', #74, .T. ) ;
#155 = AXIS2_PLACEMENT_3D ( 'NONE', #116, #218, #213 ) ;
#156 = CARTESIAN_POINT ( 'NONE',  ( 0.0000000000000000000, 0.0000000000000000000, 350.0000000000000000 ) ) ;
#157 = DIRECTION ( 'NONE',  ( -1.000000000000000000, 0.0000000000000000000, 0.0000000000000000000 ) ) ;
#158 = CARTESIAN_POINT ( 'NONE',  ( 0.0000000000000000000, 0.0000000000000000000, 350.0000000000000000 ) ) ;
#159 = APPROVAL_ROLE ( '' ) ;
#160 = CARTESIAN_POINT ( 'NONE',  ( 0.0000000000000000000, 0.0000000000000000000, 0.0000000000000000000 ) ) ;
#161 = PRODUCT_RELATED_PRODUCT_CATEGORY ( 'detail', '', ( #298 ) ) ;
#162 =( NAMED_UNIT ( * ) PLANE_ANGLE_UNIT ( ) SI_UNIT ( $, .RADIAN. ) );
#163 = ORIENTED_EDGE ( 'NONE', *, *, #310, .T. ) ;
#164 = ORIENTED_EDGE ( 'NONE', *, *, #225, .T. ) ;
#165 = PLANE ( 'NONE',  #173 ) ;
#166 = CARTESIAN_POINT ( 'NONE',  ( 0.0000000000000000000, 0.0000000000000000000, 0.0000000000000000000 ) ) ;
#167 = CARTESIAN_POINT ( 'NONE',  ( 0.0000000000000000000, 0.0000000000000000000, 0.0000000000000000000 ) ) ;
#168 = ORIENTED_EDGE ( 'NONE', *, *, #122, .F. ) ;
#169 = COORDINATED_UNIVERSAL_TIME_OFFSET ( 1, 0, .AHEAD. ) ;
#170 = ADVANCED_FACE ( 'NONE', ( #61 ), #301, .T. ) ;
#171 = ORIENTED_EDGE ( 'NONE', *, *, #58, .F. ) ;
#172 = AXIS2_PLACEMENT_3D ( 'NONE', #158, #253, #185 ) ;
#173 = AXIS2_PLACEMENT_3D ( 'NONE', #232, #184, #291 ) ;
#174 = ADVANCED_FACE ( 'NONE', ( #23 ), #195, .T. ) ;
#175 = PERSON_AND_ORGANIZATION ( #51, #247 ) ;
#176 = ORIENTED_EDGE ( 'NONE', *, *, #142, .T. ) ;
#177 = LOCAL_TIME ( 18, 48, 35.00000000000000000, #49 ) ;
#178 = EDGE_LOOP ( 'NONE', ( #163, #99, #183, #21 ) ) ;
#179 = CARTESIAN_POINT ( 'NONE',  ( -31.80000000000000800, 0.0000000000000000000, 350.0000000000000000 ) ) ;
#180 = PERSON_AND_ORGANIZATION ( #51, #247 ) ;
#181 = CIRCLE ( 'NONE', #2, 31.80000000000000800 ) ;
#182 = PERSON_AND_ORGANIZATION ( #51, #247 ) ;
#183 = ORIENTED_EDGE ( 'NONE', *, *, #234, .F. ) ;
#184 = DIRECTION ( 'NONE',  ( 0.0000000000000000000, 0.0000000000000000000, 1.000000000000000000 ) ) ;
#185 = DIRECTION ( 'NONE',  ( -1.000000000000000000, 0.0000000000000000000, 0.0000000000000000000 ) ) ;
#186 = DIRECTION ( 'NONE',  ( 0.0000000000000000000, 0.0000000000000000000, -1.000000000000000000 ) ) ;
#187 = APPLICATION_CONTEXT ( 'configuration controlled 3d designs of mechanical parts and assemblies' ) ;
#188 = DIRECTION ( 'NONE',  ( -1.000000000000000000, 0.0000000000000000000, 0.0000000000000000000 ) ) ;
#189 = EDGE_CURVE ( 'NONE', #40, #153, #202, .T. ) ;
#190 = CARTESIAN_POINT ( 'NONE',  ( 0.0000000000000000000, 0.0000000000000000000, 190.0000000000000300 ) ) ;
#191 = AXIS2_PLACEMENT_3D ( 'NONE', #167, #233, #115 ) ;
#192 = CARTESIAN_POINT ( 'NONE',  ( 0.0000000000000000000, 0.0000000000000000000, 350.0000000000000000 ) ) ;
#193 = AXIS2_PLACEMENT_3D ( 'NONE', #190, #16, #64 ) ;
#194 = VERTEX_POINT ( 'NONE', #288 ) ;
#195 = CYLINDRICAL_SURFACE ( 'NONE', #222, 34.49999999999999300 ) ;
#196 = DATE_AND_TIME ( #254, #145 ) ;
#197 = APPROVAL_DATE_TIME ( #38, #146 ) ;
#198 = ADVANCED_FACE ( 'NONE', ( #230 ), #318, .T. ) ;
#199 = VECTOR ( 'NONE', #257, 1000.000000000000000 ) ;
#200 = CC_DESIGN_PERSON_AND_ORGANIZATION_ASSIGNMENT ( #175, #211, ( #26 ) ) ;
#201 = CARTESIAN_POINT ( 'NONE',  ( 34.49999999999999300, 4.225031457058367300E-015, 190.0000000000000300 ) ) ;
#202 = CIRCLE ( 'NONE', #258, 34.49999999999999300 ) ;
#203 = EDGE_CURVE ( 'NONE', #97, #263, #181, .T. ) ;
#204 = LINE ( 'NONE', #179, #73 ) ;
#205 = EDGE_CURVE ( 'NONE', #290, #271, #147, .T. ) ;
#206 = DIRECTION ( 'NONE',  ( 0.0000000000000000000, 0.0000000000000000000, -1.000000000000000000 ) ) ;
#207 = DIRECTION ( 'NONE',  ( -1.000000000000000000, 0.0000000000000000000, 0.0000000000000000000 ) ) ;
#208 = COORDINATED_UNIVERSAL_TIME_OFFSET ( 1, 0, .AHEAD. ) ;
#209 = CARTESIAN_POINT ( 'NONE',  ( 0.0000000000000000000, 0.0000000000000000000, 190.0000000000000300 ) ) ;
#210 = DIRECTION ( 'NONE',  ( -0.0000000000000000000, -0.0000000000000000000, -1.000000000000000000 ) ) ;
#211 = PERSON_AND_ORGANIZATION_ROLE ( 'design_supplier' ) ;
#212 = CIRCLE ( 'NONE', #45, 34.49999999999999300 ) ;
#213 = DIRECTION ( 'NONE',  ( 1.000000000000000000, 0.0000000000000000000, 0.0000000000000000000 ) ) ;
#214 = CIRCLE ( 'NONE', #311, 31.80000000000000800 ) ;
#215 = DATE_TIME_ROLE ( 'classification_date' ) ;
#216 = CIRCLE ( 'NONE', #193, 34.49999999999999300 ) ;
#217 = DIRECTION ( 'NONE',  ( -0.0000000000000000000, -0.0000000000000000000, -1.000000000000000000 ) ) ;
#218 = DIRECTION ( 'NONE',  ( 0.0000000000000000000, 0.0000000000000000000, 1.000000000000000000 ) ) ;
#219 = ORIENTED_EDGE ( 'NONE', *, *, #310, .F. ) ;
#220 = CIRCLE ( 'NONE', #5, 35.00000000000000700 ) ;
#221 = ADVANCED_FACE ( 'NONE', ( #273, #119 ), #81, .T. ) ;
#222 = AXIS2_PLACEMENT_3D ( 'NONE', #30, #280, #317 ) ;
#223 = AXIS2_PLACEMENT_3D ( 'NONE', #128, #322, #37 ) ;
#224 = ORIENTED_EDGE ( 'NONE', *, *, #68, .T. ) ;
#225 = EDGE_CURVE ( 'NONE', #304, #267, #124, .T. ) ;
#226 = CARTESIAN_POINT ( 'NONE',  ( -34.49999999999999300, 0.0000000000000000000, 190.0000000000000300 ) ) ;
#227 = ORIENTED_EDGE ( 'NONE', *, *, #122, .T. ) ;
#228 = UNCERTAINTY_MEASURE_WITH_UNIT (LENGTH_MEASURE( 1.000000000000000100E-005 ), #141, 'distance_accuracy_value', 'NONE');
#229 = PERSON_AND_ORGANIZATION ( #51, #247 ) ;
#230 = FACE_OUTER_BOUND ( 'NONE', #178, .T. ) ;
#231 = EDGE_LOOP ( 'NONE', ( #219, #250 ) ) ;
#232 = CARTESIAN_POINT ( 'NONE',  ( 0.0000000000000000000, 0.0000000000000000000, 350.0000000000000000 ) ) ;
#233 = DIRECTION ( 'NONE',  ( 0.0000000000000000000, 0.0000000000000000000, 1.000000000000000000 ) ) ;
#234 = EDGE_CURVE ( 'NONE', #267, #304, #212, .T. ) ;
#235 =( NAMED_UNIT ( * ) SI_UNIT ( $, .STERADIAN. ) SOLID_ANGLE_UNIT ( ) );
#236 = EDGE_CURVE ( 'NONE', #252, #263, #14, .T. ) ;
#237 = CARTESIAN_POINT ( 'NONE',  ( 35.00000000000000700, 4.286263797015737300E-015, 190.0000000000000300 ) ) ;
#238 = AXIS2_PLACEMENT_3D ( 'NONE', #89, #107, #320 ) ;
#239 = PERSON_AND_ORGANIZATION ( #51, #247 ) ;
#240 = VERTEX_POINT ( 'NONE', #326 ) ;
#241 = FACE_BOUND ( 'NONE', #306, .T. ) ;
#242 = EDGE_LOOP ( 'NONE', ( #41, #1, #227, #15 ) ) ;
#243 = EDGE_CURVE ( 'NONE', #240, #29, #287, .T. ) ;
#244 = ORIENTED_EDGE ( 'NONE', *, *, #205, .F. ) ;
#245 = DATE_AND_TIME ( #57, #177 ) ;
#246 = VECTOR ( 'NONE', #217, 1000.000000000000000 ) ;
#247 = ORGANIZATION ( 'UNSPECIFIED', 'UNSPECIFIED', '' ) ;
#248 = ORIENTED_EDGE ( 'NONE', *, *, #234, .T. ) ;
#249 = PRODUCT_DEFINITION_SHAPE ( 'NONE', 'NONE',  #297 ) ;
#250 = ORIENTED_EDGE ( 'NONE', *, *, #189, .F. ) ;
#251 = AXIS2_PLACEMENT_3D ( 'NONE', #10, #35, #33 ) ;
#252 = VERTEX_POINT ( 'NONE', #138 ) ;
#253 = DIRECTION ( 'NONE',  ( -0.0000000000000000000, -0.0000000000000000000, -1.000000000000000000 ) ) ;
#254 = CALENDAR_DATE ( 2021, 11, 6 ) ;
#255 = CARTESIAN_POINT ( 'NONE',  ( -35.00000000000000700, 0.0000000000000000000, 350.0000000000000000 ) ) ;
#256 = ORIENTED_EDGE ( 'NONE', *, *, #68, .F. ) ;
#257 = DIRECTION ( 'NONE',  ( -0.0000000000000000000, -0.0000000000000000000, -1.000000000000000000 ) ) ;
#258 = AXIS2_PLACEMENT_3D ( 'NONE', #209, #206, #207 ) ;
#259 = DIRECTION ( 'NONE',  ( -1.000000000000000000, 0.0000000000000000000, 0.0000000000000000000 ) ) ;
#260 = DIRECTION ( 'NONE',  ( 1.000000000000000000, 0.0000000000000000000, 0.0000000000000000000 ) ) ;
#261 = FACE_OUTER_BOUND ( 'NONE', #242, .T. ) ;
#262 = CARTESIAN_POINT ( 'NONE',  ( 0.0000000000000000000, 0.0000000000000000000, 0.0000000000000000000 ) ) ;
#263 = VERTEX_POINT ( 'NONE', #86 ) ;
#264 = PERSON_AND_ORGANIZATION ( #51, #247 ) ;
#265 = ADVANCED_FACE ( 'NONE', ( #241, #108 ), #113, .F. ) ;
#266 = CIRCLE ( 'NONE', #223, 35.00000000000000700 ) ;
#267 = VERTEX_POINT ( 'NONE', #296 ) ;
#268 = VECTOR ( 'NONE', #313, 1000.000000000000000 ) ;
#269 = EDGE_CURVE ( 'NONE', #252, #194, #52, .T. ) ;
#270 = CC_DESIGN_PERSON_AND_ORGANIZATION_ASSIGNMENT ( #182, #319, ( #298 ) ) ;
#271 = VERTEX_POINT ( 'NONE', #237 ) ;
#272 = CARTESIAN_POINT ( 'NONE',  ( 35.00000000000000700, 4.286263797015737300E-015, 350.0000000000000000 ) ) ;
#273 = FACE_BOUND ( 'NONE', #231, .T. ) ;
#274 = VECTOR ( 'NONE', #129, 1000.000000000000000 ) ;
#275 = AXIS2_PLACEMENT_3D ( 'NONE', #132, #91, #143 ) ;
#276 = APPROVAL_ROLE ( '' ) ;
#277 = EDGE_LOOP ( 'NONE', ( #25, #62 ) ) ;
#278 = DIRECTION ( 'NONE',  ( -0.0000000000000000000, -0.0000000000000000000, -1.000000000000000000 ) ) ;
#279 = MANIFOLD_SOLID_BREP ( 'Enlèv. mat.-Extru.2', #151 ) ;
#280 = DIRECTION ( 'NONE',  ( -0.0000000000000000000, -0.0000000000000000000, -1.000000000000000000 ) ) ;
#281 = CC_DESIGN_PERSON_AND_ORGANIZATION_ASSIGNMENT ( #239, #136, ( #26 ) ) ;
#282 = DESIGN_CONTEXT ( 'detailed design', #187, 'design' ) ;
#283 = APPLICATION_PROTOCOL_DEFINITION ( 'international standard', 'config_control_design', 1994, #187 ) ;
#284 = CARTESIAN_POINT ( 'NONE',  ( 0.0000000000000000000, 0.0000000000000000000, 190.0000000000000300 ) ) ;
#285 = COORDINATED_UNIVERSAL_TIME_OFFSET ( 1, 0, .AHEAD. ) ;
#286 = PERSON_AND_ORGANIZATION_ROLE ( 'creator' ) ;
#287 = CIRCLE ( 'NONE', #155, 35.00000000000000700 ) ;
#288 = CARTESIAN_POINT ( 'NONE',  ( -31.80000000000000800, 0.0000000000000000000, 350.0000000000000000 ) ) ;
#289 = FACE_OUTER_BOUND ( 'NONE', #327, .T. ) ;
#290 = VERTEX_POINT ( 'NONE', #292 ) ;
#291 = DIRECTION ( 'NONE',  ( 1.000000000000000000, 0.0000000000000000000, -0.0000000000000000000 ) ) ;
#292 = CARTESIAN_POINT ( 'NONE',  ( -35.00000000000000700, 0.0000000000000000000, 190.0000000000000300 ) ) ;
#293 = DATE_TIME_ROLE ( 'creation_date' ) ;
#294 = DIRECTION ( 'NONE',  ( 0.0000000000000000000, 0.0000000000000000000, -1.000000000000000000 ) ) ;
#295 = EDGE_CURVE ( 'NONE', #29, #240, #266, .T. ) ;
#296 = CARTESIAN_POINT ( 'NONE',  ( -34.49999999999999300, 0.0000000000000000000, 0.0000000000000000000 ) ) ;
#297 = PRODUCT_DEFINITION ( 'UNKNOWN', '', #26, #282 ) ;
#298 = PRODUCT ( 'manchon70-69', 'manchon70-69', '', ( #19 ) ) ;
#299 = ADVANCED_BREP_SHAPE_REPRESENTATION ( 'manchon70-69', ( #279, #238 ), #144 ) ;
#300 = CALENDAR_DATE ( 2021, 11, 6 ) ;
#301 = CYLINDRICAL_SURFACE ( 'NONE', #54, 35.00000000000000700 ) ;
#302 = EDGE_CURVE ( 'NONE', #263, #97, #88, .T. ) ;
#303 = ADVANCED_FACE ( 'NONE', ( #154, #53 ), #165, .T. ) ;
#304 = VERTEX_POINT ( 'NONE', #47 ) ;
#305 = CALENDAR_DATE ( 2021, 11, 6 ) ;
#306 = EDGE_LOOP ( 'NONE', ( #96, #69 ) ) ;
#307 = CARTESIAN_POINT ( 'NONE',  ( 0.0000000000000000000, 0.0000000000000000000, 190.0000000000000300 ) ) ;
#308 = APPLICATION_CONTEXT ( 'configuration controlled 3d designs of mechanical parts and assemblies' ) ;
#309 = DIRECTION ( 'NONE',  ( -0.0000000000000000000, -0.0000000000000000000, -1.000000000000000000 ) ) ;
#310 = EDGE_CURVE ( 'NONE', #153, #40, #216, .T. ) ;
#311 = AXIS2_PLACEMENT_3D ( 'NONE', #82, #103, #109 ) ;
#312 = CC_DESIGN_APPROVAL ( #32, ( #297 ) ) ;
#313 = DIRECTION ( 'NONE',  ( -0.0000000000000000000, -0.0000000000000000000, -1.000000000000000000 ) ) ;
#314 = DATE_AND_TIME ( #27, #95 ) ;
#315 = ORIENTED_EDGE ( 'NONE', *, *, #102, .T. ) ;
#316 = APPROVAL_PERSON_ORGANIZATION ( #180, #146, #276 ) ;
#317 = DIRECTION ( 'NONE',  ( -1.000000000000000000, 0.0000000000000000000, 0.0000000000000000000 ) ) ;
#318 = CYLINDRICAL_SURFACE ( 'NONE', #251, 34.49999999999999300 ) ;
#319 = PERSON_AND_ORGANIZATION_ROLE ( 'design_owner' ) ;
#320 = DIRECTION ( 'NONE',  ( 1.000000000000000000, 0.0000000000000000000, 0.0000000000000000000 ) ) ;
#321 = DIRECTION ( 'NONE',  ( 0.0000000000000000000, 0.0000000000000000000, 1.000000000000000000 ) ) ;
#322 = DIRECTION ( 'NONE',  ( 0.0000000000000000000, 0.0000000000000000000, 1.000000000000000000 ) ) ;
#323 = EDGE_CURVE ( 'NONE', #40, #304, #43, .T. ) ;
#324 = DIRECTION ( 'NONE',  ( 0.0000000000000000000, 0.0000000000000000000, 1.000000000000000000 ) ) ;
#325 = APPROVAL_STATUS ( 'not_yet_approved' ) ;
#326 = CARTESIAN_POINT ( 'NONE',  ( -35.00000000000000700, 0.0000000000000000000, 350.0000000000000000 ) ) ;
#327 = EDGE_LOOP ( 'NONE', ( #256, #9, #315, #171 ) ) ;
#328 = APPROVAL ( #137, 'UNSPECIFIED' ) ;
#329 = ORIENTED_EDGE ( 'NONE', *, *, #295, .T. ) ;
ENDSEC;
END-ISO-10303-21;
