ISO-10303-21;
HEADER;
FILE_DESCRIPTION(('CATIA V5 STEP Exchange'),'2;1');

FILE_NAME('C:\\Users\\djgate6\\Desktop\\collier\\demi collier.stp','2021-06-02T09:23:16+00:00',('none'),('none'),'CATIA Version 5 Release 19 SP 2 (IN-10)','CATIA V5 STEP AP203','none');

FILE_SCHEMA(('CONFIG_CONTROL_DESIGN'));

ENDSEC;
/* file written by CATIA V5R19 */
DATA;
#5=PRODUCT('court','','',(#2)) ;
#1=APPLICATION_CONTEXT('configuration controlled 3D design of mechanical parts and assemblies') ;
#14=PRODUCT_DEFINITION('',' ',#6,#3) ;
#16=SECURITY_CLASSIFICATION(' ',' ',#15) ;
#15=SECURITY_CLASSIFICATION_LEVEL('unclassified') ;
#47=CARTESIAN_POINT(' ',(0.,0.,0.)) ;
#52=CARTESIAN_POINT('Axis2P3D Location',(6.,2.5,-14.)) ;
#57=CARTESIAN_POINT('Axis2P3D Location',(6.,0.,-14.)) ;
#61=CARTESIAN_POINT('Vertex',(10.4756710656,0.,-16.4450702469)) ;
#63=CARTESIAN_POINT('Vertex',(1.52432893436,0.,-11.5549297531)) ;
#66=CARTESIAN_POINT('Line Origine',(2.55925267867,1.17928932188,-12.1203111714)) ;
#70=CARTESIAN_POINT('Vertex',(3.71828533909,2.5,-12.7534935996)) ;
#73=CARTESIAN_POINT('Axis2P3D Location',(6.,2.5,-14.)) ;
#77=CARTESIAN_POINT('Vertex',(8.28171466091,2.5,-15.2465064004)) ;
#80=CARTESIAN_POINT('Line Origine',(9.44074732133,1.17928932188,-15.8796888286)) ;
#92=CARTESIAN_POINT('Axis2P3D Location',(6.,0.,-14.)) ;
#97=CARTESIAN_POINT('Axis2P3D Location',(6.,2.5,-14.)) ;
#109=CARTESIAN_POINT('Axis2P3D Location',(6.,0.1,-14.)) ;
#114=CARTESIAN_POINT('Axis2P3D Location',(6.,10.,-14.)) ;
#118=CARTESIAN_POINT('Vertex',(3.71828533909,10.,-12.7534935996)) ;
#120=CARTESIAN_POINT('Vertex',(8.28171466091,10.,-15.2465064004)) ;
#123=CARTESIAN_POINT('Line Origine',(8.28171466091,6.40500000006,-15.2465064004)) ;
#128=CARTESIAN_POINT('Line Origine',(3.71828533909,6.40500000006,-12.7534935996)) ;
#140=CARTESIAN_POINT('Axis2P3D Location',(6.,10.,-14.)) ;
#152=CARTESIAN_POINT('Axis2P3D Location',(6.,10.5,3.94430452611E-031)) ;
#157=CARTESIAN_POINT('Line Origine',(6.,10.,-7.98435971134)) ;
#161=CARTESIAN_POINT('Vertex',(0.,10.,-7.98435971134)) ;
#163=CARTESIAN_POINT('Vertex',(12.,10.,-7.98435971134)) ;
#166=CARTESIAN_POINT('Axis2P3D Location',(0.,10.5,3.94430452611E-031)) ;
#170=CARTESIAN_POINT('Vertex',(0.,10.,7.98435971134)) ;
#173=CARTESIAN_POINT('Line Origine',(6.,10.,7.98435971134)) ;
#177=CARTESIAN_POINT('Vertex',(12.,10.,7.98435971134)) ;
#180=CARTESIAN_POINT('Axis2P3D Location',(12.,10.5,3.94430452611E-031)) ;
#192=CARTESIAN_POINT('Axis2P3D Location',(6.,0.1,14.)) ;
#197=CARTESIAN_POINT('Axis2P3D Location',(6.,10.,14.)) ;
#201=CARTESIAN_POINT('Vertex',(8.28171466091,10.,12.7534935996)) ;
#203=CARTESIAN_POINT('Vertex',(3.71828533909,10.,15.2465064004)) ;
#206=CARTESIAN_POINT('Line Origine',(3.71828533909,6.40500019073,15.2465064004)) ;
#210=CARTESIAN_POINT('Vertex',(3.71828533909,2.5,15.2465064004)) ;
#213=CARTESIAN_POINT('Axis2P3D Location',(6.,2.5,14.)) ;
#217=CARTESIAN_POINT('Vertex',(8.28171466091,2.5,12.7534935996)) ;
#220=CARTESIAN_POINT('Line Origine',(8.28171466091,6.40500019073,12.7534935996)) ;
#232=CARTESIAN_POINT('Axis2P3D Location',(6.,10.,14.)) ;
#237=CARTESIAN_POINT('Axis2P3D Location',(6.,2.5,14.)) ;
#249=CARTESIAN_POINT('Axis2P3D Location',(6.,2.5,14.)) ;
#254=CARTESIAN_POINT('Axis2P3D Location',(6.,0.,14.)) ;
#258=CARTESIAN_POINT('Vertex',(10.4756710656,0.,11.5549297531)) ;
#260=CARTESIAN_POINT('Vertex',(1.52432893436,-8.881784197E-016,16.4450702469)) ;
#263=CARTESIAN_POINT('Line Origine',(2.55925267867,1.17928932188,15.8796888286)) ;
#268=CARTESIAN_POINT('Line Origine',(9.44074732133,1.17928932188,12.1203111714)) ;
#280=CARTESIAN_POINT('Axis2P3D Location',(6.,0.,14.)) ;
#292=CARTESIAN_POINT('Axis2P3D Location',(11.,12.,20.)) ;
#297=CARTESIAN_POINT('Line Origine',(11.5,0.,19.5)) ;
#301=CARTESIAN_POINT('Vertex',(11.,0.,20.)) ;
#303=CARTESIAN_POINT('Vertex',(12.,0.,19.)) ;
#306=CARTESIAN_POINT('Line Origine',(12.,5.,19.)) ;
#310=CARTESIAN_POINT('Vertex',(12.,10.,19.)) ;
#313=CARTESIAN_POINT('Line Origine',(11.5,10.,19.5)) ;
#317=CARTESIAN_POINT('Vertex',(11.,10.,20.)) ;
#320=CARTESIAN_POINT('Line Origine',(11.,5.,20.)) ;
#332=CARTESIAN_POINT('Axis2P3D Location',(0.,10.,-20.)) ;
#337=CARTESIAN_POINT('Line Origine',(6.,10.,20.)) ;
#341=CARTESIAN_POINT('Vertex',(1.,10.,20.)) ;
#344=CARTESIAN_POINT('Line Origine',(12.,10.,13.4921798557)) ;
#349=CARTESIAN_POINT('Line Origine',(0.,10.,13.4921798557)) ;
#353=CARTESIAN_POINT('Vertex',(0.,10.,19.)) ;
#356=CARTESIAN_POINT('Line Origine',(0.5,10.,19.5)) ;
#374=CARTESIAN_POINT('Axis2P3D Location',(0.,0.,20.)) ;
#379=CARTESIAN_POINT('Line Origine',(1.,5.,20.)) ;
#383=CARTESIAN_POINT('Vertex',(1.,0.,20.)) ;
#386=CARTESIAN_POINT('Line Origine',(6.,0.,20.)) ;
#398=CARTESIAN_POINT('Axis2P3D Location',(1.,12.,20.)) ;
#403=CARTESIAN_POINT('Line Origine',(2.22044604925E-016,5.,19.)) ;
#407=CARTESIAN_POINT('Vertex',(0.,0.,19.)) ;
#410=CARTESIAN_POINT('Line Origine',(0.5,0.,19.5)) ;
#422=CARTESIAN_POINT('Axis2P3D Location',(12.,0.,0.)) ;
#427=CARTESIAN_POINT('Line Origine',(12.,10.,-13.4921798557)) ;
#431=CARTESIAN_POINT('Vertex',(12.,10.,-19.)) ;
#434=CARTESIAN_POINT('Line Origine',(12.,0.,0.)) ;
#438=CARTESIAN_POINT('Vertex',(12.,0.,-19.)) ;
#441=CARTESIAN_POINT('Line Origine',(12.,5.,-19.)) ;
#455=CARTESIAN_POINT('Axis2P3D Location',(11.,12.,-20.)) ;
#460=CARTESIAN_POINT('Line Origine',(11.5,1.7763568394E-015,-19.5)) ;
#464=CARTESIAN_POINT('Vertex',(11.,0.,-20.)) ;
#467=CARTESIAN_POINT('Line Origine',(11.,5.,-20.)) ;
#471=CARTESIAN_POINT('Vertex',(11.,10.,-20.)) ;
#474=CARTESIAN_POINT('Line Origine',(11.5,10.,-19.5)) ;
#486=CARTESIAN_POINT('Axis2P3D Location',(0.,0.,0.)) ;
#491=CARTESIAN_POINT('Line Origine',(0.,5.,-19.)) ;
#495=CARTESIAN_POINT('Vertex',(0.,0.,-19.)) ;
#497=CARTESIAN_POINT('Vertex',(0.,10.,-19.)) ;
#500=CARTESIAN_POINT('Line Origine',(0.,0.,0.)) ;
#505=CARTESIAN_POINT('Line Origine',(0.,10.,-13.4921798557)) ;
#519=CARTESIAN_POINT('Line Origine',(6.,10.,-20.)) ;
#523=CARTESIAN_POINT('Vertex',(1.,10.,-20.)) ;
#526=CARTESIAN_POINT('Line Origine',(0.5,10.,-19.5)) ;
#544=CARTESIAN_POINT('Axis2P3D Location',(0.,0.,-20.)) ;
#549=CARTESIAN_POINT('Line Origine',(6.,0.,-20.)) ;
#553=CARTESIAN_POINT('Vertex',(1.,0.,-20.)) ;
#556=CARTESIAN_POINT('Line Origine',(1.,5.,-20.)) ;
#568=CARTESIAN_POINT('Axis2P3D Location',(0.,0.,20.)) ;
#573=CARTESIAN_POINT('Line Origine',(0.5,0.,-19.5)) ;
#597=CARTESIAN_POINT('Axis2P3D Location',(1.,12.,-20.)) ;
#53=DIRECTION('Axis2P3D Direction',(0.,-1.,0.)) ;
#54=DIRECTION('Axis2P3D XDirection',(0.87758256189,0.,-0.479425538604)) ;
#58=DIRECTION('Axis2P3D Direction',(0.,-1.,0.)) ;
#67=DIRECTION('Vector Direction',(-0.620544580564,-0.707106781187,0.339005049421)) ;
#74=DIRECTION('Axis2P3D Direction',(0.,-1.,0.)) ;
#81=DIRECTION('Vector Direction',(0.620544580564,-0.707106781187,-0.339005049421)) ;
#93=DIRECTION('Axis2P3D Direction',(0.,-1.,0.)) ;
#98=DIRECTION('Axis2P3D Direction',(0.,-1.,0.)) ;
#110=DIRECTION('Axis2P3D Direction',(-0.,1.,0.)) ;
#111=DIRECTION('Axis2P3D XDirection',(0.87758256189,0.,-0.479425538604)) ;
#115=DIRECTION('Axis2P3D Direction',(-0.,1.,0.)) ;
#124=DIRECTION('Vector Direction',(0.,1.,0.)) ;
#129=DIRECTION('Vector Direction',(0.,1.,0.)) ;
#141=DIRECTION('Axis2P3D Direction',(-0.,1.,0.)) ;
#153=DIRECTION('Axis2P3D Direction',(1.,0.,0.)) ;
#154=DIRECTION('Axis2P3D XDirection',(0.,-0.0625,0.998044963917)) ;
#158=DIRECTION('Vector Direction',(1.,0.,0.)) ;
#167=DIRECTION('Axis2P3D Direction',(1.,0.,0.)) ;
#174=DIRECTION('Vector Direction',(1.,0.,0.)) ;
#181=DIRECTION('Axis2P3D Direction',(1.,0.,0.)) ;
#193=DIRECTION('Axis2P3D Direction',(-0.,1.,0.)) ;
#194=DIRECTION('Axis2P3D XDirection',(0.87758256189,0.,-0.479425538604)) ;
#198=DIRECTION('Axis2P3D Direction',(-0.,1.,0.)) ;
#207=DIRECTION('Vector Direction',(0.,1.,0.)) ;
#214=DIRECTION('Axis2P3D Direction',(-0.,1.,0.)) ;
#221=DIRECTION('Vector Direction',(0.,1.,0.)) ;
#233=DIRECTION('Axis2P3D Direction',(-0.,1.,0.)) ;
#238=DIRECTION('Axis2P3D Direction',(-0.,1.,0.)) ;
#250=DIRECTION('Axis2P3D Direction',(0.,-1.,-0.)) ;
#251=DIRECTION('Axis2P3D XDirection',(0.87758256189,0.,-0.479425538604)) ;
#255=DIRECTION('Axis2P3D Direction',(0.,-1.,0.)) ;
#264=DIRECTION('Vector Direction',(-0.620544580564,-0.707106781187,0.339005049421)) ;
#269=DIRECTION('Vector Direction',(0.620544580564,-0.707106781187,-0.339005049421)) ;
#281=DIRECTION('Axis2P3D Direction',(0.,-1.,0.)) ;
#293=DIRECTION('Axis2P3D Direction',(0.707106781187,0.,0.707106781187)) ;
#294=DIRECTION('Axis2P3D XDirection',(0.,-1.,0.)) ;
#298=DIRECTION('Vector Direction',(0.707106781187,0.,-0.707106781187)) ;
#307=DIRECTION('Vector Direction',(0.,-1.,0.)) ;
#314=DIRECTION('Vector Direction',(0.707106781187,0.,-0.707106781187)) ;
#321=DIRECTION('Vector Direction',(0.,-1.,0.)) ;
#333=DIRECTION('Axis2P3D Direction',(0.,1.,0.)) ;
#334=DIRECTION('Axis2P3D XDirection',(0.,0.,1.)) ;
#338=DIRECTION('Vector Direction',(1.,0.,0.)) ;
#345=DIRECTION('Vector Direction',(0.,0.,-1.)) ;
#350=DIRECTION('Vector Direction',(0.,0.,-1.)) ;
#357=DIRECTION('Vector Direction',(-0.707106781187,0.,-0.707106781186)) ;
#375=DIRECTION('Axis2P3D Direction',(0.,0.,-1.)) ;
#376=DIRECTION('Axis2P3D XDirection',(0.,1.,0.)) ;
#380=DIRECTION('Vector Direction',(0.,-1.,0.)) ;
#387=DIRECTION('Vector Direction',(1.,0.,0.)) ;
#399=DIRECTION('Axis2P3D Direction',(0.707106781187,0.,-0.707106781187)) ;
#400=DIRECTION('Axis2P3D XDirection',(0.,-1.,0.)) ;
#404=DIRECTION('Vector Direction',(0.,-1.,0.)) ;
#411=DIRECTION('Vector Direction',(-0.707106781187,0.,-0.707106781187)) ;
#423=DIRECTION('Axis2P3D Direction',(1.,0.,0.)) ;
#424=DIRECTION('Axis2P3D XDirection',(0.,1.,0.)) ;
#428=DIRECTION('Vector Direction',(0.,0.,1.)) ;
#435=DIRECTION('Vector Direction',(0.,0.,-1.)) ;
#442=DIRECTION('Vector Direction',(0.,-1.,0.)) ;
#456=DIRECTION('Axis2P3D Direction',(-0.707106781187,0.,0.707106781187)) ;
#457=DIRECTION('Axis2P3D XDirection',(0.,-1.,0.)) ;
#461=DIRECTION('Vector Direction',(0.707106781187,0.,0.707106781187)) ;
#468=DIRECTION('Vector Direction',(0.,-1.,0.)) ;
#475=DIRECTION('Vector Direction',(0.707106781187,0.,0.707106781187)) ;
#487=DIRECTION('Axis2P3D Direction',(1.,0.,0.)) ;
#488=DIRECTION('Axis2P3D XDirection',(0.,1.,0.)) ;
#492=DIRECTION('Vector Direction',(0.,-1.,0.)) ;
#501=DIRECTION('Vector Direction',(0.,0.,-1.)) ;
#506=DIRECTION('Vector Direction',(0.,0.,1.)) ;
#520=DIRECTION('Vector Direction',(1.,0.,0.)) ;
#527=DIRECTION('Vector Direction',(-0.707106781187,0.,0.707106781187)) ;
#545=DIRECTION('Axis2P3D Direction',(0.,0.,-1.)) ;
#546=DIRECTION('Axis2P3D XDirection',(0.,1.,0.)) ;
#550=DIRECTION('Vector Direction',(1.,0.,0.)) ;
#557=DIRECTION('Vector Direction',(0.,-1.,0.)) ;
#569=DIRECTION('Axis2P3D Direction',(0.,-1.,0.)) ;
#570=DIRECTION('Axis2P3D XDirection',(0.,0.,-1.)) ;
#574=DIRECTION('Vector Direction',(-0.707106781187,0.,0.707106781187)) ;
#598=DIRECTION('Axis2P3D Direction',(-0.707106781187,-0.,-0.707106781187)) ;
#599=DIRECTION('Axis2P3D XDirection',(0.,-1.,0.)) ;
#48=AXIS2_PLACEMENT_3D(' ',#47,$,$) ;
#55=AXIS2_PLACEMENT_3D('Cone Axis2P3D',#52,#53,#54) ;
#59=AXIS2_PLACEMENT_3D('Circle Axis2P3D',#57,#58,$) ;
#75=AXIS2_PLACEMENT_3D('Circle Axis2P3D',#73,#74,$) ;
#94=AXIS2_PLACEMENT_3D('Circle Axis2P3D',#92,#93,$) ;
#99=AXIS2_PLACEMENT_3D('Circle Axis2P3D',#97,#98,$) ;
#112=AXIS2_PLACEMENT_3D('Cylinder Axis2P3D',#109,#110,#111) ;
#116=AXIS2_PLACEMENT_3D('Circle Axis2P3D',#114,#115,$) ;
#142=AXIS2_PLACEMENT_3D('Circle Axis2P3D',#140,#141,$) ;
#155=AXIS2_PLACEMENT_3D('Cylinder Axis2P3D',#152,#153,#154) ;
#168=AXIS2_PLACEMENT_3D('Circle Axis2P3D',#166,#167,$) ;
#182=AXIS2_PLACEMENT_3D('Circle Axis2P3D',#180,#181,$) ;
#195=AXIS2_PLACEMENT_3D('Cylinder Axis2P3D',#192,#193,#194) ;
#199=AXIS2_PLACEMENT_3D('Circle Axis2P3D',#197,#198,$) ;
#215=AXIS2_PLACEMENT_3D('Circle Axis2P3D',#213,#214,$) ;
#234=AXIS2_PLACEMENT_3D('Circle Axis2P3D',#232,#233,$) ;
#239=AXIS2_PLACEMENT_3D('Circle Axis2P3D',#237,#238,$) ;
#252=AXIS2_PLACEMENT_3D('Cone Axis2P3D',#249,#250,#251) ;
#256=AXIS2_PLACEMENT_3D('Circle Axis2P3D',#254,#255,$) ;
#282=AXIS2_PLACEMENT_3D('Circle Axis2P3D',#280,#281,$) ;
#295=AXIS2_PLACEMENT_3D('Plane Axis2P3D',#292,#293,#294) ;
#335=AXIS2_PLACEMENT_3D('Plane Axis2P3D',#332,#333,#334) ;
#377=AXIS2_PLACEMENT_3D('Plane Axis2P3D',#374,#375,#376) ;
#401=AXIS2_PLACEMENT_3D('Plane Axis2P3D',#398,#399,#400) ;
#425=AXIS2_PLACEMENT_3D('Plane Axis2P3D',#422,#423,#424) ;
#458=AXIS2_PLACEMENT_3D('Plane Axis2P3D',#455,#456,#457) ;
#489=AXIS2_PLACEMENT_3D('Plane Axis2P3D',#486,#487,#488) ;
#547=AXIS2_PLACEMENT_3D('Plane Axis2P3D',#544,#545,#546) ;
#571=AXIS2_PLACEMENT_3D('Plane Axis2P3D',#568,#569,#570) ;
#600=AXIS2_PLACEMENT_3D('Plane Axis2P3D',#597,#598,#599) ;
#40=PRODUCT_DEFINITION_SHAPE(' ',' ',#14) ;
#31=APPROVAL_PERSON_ORGANIZATION(#25,#21,#19) ;
#25=PERSON_AND_ORGANIZATION(#22,#23) ;
#22=PERSON(' ',' ',' ',$,$,$) ;
#23=ORGANIZATION(' ',' ',' ') ;
#21=APPROVAL(#20,' ') ;
#20=APPROVAL_STATUS('not_yet_approved') ;
#19=APPROVAL_ROLE('APPROVER') ;
#13=DATE_AND_TIME(#11,#12) ;
#12=LOCAL_TIME(11,23,15.,#10) ;
#10=COORDINATED_UNIVERSAL_TIME_OFFSET(0,0,.AHEAD.) ;
#86=ORIENTED_EDGE('',*,*,#65,.T.) ;
#87=ORIENTED_EDGE('',*,*,#72,.F.) ;
#88=ORIENTED_EDGE('',*,*,#79,.T.) ;
#89=ORIENTED_EDGE('',*,*,#84,.T.) ;
#103=ORIENTED_EDGE('',*,*,#96,.T.) ;
#104=ORIENTED_EDGE('',*,*,#84,.F.) ;
#105=ORIENTED_EDGE('',*,*,#101,.T.) ;
#106=ORIENTED_EDGE('',*,*,#72,.T.) ;
#134=ORIENTED_EDGE('',*,*,#122,.T.) ;
#135=ORIENTED_EDGE('',*,*,#127,.T.) ;
#136=ORIENTED_EDGE('',*,*,#79,.F.) ;
#137=ORIENTED_EDGE('',*,*,#132,.F.) ;
#146=ORIENTED_EDGE('',*,*,#144,.T.) ;
#147=ORIENTED_EDGE('',*,*,#132,.T.) ;
#148=ORIENTED_EDGE('',*,*,#101,.F.) ;
#149=ORIENTED_EDGE('',*,*,#127,.F.) ;
#186=ORIENTED_EDGE('',*,*,#165,.F.) ;
#187=ORIENTED_EDGE('',*,*,#172,.T.) ;
#188=ORIENTED_EDGE('',*,*,#179,.T.) ;
#189=ORIENTED_EDGE('',*,*,#184,.F.) ;
#226=ORIENTED_EDGE('',*,*,#205,.T.) ;
#227=ORIENTED_EDGE('',*,*,#212,.T.) ;
#228=ORIENTED_EDGE('',*,*,#219,.F.) ;
#229=ORIENTED_EDGE('',*,*,#224,.F.) ;
#243=ORIENTED_EDGE('',*,*,#236,.T.) ;
#244=ORIENTED_EDGE('',*,*,#224,.T.) ;
#245=ORIENTED_EDGE('',*,*,#241,.F.) ;
#246=ORIENTED_EDGE('',*,*,#212,.F.) ;
#274=ORIENTED_EDGE('',*,*,#262,.T.) ;
#275=ORIENTED_EDGE('',*,*,#267,.F.) ;
#276=ORIENTED_EDGE('',*,*,#241,.T.) ;
#277=ORIENTED_EDGE('',*,*,#272,.T.) ;
#286=ORIENTED_EDGE('',*,*,#284,.T.) ;
#287=ORIENTED_EDGE('',*,*,#272,.F.) ;
#288=ORIENTED_EDGE('',*,*,#219,.T.) ;
#289=ORIENTED_EDGE('',*,*,#267,.T.) ;
#326=ORIENTED_EDGE('',*,*,#305,.T.) ;
#327=ORIENTED_EDGE('',*,*,#312,.F.) ;
#328=ORIENTED_EDGE('',*,*,#319,.T.) ;
#329=ORIENTED_EDGE('',*,*,#324,.T.) ;
#362=ORIENTED_EDGE('',*,*,#343,.T.) ;
#363=ORIENTED_EDGE('',*,*,#319,.F.) ;
#364=ORIENTED_EDGE('',*,*,#348,.F.) ;
#365=ORIENTED_EDGE('',*,*,#179,.F.) ;
#366=ORIENTED_EDGE('',*,*,#355,.T.) ;
#367=ORIENTED_EDGE('',*,*,#360,.F.) ;
#370=ORIENTED_EDGE('',*,*,#205,.F.) ;
#371=ORIENTED_EDGE('',*,*,#236,.F.) ;
#392=ORIENTED_EDGE('',*,*,#385,.T.) ;
#393=ORIENTED_EDGE('',*,*,#390,.T.) ;
#394=ORIENTED_EDGE('',*,*,#324,.F.) ;
#395=ORIENTED_EDGE('',*,*,#343,.F.) ;
#416=ORIENTED_EDGE('',*,*,#385,.F.) ;
#417=ORIENTED_EDGE('',*,*,#360,.T.) ;
#418=ORIENTED_EDGE('',*,*,#409,.T.) ;
#419=ORIENTED_EDGE('',*,*,#414,.T.) ;
#447=ORIENTED_EDGE('',*,*,#433,.T.) ;
#448=ORIENTED_EDGE('',*,*,#184,.T.) ;
#449=ORIENTED_EDGE('',*,*,#348,.T.) ;
#450=ORIENTED_EDGE('',*,*,#312,.T.) ;
#451=ORIENTED_EDGE('',*,*,#440,.T.) ;
#452=ORIENTED_EDGE('',*,*,#445,.T.) ;
#480=ORIENTED_EDGE('',*,*,#445,.F.) ;
#481=ORIENTED_EDGE('',*,*,#466,.T.) ;
#482=ORIENTED_EDGE('',*,*,#473,.T.) ;
#483=ORIENTED_EDGE('',*,*,#478,.T.) ;
#511=ORIENTED_EDGE('',*,*,#499,.F.) ;
#512=ORIENTED_EDGE('',*,*,#504,.F.) ;
#513=ORIENTED_EDGE('',*,*,#409,.F.) ;
#514=ORIENTED_EDGE('',*,*,#355,.F.) ;
#515=ORIENTED_EDGE('',*,*,#172,.F.) ;
#516=ORIENTED_EDGE('',*,*,#509,.F.) ;
#532=ORIENTED_EDGE('',*,*,#509,.T.) ;
#533=ORIENTED_EDGE('',*,*,#165,.T.) ;
#534=ORIENTED_EDGE('',*,*,#433,.F.) ;
#535=ORIENTED_EDGE('',*,*,#478,.F.) ;
#536=ORIENTED_EDGE('',*,*,#525,.F.) ;
#537=ORIENTED_EDGE('',*,*,#530,.F.) ;
#540=ORIENTED_EDGE('',*,*,#144,.F.) ;
#541=ORIENTED_EDGE('',*,*,#122,.F.) ;
#562=ORIENTED_EDGE('',*,*,#525,.T.) ;
#563=ORIENTED_EDGE('',*,*,#473,.F.) ;
#564=ORIENTED_EDGE('',*,*,#555,.F.) ;
#565=ORIENTED_EDGE('',*,*,#560,.T.) ;
#579=ORIENTED_EDGE('',*,*,#555,.T.) ;
#580=ORIENTED_EDGE('',*,*,#466,.F.) ;
#581=ORIENTED_EDGE('',*,*,#440,.F.) ;
#582=ORIENTED_EDGE('',*,*,#305,.F.) ;
#583=ORIENTED_EDGE('',*,*,#390,.F.) ;
#584=ORIENTED_EDGE('',*,*,#414,.F.) ;
#585=ORIENTED_EDGE('',*,*,#504,.T.) ;
#586=ORIENTED_EDGE('',*,*,#577,.F.) ;
#589=ORIENTED_EDGE('',*,*,#96,.F.) ;
#590=ORIENTED_EDGE('',*,*,#65,.F.) ;
#593=ORIENTED_EDGE('',*,*,#284,.F.) ;
#594=ORIENTED_EDGE('',*,*,#262,.F.) ;
#603=ORIENTED_EDGE('',*,*,#530,.T.) ;
#604=ORIENTED_EDGE('',*,*,#560,.F.) ;
#605=ORIENTED_EDGE('',*,*,#577,.T.) ;
#606=ORIENTED_EDGE('',*,*,#499,.T.) ;
#372=FACE_BOUND('',#369,.T.) ;
#542=FACE_BOUND('',#539,.T.) ;
#591=FACE_BOUND('',#588,.T.) ;
#595=FACE_BOUND('',#592,.T.) ;
#51=CLOSED_SHELL('Closed Shell',(#91,#108,#139,#151,#191,#231,#248,#279,#291,#331,#373,#397,#421,#454,#485,#518,#543,#567,#596,#608)) ;
#68=VECTOR('Line Direction',#67,1.) ;
#82=VECTOR('Line Direction',#81,1.) ;
#125=VECTOR('Line Direction',#124,1.) ;
#130=VECTOR('Line Direction',#129,1.) ;
#159=VECTOR('Line Direction',#158,1.) ;
#175=VECTOR('Line Direction',#174,1.) ;
#208=VECTOR('Line Direction',#207,1.) ;
#222=VECTOR('Line Direction',#221,1.) ;
#265=VECTOR('Line Direction',#264,1.) ;
#270=VECTOR('Line Direction',#269,1.) ;
#299=VECTOR('Line Direction',#298,1.) ;
#308=VECTOR('Line Direction',#307,1.) ;
#315=VECTOR('Line Direction',#314,1.) ;
#322=VECTOR('Line Direction',#321,1.) ;
#339=VECTOR('Line Direction',#338,1.) ;
#346=VECTOR('Line Direction',#345,1.) ;
#351=VECTOR('Line Direction',#350,1.) ;
#358=VECTOR('Line Direction',#357,1.) ;
#381=VECTOR('Line Direction',#380,1.) ;
#388=VECTOR('Line Direction',#387,1.) ;
#405=VECTOR('Line Direction',#404,1.) ;
#412=VECTOR('Line Direction',#411,1.) ;
#429=VECTOR('Line Direction',#428,1.) ;
#436=VECTOR('Line Direction',#435,1.) ;
#443=VECTOR('Line Direction',#442,1.) ;
#462=VECTOR('Line Direction',#461,1.) ;
#469=VECTOR('Line Direction',#468,1.) ;
#476=VECTOR('Line Direction',#475,1.) ;
#493=VECTOR('Line Direction',#492,1.) ;
#502=VECTOR('Line Direction',#501,1.) ;
#507=VECTOR('Line Direction',#506,1.) ;
#521=VECTOR('Line Direction',#520,1.) ;
#528=VECTOR('Line Direction',#527,1.) ;
#551=VECTOR('Line Direction',#550,1.) ;
#558=VECTOR('Line Direction',#557,1.) ;
#575=VECTOR('Line Direction',#574,1.) ;
#610=ADVANCED_BREP_SHAPE_REPRESENTATION('NONE',(#609),#46) ;
#49=SHAPE_REPRESENTATION(' ',(#48),#46) ;
#91=ADVANCED_FACE('Corps principal',(#90),#56,.F.) ;
#108=ADVANCED_FACE('Corps principal',(#107),#56,.F.) ;
#139=ADVANCED_FACE('Corps principal',(#138),#113,.F.) ;
#151=ADVANCED_FACE('Corps principal',(#150),#113,.F.) ;
#191=ADVANCED_FACE('Corps principal',(#190),#156,.F.) ;
#231=ADVANCED_FACE('Corps principal',(#230),#196,.F.) ;
#248=ADVANCED_FACE('Corps principal',(#247),#196,.F.) ;
#279=ADVANCED_FACE('Corps principal',(#278),#253,.F.) ;
#291=ADVANCED_FACE('Corps principal',(#290),#253,.F.) ;
#331=ADVANCED_FACE('Corps principal',(#330),#296,.T.) ;
#373=ADVANCED_FACE('Corps principal',(#368,#372),#336,.T.) ;
#397=ADVANCED_FACE('Corps principal',(#396),#378,.F.) ;
#421=ADVANCED_FACE('Corps principal',(#420),#402,.F.) ;
#454=ADVANCED_FACE('Corps principal',(#453),#426,.T.) ;
#485=ADVANCED_FACE('Corps principal',(#484),#459,.F.) ;
#518=ADVANCED_FACE('Corps principal',(#517),#490,.F.) ;
#543=ADVANCED_FACE('Corps principal',(#538,#542),#336,.T.) ;
#567=ADVANCED_FACE('Corps principal',(#566),#548,.T.) ;
#596=ADVANCED_FACE('Corps principal',(#587,#591,#595),#572,.T.) ;
#608=ADVANCED_FACE('Corps principal',(#607),#601,.T.) ;
#4=APPLICATION_PROTOCOL_DEFINITION('international standard','config_control_design',1994,#1) ;
#32=APPROVAL_DATE_TIME(#13,#21) ;
#609=MANIFOLD_SOLID_BREP('Corps principal',#51) ;
#11=CALENDAR_DATE(2021,2,6) ;
#30=CC_DESIGN_APPROVAL(#21,(#16,#6,#14)) ;
#18=CC_DESIGN_DATE_AND_TIME_ASSIGNMENT(#13,#17,(#16)) ;
#29=CC_DESIGN_DATE_AND_TIME_ASSIGNMENT(#13,#28,(#14)) ;
#17=DATE_TIME_ROLE('classification_date') ;
#28=DATE_TIME_ROLE('creation_date') ;
#27=CC_DESIGN_PERSON_AND_ORGANIZATION_ASSIGNMENT(#25,#26,(#16)) ;
#33=CC_DESIGN_PERSON_AND_ORGANIZATION_ASSIGNMENT(#25,#34,(#6)) ;
#35=CC_DESIGN_PERSON_AND_ORGANIZATION_ASSIGNMENT(#25,#36,(#6,#14)) ;
#37=CC_DESIGN_PERSON_AND_ORGANIZATION_ASSIGNMENT(#25,#38,(#5)) ;
#26=PERSON_AND_ORGANIZATION_ROLE('classification_officer') ;
#34=PERSON_AND_ORGANIZATION_ROLE('design_supplier') ;
#36=PERSON_AND_ORGANIZATION_ROLE('creator') ;
#38=PERSON_AND_ORGANIZATION_ROLE('design_owner') ;
#39=CC_DESIGN_SECURITY_CLASSIFICATION(#16,(#6)) ;
#60=CIRCLE('generated circle',#59,5.1) ;
#76=CIRCLE('generated circle',#75,2.6) ;
#95=CIRCLE('generated circle',#94,5.1) ;
#100=CIRCLE('generated circle',#99,2.6) ;
#117=CIRCLE('generated circle',#116,2.6) ;
#143=CIRCLE('generated circle',#142,2.6) ;
#169=CIRCLE('generated circle',#168,8.) ;
#183=CIRCLE('generated circle',#182,8.) ;
#200=CIRCLE('generated circle',#199,2.6) ;
#216=CIRCLE('generated circle',#215,2.6) ;
#235=CIRCLE('generated circle',#234,2.6) ;
#240=CIRCLE('generated circle',#239,2.6) ;
#257=CIRCLE('generated circle',#256,5.1) ;
#283=CIRCLE('generated circle',#282,5.1) ;
#56=CONICAL_SURFACE('Cone',#55,2.6,0.785398163397) ;
#253=CONICAL_SURFACE('Cone',#252,2.6,0.785398163397) ;
#611=SHAPE_REPRESENTATION_RELATIONSHIP(' ',' ',#49,#610) ;
#113=CYLINDRICAL_SURFACE('generated cylinder',#112,2.6) ;
#156=CYLINDRICAL_SURFACE('generated cylinder',#155,8.) ;
#196=CYLINDRICAL_SURFACE('generated cylinder',#195,2.6) ;
#3=DESIGN_CONTEXT(' ',#1,'design') ;
#65=EDGE_CURVE('',#62,#64,#60,.T.) ;
#72=EDGE_CURVE('',#71,#64,#69,.T.) ;
#79=EDGE_CURVE('',#71,#78,#76,.F.) ;
#84=EDGE_CURVE('',#78,#62,#83,.T.) ;
#96=EDGE_CURVE('',#64,#62,#95,.T.) ;
#101=EDGE_CURVE('',#78,#71,#100,.F.) ;
#122=EDGE_CURVE('',#119,#121,#117,.T.) ;
#127=EDGE_CURVE('',#121,#78,#126,.F.) ;
#132=EDGE_CURVE('',#119,#71,#131,.F.) ;
#144=EDGE_CURVE('',#121,#119,#143,.T.) ;
#165=EDGE_CURVE('',#162,#164,#160,.T.) ;
#172=EDGE_CURVE('',#162,#171,#169,.F.) ;
#179=EDGE_CURVE('',#171,#178,#176,.T.) ;
#184=EDGE_CURVE('',#164,#178,#183,.F.) ;
#205=EDGE_CURVE('',#202,#204,#200,.T.) ;
#212=EDGE_CURVE('',#204,#211,#209,.F.) ;
#219=EDGE_CURVE('',#218,#211,#216,.T.) ;
#224=EDGE_CURVE('',#202,#218,#223,.F.) ;
#236=EDGE_CURVE('',#204,#202,#235,.T.) ;
#241=EDGE_CURVE('',#211,#218,#240,.T.) ;
#262=EDGE_CURVE('',#259,#261,#257,.T.) ;
#267=EDGE_CURVE('',#211,#261,#266,.T.) ;
#272=EDGE_CURVE('',#218,#259,#271,.T.) ;
#284=EDGE_CURVE('',#261,#259,#283,.T.) ;
#305=EDGE_CURVE('',#302,#304,#300,.T.) ;
#312=EDGE_CURVE('',#311,#304,#309,.T.) ;
#319=EDGE_CURVE('',#311,#318,#316,.F.) ;
#324=EDGE_CURVE('',#318,#302,#323,.T.) ;
#343=EDGE_CURVE('',#342,#318,#340,.T.) ;
#348=EDGE_CURVE('',#178,#311,#347,.F.) ;
#355=EDGE_CURVE('',#171,#354,#352,.F.) ;
#360=EDGE_CURVE('',#342,#354,#359,.T.) ;
#385=EDGE_CURVE('',#342,#384,#382,.T.) ;
#390=EDGE_CURVE('',#384,#302,#389,.T.) ;
#409=EDGE_CURVE('',#354,#408,#406,.T.) ;
#414=EDGE_CURVE('',#408,#384,#413,.F.) ;
#433=EDGE_CURVE('',#432,#164,#430,.T.) ;
#440=EDGE_CURVE('',#304,#439,#437,.T.) ;
#445=EDGE_CURVE('',#439,#432,#444,.F.) ;
#466=EDGE_CURVE('',#439,#465,#463,.F.) ;
#473=EDGE_CURVE('',#465,#472,#470,.F.) ;
#478=EDGE_CURVE('',#472,#432,#477,.T.) ;
#499=EDGE_CURVE('',#496,#498,#494,.F.) ;
#504=EDGE_CURVE('',#408,#496,#503,.T.) ;
#509=EDGE_CURVE('',#498,#162,#508,.T.) ;
#525=EDGE_CURVE('',#524,#472,#522,.T.) ;
#530=EDGE_CURVE('',#498,#524,#529,.F.) ;
#555=EDGE_CURVE('',#554,#465,#552,.T.) ;
#560=EDGE_CURVE('',#554,#524,#559,.F.) ;
#577=EDGE_CURVE('',#554,#496,#576,.T.) ;
#85=EDGE_LOOP('',(#86,#87,#88,#89)) ;
#102=EDGE_LOOP('',(#103,#104,#105,#106)) ;
#133=EDGE_LOOP('',(#134,#135,#136,#137)) ;
#145=EDGE_LOOP('',(#146,#147,#148,#149)) ;
#185=EDGE_LOOP('',(#186,#187,#188,#189)) ;
#225=EDGE_LOOP('',(#226,#227,#228,#229)) ;
#242=EDGE_LOOP('',(#243,#244,#245,#246)) ;
#273=EDGE_LOOP('',(#274,#275,#276,#277)) ;
#285=EDGE_LOOP('',(#286,#287,#288,#289)) ;
#325=EDGE_LOOP('',(#326,#327,#328,#329)) ;
#361=EDGE_LOOP('',(#362,#363,#364,#365,#366,#367)) ;
#369=EDGE_LOOP('',(#370,#371)) ;
#391=EDGE_LOOP('',(#392,#393,#394,#395)) ;
#415=EDGE_LOOP('',(#416,#417,#418,#419)) ;
#446=EDGE_LOOP('',(#447,#448,#449,#450,#451,#452)) ;
#479=EDGE_LOOP('',(#480,#481,#482,#483)) ;
#510=EDGE_LOOP('',(#511,#512,#513,#514,#515,#516)) ;
#531=EDGE_LOOP('',(#532,#533,#534,#535,#536,#537)) ;
#539=EDGE_LOOP('',(#540,#541)) ;
#561=EDGE_LOOP('',(#562,#563,#564,#565)) ;
#578=EDGE_LOOP('',(#579,#580,#581,#582,#583,#584,#585,#586)) ;
#588=EDGE_LOOP('',(#589,#590)) ;
#592=EDGE_LOOP('',(#593,#594)) ;
#602=EDGE_LOOP('',(#603,#604,#605,#606)) ;
#90=FACE_OUTER_BOUND('',#85,.T.) ;
#107=FACE_OUTER_BOUND('',#102,.T.) ;
#138=FACE_OUTER_BOUND('',#133,.T.) ;
#150=FACE_OUTER_BOUND('',#145,.T.) ;
#190=FACE_OUTER_BOUND('',#185,.T.) ;
#230=FACE_OUTER_BOUND('',#225,.T.) ;
#247=FACE_OUTER_BOUND('',#242,.T.) ;
#278=FACE_OUTER_BOUND('',#273,.T.) ;
#290=FACE_OUTER_BOUND('',#285,.T.) ;
#330=FACE_OUTER_BOUND('',#325,.T.) ;
#368=FACE_OUTER_BOUND('',#361,.T.) ;
#396=FACE_OUTER_BOUND('',#391,.T.) ;
#420=FACE_OUTER_BOUND('',#415,.T.) ;
#453=FACE_OUTER_BOUND('',#446,.T.) ;
#484=FACE_OUTER_BOUND('',#479,.T.) ;
#517=FACE_OUTER_BOUND('',#510,.T.) ;
#538=FACE_OUTER_BOUND('',#531,.T.) ;
#566=FACE_OUTER_BOUND('',#561,.T.) ;
#587=FACE_OUTER_BOUND('',#578,.T.) ;
#607=FACE_OUTER_BOUND('',#602,.T.) ;
#45=UNCERTAINTY_MEASURE_WITH_UNIT(LENGTH_MEASURE(0.005),#41,'distance_accuracy_value','CONFUSED CURVE UNCERTAINTY') ;
#69=LINE('Line',#66,#68) ;
#83=LINE('Line',#80,#82) ;
#126=LINE('Line',#123,#125) ;
#131=LINE('Line',#128,#130) ;
#160=LINE('Line',#157,#159) ;
#176=LINE('Line',#173,#175) ;
#209=LINE('Line',#206,#208) ;
#223=LINE('Line',#220,#222) ;
#266=LINE('Line',#263,#265) ;
#271=LINE('Line',#268,#270) ;
#300=LINE('Line',#297,#299) ;
#309=LINE('Line',#306,#308) ;
#316=LINE('Line',#313,#315) ;
#323=LINE('Line',#320,#322) ;
#340=LINE('Line',#337,#339) ;
#347=LINE('Line',#344,#346) ;
#352=LINE('Line',#349,#351) ;
#359=LINE('Line',#356,#358) ;
#382=LINE('Line',#379,#381) ;
#389=LINE('Line',#386,#388) ;
#406=LINE('Line',#403,#405) ;
#413=LINE('Line',#410,#412) ;
#430=LINE('Line',#427,#429) ;
#437=LINE('Line',#434,#436) ;
#444=LINE('Line',#441,#443) ;
#463=LINE('Line',#460,#462) ;
#470=LINE('Line',#467,#469) ;
#477=LINE('Line',#474,#476) ;
#494=LINE('Line',#491,#493) ;
#503=LINE('Line',#500,#502) ;
#508=LINE('Line',#505,#507) ;
#522=LINE('Line',#519,#521) ;
#529=LINE('Line',#526,#528) ;
#552=LINE('Line',#549,#551) ;
#559=LINE('Line',#556,#558) ;
#576=LINE('Line',#573,#575) ;
#2=MECHANICAL_CONTEXT(' ',#1,'mechanical') ;
#24=PERSONAL_ADDRESS(' ',' ',' ',' ',' ',' ',' ',' ',' ',' ',' ',' ',(#22),' ') ;
#296=PLANE('Plane',#295) ;
#336=PLANE('Plane',#335) ;
#378=PLANE('Plane',#377) ;
#402=PLANE('Plane',#401) ;
#426=PLANE('Plane',#425) ;
#459=PLANE('Plane',#458) ;
#490=PLANE('Plane',#489) ;
#548=PLANE('Plane',#547) ;
#572=PLANE('Plane',#571) ;
#601=PLANE('Plane',#600) ;
#43=PLANE_ANGLE_MEASURE_WITH_UNIT(PLANE_ANGLE_MEASURE(0.0174532925199),#42) ;
#7=PRODUCT_CATEGORY('part',$) ;
#9=PRODUCT_CATEGORY_RELATIONSHIP(' ',' ',#7,#8) ;
#6=PRODUCT_DEFINITION_FORMATION_WITH_SPECIFIED_SOURCE('',' ',#5,.NOT_KNOWN.) ;
#8=PRODUCT_RELATED_PRODUCT_CATEGORY('detail',$,(#5)) ;
#50=SHAPE_DEFINITION_REPRESENTATION(#40,#49) ;
#62=VERTEX_POINT('',#61) ;
#64=VERTEX_POINT('',#63) ;
#71=VERTEX_POINT('',#70) ;
#78=VERTEX_POINT('',#77) ;
#119=VERTEX_POINT('',#118) ;
#121=VERTEX_POINT('',#120) ;
#162=VERTEX_POINT('',#161) ;
#164=VERTEX_POINT('',#163) ;
#171=VERTEX_POINT('',#170) ;
#178=VERTEX_POINT('',#177) ;
#202=VERTEX_POINT('',#201) ;
#204=VERTEX_POINT('',#203) ;
#211=VERTEX_POINT('',#210) ;
#218=VERTEX_POINT('',#217) ;
#259=VERTEX_POINT('',#258) ;
#261=VERTEX_POINT('',#260) ;
#302=VERTEX_POINT('',#301) ;
#304=VERTEX_POINT('',#303) ;
#311=VERTEX_POINT('',#310) ;
#318=VERTEX_POINT('',#317) ;
#342=VERTEX_POINT('',#341) ;
#354=VERTEX_POINT('',#353) ;
#384=VERTEX_POINT('',#383) ;
#408=VERTEX_POINT('',#407) ;
#432=VERTEX_POINT('',#431) ;
#439=VERTEX_POINT('',#438) ;
#465=VERTEX_POINT('',#464) ;
#472=VERTEX_POINT('',#471) ;
#496=VERTEX_POINT('',#495) ;
#498=VERTEX_POINT('',#497) ;
#524=VERTEX_POINT('',#523) ;
#554=VERTEX_POINT('',#553) ;
#41=(LENGTH_UNIT()NAMED_UNIT(*)SI_UNIT(.MILLI.,.METRE.)) ;
#42=(NAMED_UNIT(*)PLANE_ANGLE_UNIT()SI_UNIT($,.RADIAN.)) ;
#44=(NAMED_UNIT(*)SI_UNIT($,.STERADIAN.)SOLID_ANGLE_UNIT()) ;
#46=(GEOMETRIC_REPRESENTATION_CONTEXT(3)GLOBAL_UNCERTAINTY_ASSIGNED_CONTEXT((#45))GLOBAL_UNIT_ASSIGNED_CONTEXT((#41,#42,#44))REPRESENTATION_CONTEXT(' ',' ')) ;
ENDSEC;
END-ISO-10303-21;
