ISO-10303-21;
HEADER;
FILE_DESCRIPTION(('CATIA V5 STEP Exchange'),'2;1');

FILE_NAME('C:\\Users\\djgate6\\Desktop\\demi collier.stp','2021-06-01T15:27:15+00:00',('none'),('none'),'CATIA Version 5 Release 19 SP 2 (IN-10)','CATIA V5 STEP AP203','none');

FILE_SCHEMA(('CONFIG_CONTROL_DESIGN'));

ENDSEC;
/* file written by CATIA V5R19 */
DATA;
#5=PRODUCT('Part2','','',(#2)) ;
#1=APPLICATION_CONTEXT('configuration controlled 3D design of mechanical parts and assemblies') ;
#14=PRODUCT_DEFINITION('',' ',#6,#3) ;
#16=SECURITY_CLASSIFICATION(' ',' ',#15) ;
#15=SECURITY_CLASSIFICATION_LEVEL('unclassified') ;
#47=CARTESIAN_POINT(' ',(0.,0.,0.)) ;
#52=CARTESIAN_POINT('Axis2P3D Location',(7.,11.9,-14.)) ;
#57=CARTESIAN_POINT('Line Origine',(4.14785667386,6.,-15.5581330005)) ;
#61=CARTESIAN_POINT('Vertex',(4.14785667386,0.,-15.5581330005)) ;
#63=CARTESIAN_POINT('Vertex',(4.14785667386,12.,-15.5581330005)) ;
#66=CARTESIAN_POINT('Axis2P3D Location',(7.,0.,-14.)) ;
#70=CARTESIAN_POINT('Vertex',(9.85214332614,0.,-12.4418669995)) ;
#73=CARTESIAN_POINT('Line Origine',(9.85214332614,6.,-12.4418669995)) ;
#77=CARTESIAN_POINT('Vertex',(9.85214332614,12.,-12.4418669995)) ;
#80=CARTESIAN_POINT('Axis2P3D Location',(7.,12.,-14.)) ;
#92=CARTESIAN_POINT('Axis2P3D Location',(7.,0.,-14.)) ;
#97=CARTESIAN_POINT('Axis2P3D Location',(7.,12.,-14.)) ;
#109=CARTESIAN_POINT('Axis2P3D Location',(7.,12.5,0.)) ;
#114=CARTESIAN_POINT('Line Origine',(7.,12.,-7.98435971134)) ;
#118=CARTESIAN_POINT('Vertex',(0.,12.,-7.98435971134)) ;
#120=CARTESIAN_POINT('Vertex',(14.,12.,-7.98435971134)) ;
#123=CARTESIAN_POINT('Axis2P3D Location',(0.,12.5,0.)) ;
#127=CARTESIAN_POINT('Vertex',(0.,12.,7.98435971134)) ;
#130=CARTESIAN_POINT('Line Origine',(7.,12.,7.98435971134)) ;
#134=CARTESIAN_POINT('Vertex',(14.,12.,7.98435971134)) ;
#137=CARTESIAN_POINT('Axis2P3D Location',(14.,12.5,0.)) ;
#149=CARTESIAN_POINT('Axis2P3D Location',(7.,11.9,14.)) ;
#154=CARTESIAN_POINT('Line Origine',(4.14785667386,6.,12.4418669995)) ;
#158=CARTESIAN_POINT('Vertex',(4.14785667386,0.,12.4418669995)) ;
#160=CARTESIAN_POINT('Vertex',(4.14785667386,12.,12.4418669995)) ;
#163=CARTESIAN_POINT('Axis2P3D Location',(7.,0.,14.)) ;
#167=CARTESIAN_POINT('Vertex',(9.85214332614,0.,15.5581330005)) ;
#170=CARTESIAN_POINT('Line Origine',(9.85214332614,6.,15.5581330005)) ;
#174=CARTESIAN_POINT('Vertex',(9.85214332614,12.,15.5581330005)) ;
#177=CARTESIAN_POINT('Axis2P3D Location',(7.,12.,14.)) ;
#189=CARTESIAN_POINT('Axis2P3D Location',(7.,0.,14.)) ;
#194=CARTESIAN_POINT('Axis2P3D Location',(7.,12.,14.)) ;
#206=CARTESIAN_POINT('Axis2P3D Location',(13.,14.4,20.)) ;
#211=CARTESIAN_POINT('Line Origine',(13.5,1.7763568394E-015,19.5)) ;
#215=CARTESIAN_POINT('Vertex',(13.,0.,20.)) ;
#217=CARTESIAN_POINT('Vertex',(14.,0.,19.)) ;
#220=CARTESIAN_POINT('Line Origine',(14.,6.,19.)) ;
#224=CARTESIAN_POINT('Vertex',(14.,12.,19.)) ;
#227=CARTESIAN_POINT('Line Origine',(13.5,12.,19.5)) ;
#231=CARTESIAN_POINT('Vertex',(13.,12.,20.)) ;
#234=CARTESIAN_POINT('Line Origine',(13.,6.,20.)) ;
#246=CARTESIAN_POINT('Axis2P3D Location',(0.,12.,-20.)) ;
#251=CARTESIAN_POINT('Line Origine',(7.,12.,20.)) ;
#255=CARTESIAN_POINT('Vertex',(1.,12.,20.)) ;
#258=CARTESIAN_POINT('Line Origine',(14.,12.,13.4921798557)) ;
#263=CARTESIAN_POINT('Line Origine',(0.,12.,13.4921798557)) ;
#267=CARTESIAN_POINT('Vertex',(0.,12.,19.)) ;
#270=CARTESIAN_POINT('Line Origine',(0.5,12.,19.5)) ;
#288=CARTESIAN_POINT('Axis2P3D Location',(0.,0.,20.)) ;
#293=CARTESIAN_POINT('Line Origine',(1.,6.,20.)) ;
#297=CARTESIAN_POINT('Vertex',(1.,0.,20.)) ;
#300=CARTESIAN_POINT('Line Origine',(7.,0.,20.)) ;
#312=CARTESIAN_POINT('Axis2P3D Location',(1.,14.4,20.)) ;
#317=CARTESIAN_POINT('Line Origine',(2.22044604925E-016,6.,19.)) ;
#321=CARTESIAN_POINT('Vertex',(0.,0.,19.)) ;
#324=CARTESIAN_POINT('Line Origine',(0.5,0.,19.5)) ;
#336=CARTESIAN_POINT('Axis2P3D Location',(14.,0.,0.)) ;
#341=CARTESIAN_POINT('Line Origine',(14.,12.,-13.4921798557)) ;
#345=CARTESIAN_POINT('Vertex',(14.,12.,-19.)) ;
#348=CARTESIAN_POINT('Line Origine',(14.,0.,0.)) ;
#352=CARTESIAN_POINT('Vertex',(14.,0.,-19.)) ;
#355=CARTESIAN_POINT('Line Origine',(14.,6.,-19.)) ;
#369=CARTESIAN_POINT('Axis2P3D Location',(13.,14.4,-20.)) ;
#374=CARTESIAN_POINT('Line Origine',(13.5,1.7763568394E-015,-19.5)) ;
#378=CARTESIAN_POINT('Vertex',(13.,0.,-20.)) ;
#381=CARTESIAN_POINT('Line Origine',(13.,6.,-20.)) ;
#385=CARTESIAN_POINT('Vertex',(13.,12.,-20.)) ;
#388=CARTESIAN_POINT('Line Origine',(13.5,12.,-19.5)) ;
#400=CARTESIAN_POINT('Axis2P3D Location',(0.,0.,0.)) ;
#405=CARTESIAN_POINT('Line Origine',(0.,6.,-19.)) ;
#409=CARTESIAN_POINT('Vertex',(0.,0.,-19.)) ;
#411=CARTESIAN_POINT('Vertex',(0.,12.,-19.)) ;
#414=CARTESIAN_POINT('Line Origine',(0.,0.,0.)) ;
#419=CARTESIAN_POINT('Line Origine',(0.,12.,-13.4921798557)) ;
#433=CARTESIAN_POINT('Line Origine',(7.,12.,-20.)) ;
#437=CARTESIAN_POINT('Vertex',(1.,12.,-20.)) ;
#440=CARTESIAN_POINT('Line Origine',(0.5,12.,-19.5)) ;
#458=CARTESIAN_POINT('Axis2P3D Location',(0.,0.,-20.)) ;
#463=CARTESIAN_POINT('Line Origine',(7.,0.,-20.)) ;
#467=CARTESIAN_POINT('Vertex',(1.,0.,-20.)) ;
#470=CARTESIAN_POINT('Line Origine',(1.,6.,-20.)) ;
#482=CARTESIAN_POINT('Axis2P3D Location',(0.,0.,20.)) ;
#487=CARTESIAN_POINT('Line Origine',(0.5,0.,-19.5)) ;
#511=CARTESIAN_POINT('Axis2P3D Location',(1.,14.4,-20.)) ;
#53=DIRECTION('Axis2P3D Direction',(0.,-1.,0.)) ;
#54=DIRECTION('Axis2P3D XDirection',(0.87758256189,0.,0.479425538604)) ;
#58=DIRECTION('Vector Direction',(0.,-1.,0.)) ;
#67=DIRECTION('Axis2P3D Direction',(0.,-1.,0.)) ;
#74=DIRECTION('Vector Direction',(0.,-1.,0.)) ;
#81=DIRECTION('Axis2P3D Direction',(0.,-1.,0.)) ;
#93=DIRECTION('Axis2P3D Direction',(0.,-1.,0.)) ;
#98=DIRECTION('Axis2P3D Direction',(0.,-1.,0.)) ;
#110=DIRECTION('Axis2P3D Direction',(1.,0.,0.)) ;
#111=DIRECTION('Axis2P3D XDirection',(0.,-0.0625,0.998044963917)) ;
#115=DIRECTION('Vector Direction',(1.,0.,0.)) ;
#124=DIRECTION('Axis2P3D Direction',(1.,0.,0.)) ;
#131=DIRECTION('Vector Direction',(1.,0.,0.)) ;
#138=DIRECTION('Axis2P3D Direction',(1.,0.,0.)) ;
#150=DIRECTION('Axis2P3D Direction',(0.,-1.,0.)) ;
#151=DIRECTION('Axis2P3D XDirection',(0.87758256189,0.,0.479425538604)) ;
#155=DIRECTION('Vector Direction',(0.,-1.,0.)) ;
#164=DIRECTION('Axis2P3D Direction',(0.,-1.,0.)) ;
#171=DIRECTION('Vector Direction',(0.,-1.,0.)) ;
#178=DIRECTION('Axis2P3D Direction',(0.,-1.,0.)) ;
#190=DIRECTION('Axis2P3D Direction',(0.,-1.,0.)) ;
#195=DIRECTION('Axis2P3D Direction',(0.,-1.,0.)) ;
#207=DIRECTION('Axis2P3D Direction',(0.707106781187,0.,0.707106781187)) ;
#208=DIRECTION('Axis2P3D XDirection',(0.,-1.,0.)) ;
#212=DIRECTION('Vector Direction',(0.707106781187,0.,-0.707106781187)) ;
#221=DIRECTION('Vector Direction',(0.,-1.,0.)) ;
#228=DIRECTION('Vector Direction',(0.707106781187,0.,-0.707106781187)) ;
#235=DIRECTION('Vector Direction',(0.,-1.,0.)) ;
#247=DIRECTION('Axis2P3D Direction',(0.,1.,0.)) ;
#248=DIRECTION('Axis2P3D XDirection',(0.,0.,1.)) ;
#252=DIRECTION('Vector Direction',(1.,0.,0.)) ;
#259=DIRECTION('Vector Direction',(0.,0.,-1.)) ;
#264=DIRECTION('Vector Direction',(0.,0.,-1.)) ;
#271=DIRECTION('Vector Direction',(-0.707106781187,0.,-0.707106781186)) ;
#289=DIRECTION('Axis2P3D Direction',(0.,0.,-1.)) ;
#290=DIRECTION('Axis2P3D XDirection',(0.,1.,0.)) ;
#294=DIRECTION('Vector Direction',(0.,-1.,0.)) ;
#301=DIRECTION('Vector Direction',(1.,0.,0.)) ;
#313=DIRECTION('Axis2P3D Direction',(0.707106781187,0.,-0.707106781187)) ;
#314=DIRECTION('Axis2P3D XDirection',(0.,-1.,0.)) ;
#318=DIRECTION('Vector Direction',(0.,-1.,0.)) ;
#325=DIRECTION('Vector Direction',(-0.707106781187,0.,-0.707106781187)) ;
#337=DIRECTION('Axis2P3D Direction',(1.,0.,0.)) ;
#338=DIRECTION('Axis2P3D XDirection',(0.,1.,0.)) ;
#342=DIRECTION('Vector Direction',(0.,0.,1.)) ;
#349=DIRECTION('Vector Direction',(0.,0.,-1.)) ;
#356=DIRECTION('Vector Direction',(0.,-1.,0.)) ;
#370=DIRECTION('Axis2P3D Direction',(-0.707106781187,0.,0.707106781187)) ;
#371=DIRECTION('Axis2P3D XDirection',(0.,-1.,0.)) ;
#375=DIRECTION('Vector Direction',(0.707106781187,0.,0.707106781187)) ;
#382=DIRECTION('Vector Direction',(0.,-1.,0.)) ;
#389=DIRECTION('Vector Direction',(0.707106781187,0.,0.707106781187)) ;
#401=DIRECTION('Axis2P3D Direction',(1.,0.,0.)) ;
#402=DIRECTION('Axis2P3D XDirection',(0.,1.,0.)) ;
#406=DIRECTION('Vector Direction',(0.,-1.,0.)) ;
#415=DIRECTION('Vector Direction',(0.,0.,-1.)) ;
#420=DIRECTION('Vector Direction',(0.,0.,1.)) ;
#434=DIRECTION('Vector Direction',(1.,0.,0.)) ;
#441=DIRECTION('Vector Direction',(-0.707106781187,0.,0.707106781187)) ;
#459=DIRECTION('Axis2P3D Direction',(0.,0.,-1.)) ;
#460=DIRECTION('Axis2P3D XDirection',(0.,1.,0.)) ;
#464=DIRECTION('Vector Direction',(1.,0.,0.)) ;
#471=DIRECTION('Vector Direction',(0.,-1.,0.)) ;
#483=DIRECTION('Axis2P3D Direction',(0.,-1.,0.)) ;
#484=DIRECTION('Axis2P3D XDirection',(0.,0.,-1.)) ;
#488=DIRECTION('Vector Direction',(-0.707106781187,0.,0.707106781187)) ;
#512=DIRECTION('Axis2P3D Direction',(-0.707106781187,-0.,-0.707106781187)) ;
#513=DIRECTION('Axis2P3D XDirection',(0.,-1.,0.)) ;
#48=AXIS2_PLACEMENT_3D(' ',#47,$,$) ;
#55=AXIS2_PLACEMENT_3D('Cylinder Axis2P3D',#52,#53,#54) ;
#68=AXIS2_PLACEMENT_3D('Circle Axis2P3D',#66,#67,$) ;
#82=AXIS2_PLACEMENT_3D('Circle Axis2P3D',#80,#81,$) ;
#94=AXIS2_PLACEMENT_3D('Circle Axis2P3D',#92,#93,$) ;
#99=AXIS2_PLACEMENT_3D('Circle Axis2P3D',#97,#98,$) ;
#112=AXIS2_PLACEMENT_3D('Cylinder Axis2P3D',#109,#110,#111) ;
#125=AXIS2_PLACEMENT_3D('Circle Axis2P3D',#123,#124,$) ;
#139=AXIS2_PLACEMENT_3D('Circle Axis2P3D',#137,#138,$) ;
#152=AXIS2_PLACEMENT_3D('Cylinder Axis2P3D',#149,#150,#151) ;
#165=AXIS2_PLACEMENT_3D('Circle Axis2P3D',#163,#164,$) ;
#179=AXIS2_PLACEMENT_3D('Circle Axis2P3D',#177,#178,$) ;
#191=AXIS2_PLACEMENT_3D('Circle Axis2P3D',#189,#190,$) ;
#196=AXIS2_PLACEMENT_3D('Circle Axis2P3D',#194,#195,$) ;
#209=AXIS2_PLACEMENT_3D('Plane Axis2P3D',#206,#207,#208) ;
#249=AXIS2_PLACEMENT_3D('Plane Axis2P3D',#246,#247,#248) ;
#291=AXIS2_PLACEMENT_3D('Plane Axis2P3D',#288,#289,#290) ;
#315=AXIS2_PLACEMENT_3D('Plane Axis2P3D',#312,#313,#314) ;
#339=AXIS2_PLACEMENT_3D('Plane Axis2P3D',#336,#337,#338) ;
#372=AXIS2_PLACEMENT_3D('Plane Axis2P3D',#369,#370,#371) ;
#403=AXIS2_PLACEMENT_3D('Plane Axis2P3D',#400,#401,#402) ;
#461=AXIS2_PLACEMENT_3D('Plane Axis2P3D',#458,#459,#460) ;
#485=AXIS2_PLACEMENT_3D('Plane Axis2P3D',#482,#483,#484) ;
#514=AXIS2_PLACEMENT_3D('Plane Axis2P3D',#511,#512,#513) ;
#40=PRODUCT_DEFINITION_SHAPE(' ',' ',#14) ;
#31=APPROVAL_PERSON_ORGANIZATION(#25,#21,#19) ;
#25=PERSON_AND_ORGANIZATION(#22,#23) ;
#22=PERSON(' ',' ',' ',$,$,$) ;
#23=ORGANIZATION(' ',' ',' ') ;
#21=APPROVAL(#20,' ') ;
#20=APPROVAL_STATUS('not_yet_approved') ;
#19=APPROVAL_ROLE('APPROVER') ;
#13=DATE_AND_TIME(#11,#12) ;
#12=LOCAL_TIME(17,27,15.,#10) ;
#10=COORDINATED_UNIVERSAL_TIME_OFFSET(0,0,.AHEAD.) ;
#86=ORIENTED_EDGE('',*,*,#65,.F.) ;
#87=ORIENTED_EDGE('',*,*,#72,.T.) ;
#88=ORIENTED_EDGE('',*,*,#79,.T.) ;
#89=ORIENTED_EDGE('',*,*,#84,.T.) ;
#103=ORIENTED_EDGE('',*,*,#79,.F.) ;
#104=ORIENTED_EDGE('',*,*,#96,.T.) ;
#105=ORIENTED_EDGE('',*,*,#65,.T.) ;
#106=ORIENTED_EDGE('',*,*,#101,.T.) ;
#143=ORIENTED_EDGE('',*,*,#122,.F.) ;
#144=ORIENTED_EDGE('',*,*,#129,.T.) ;
#145=ORIENTED_EDGE('',*,*,#136,.T.) ;
#146=ORIENTED_EDGE('',*,*,#141,.F.) ;
#183=ORIENTED_EDGE('',*,*,#162,.F.) ;
#184=ORIENTED_EDGE('',*,*,#169,.T.) ;
#185=ORIENTED_EDGE('',*,*,#176,.T.) ;
#186=ORIENTED_EDGE('',*,*,#181,.T.) ;
#200=ORIENTED_EDGE('',*,*,#176,.F.) ;
#201=ORIENTED_EDGE('',*,*,#193,.T.) ;
#202=ORIENTED_EDGE('',*,*,#162,.T.) ;
#203=ORIENTED_EDGE('',*,*,#198,.T.) ;
#240=ORIENTED_EDGE('',*,*,#219,.T.) ;
#241=ORIENTED_EDGE('',*,*,#226,.F.) ;
#242=ORIENTED_EDGE('',*,*,#233,.T.) ;
#243=ORIENTED_EDGE('',*,*,#238,.T.) ;
#276=ORIENTED_EDGE('',*,*,#257,.T.) ;
#277=ORIENTED_EDGE('',*,*,#233,.F.) ;
#278=ORIENTED_EDGE('',*,*,#262,.F.) ;
#279=ORIENTED_EDGE('',*,*,#136,.F.) ;
#280=ORIENTED_EDGE('',*,*,#269,.T.) ;
#281=ORIENTED_EDGE('',*,*,#274,.F.) ;
#284=ORIENTED_EDGE('',*,*,#198,.F.) ;
#285=ORIENTED_EDGE('',*,*,#181,.F.) ;
#306=ORIENTED_EDGE('',*,*,#299,.T.) ;
#307=ORIENTED_EDGE('',*,*,#304,.T.) ;
#308=ORIENTED_EDGE('',*,*,#238,.F.) ;
#309=ORIENTED_EDGE('',*,*,#257,.F.) ;
#330=ORIENTED_EDGE('',*,*,#299,.F.) ;
#331=ORIENTED_EDGE('',*,*,#274,.T.) ;
#332=ORIENTED_EDGE('',*,*,#323,.T.) ;
#333=ORIENTED_EDGE('',*,*,#328,.T.) ;
#361=ORIENTED_EDGE('',*,*,#347,.T.) ;
#362=ORIENTED_EDGE('',*,*,#141,.T.) ;
#363=ORIENTED_EDGE('',*,*,#262,.T.) ;
#364=ORIENTED_EDGE('',*,*,#226,.T.) ;
#365=ORIENTED_EDGE('',*,*,#354,.T.) ;
#366=ORIENTED_EDGE('',*,*,#359,.T.) ;
#394=ORIENTED_EDGE('',*,*,#359,.F.) ;
#395=ORIENTED_EDGE('',*,*,#380,.T.) ;
#396=ORIENTED_EDGE('',*,*,#387,.T.) ;
#397=ORIENTED_EDGE('',*,*,#392,.T.) ;
#425=ORIENTED_EDGE('',*,*,#413,.F.) ;
#426=ORIENTED_EDGE('',*,*,#418,.F.) ;
#427=ORIENTED_EDGE('',*,*,#323,.F.) ;
#428=ORIENTED_EDGE('',*,*,#269,.F.) ;
#429=ORIENTED_EDGE('',*,*,#129,.F.) ;
#430=ORIENTED_EDGE('',*,*,#423,.F.) ;
#446=ORIENTED_EDGE('',*,*,#423,.T.) ;
#447=ORIENTED_EDGE('',*,*,#122,.T.) ;
#448=ORIENTED_EDGE('',*,*,#347,.F.) ;
#449=ORIENTED_EDGE('',*,*,#392,.F.) ;
#450=ORIENTED_EDGE('',*,*,#439,.F.) ;
#451=ORIENTED_EDGE('',*,*,#444,.F.) ;
#454=ORIENTED_EDGE('',*,*,#101,.F.) ;
#455=ORIENTED_EDGE('',*,*,#84,.F.) ;
#476=ORIENTED_EDGE('',*,*,#439,.T.) ;
#477=ORIENTED_EDGE('',*,*,#387,.F.) ;
#478=ORIENTED_EDGE('',*,*,#469,.F.) ;
#479=ORIENTED_EDGE('',*,*,#474,.T.) ;
#493=ORIENTED_EDGE('',*,*,#469,.T.) ;
#494=ORIENTED_EDGE('',*,*,#380,.F.) ;
#495=ORIENTED_EDGE('',*,*,#354,.F.) ;
#496=ORIENTED_EDGE('',*,*,#219,.F.) ;
#497=ORIENTED_EDGE('',*,*,#304,.F.) ;
#498=ORIENTED_EDGE('',*,*,#328,.F.) ;
#499=ORIENTED_EDGE('',*,*,#418,.T.) ;
#500=ORIENTED_EDGE('',*,*,#491,.F.) ;
#503=ORIENTED_EDGE('',*,*,#96,.F.) ;
#504=ORIENTED_EDGE('',*,*,#72,.F.) ;
#507=ORIENTED_EDGE('',*,*,#193,.F.) ;
#508=ORIENTED_EDGE('',*,*,#169,.F.) ;
#517=ORIENTED_EDGE('',*,*,#444,.T.) ;
#518=ORIENTED_EDGE('',*,*,#474,.F.) ;
#519=ORIENTED_EDGE('',*,*,#491,.T.) ;
#520=ORIENTED_EDGE('',*,*,#413,.T.) ;
#286=FACE_BOUND('',#283,.T.) ;
#456=FACE_BOUND('',#453,.T.) ;
#505=FACE_BOUND('',#502,.T.) ;
#509=FACE_BOUND('',#506,.T.) ;
#51=CLOSED_SHELL('Closed Shell',(#91,#108,#148,#188,#205,#245,#287,#311,#335,#368,#399,#432,#457,#481,#510,#522)) ;
#59=VECTOR('Line Direction',#58,1.) ;
#75=VECTOR('Line Direction',#74,1.) ;
#116=VECTOR('Line Direction',#115,1.) ;
#132=VECTOR('Line Direction',#131,1.) ;
#156=VECTOR('Line Direction',#155,1.) ;
#172=VECTOR('Line Direction',#171,1.) ;
#213=VECTOR('Line Direction',#212,1.) ;
#222=VECTOR('Line Direction',#221,1.) ;
#229=VECTOR('Line Direction',#228,1.) ;
#236=VECTOR('Line Direction',#235,1.) ;
#253=VECTOR('Line Direction',#252,1.) ;
#260=VECTOR('Line Direction',#259,1.) ;
#265=VECTOR('Line Direction',#264,1.) ;
#272=VECTOR('Line Direction',#271,1.) ;
#295=VECTOR('Line Direction',#294,1.) ;
#302=VECTOR('Line Direction',#301,1.) ;
#319=VECTOR('Line Direction',#318,1.) ;
#326=VECTOR('Line Direction',#325,1.) ;
#343=VECTOR('Line Direction',#342,1.) ;
#350=VECTOR('Line Direction',#349,1.) ;
#357=VECTOR('Line Direction',#356,1.) ;
#376=VECTOR('Line Direction',#375,1.) ;
#383=VECTOR('Line Direction',#382,1.) ;
#390=VECTOR('Line Direction',#389,1.) ;
#407=VECTOR('Line Direction',#406,1.) ;
#416=VECTOR('Line Direction',#415,1.) ;
#421=VECTOR('Line Direction',#420,1.) ;
#435=VECTOR('Line Direction',#434,1.) ;
#442=VECTOR('Line Direction',#441,1.) ;
#465=VECTOR('Line Direction',#464,1.) ;
#472=VECTOR('Line Direction',#471,1.) ;
#489=VECTOR('Line Direction',#488,1.) ;
#524=ADVANCED_BREP_SHAPE_REPRESENTATION('NONE',(#523),#46) ;
#49=SHAPE_REPRESENTATION(' ',(#48),#46) ;
#91=ADVANCED_FACE('Corps principal',(#90),#56,.F.) ;
#108=ADVANCED_FACE('Corps principal',(#107),#56,.F.) ;
#148=ADVANCED_FACE('Corps principal',(#147),#113,.F.) ;
#188=ADVANCED_FACE('Corps principal',(#187),#153,.F.) ;
#205=ADVANCED_FACE('Corps principal',(#204),#153,.F.) ;
#245=ADVANCED_FACE('Corps principal',(#244),#210,.T.) ;
#287=ADVANCED_FACE('Corps principal',(#282,#286),#250,.T.) ;
#311=ADVANCED_FACE('Corps principal',(#310),#292,.F.) ;
#335=ADVANCED_FACE('Corps principal',(#334),#316,.F.) ;
#368=ADVANCED_FACE('Corps principal',(#367),#340,.T.) ;
#399=ADVANCED_FACE('Corps principal',(#398),#373,.F.) ;
#432=ADVANCED_FACE('Corps principal',(#431),#404,.F.) ;
#457=ADVANCED_FACE('Corps principal',(#452,#456),#250,.T.) ;
#481=ADVANCED_FACE('Corps principal',(#480),#462,.T.) ;
#510=ADVANCED_FACE('Corps principal',(#501,#505,#509),#486,.T.) ;
#522=ADVANCED_FACE('Corps principal',(#521),#515,.T.) ;
#4=APPLICATION_PROTOCOL_DEFINITION('international standard','config_control_design',1994,#1) ;
#32=APPROVAL_DATE_TIME(#13,#21) ;
#523=MANIFOLD_SOLID_BREP('Corps principal',#51) ;
#11=CALENDAR_DATE(2021,1,6) ;
#30=CC_DESIGN_APPROVAL(#21,(#16,#6,#14)) ;
#18=CC_DESIGN_DATE_AND_TIME_ASSIGNMENT(#13,#17,(#16)) ;
#29=CC_DESIGN_DATE_AND_TIME_ASSIGNMENT(#13,#28,(#14)) ;
#17=DATE_TIME_ROLE('classification_date') ;
#28=DATE_TIME_ROLE('creation_date') ;
#27=CC_DESIGN_PERSON_AND_ORGANIZATION_ASSIGNMENT(#25,#26,(#16)) ;
#33=CC_DESIGN_PERSON_AND_ORGANIZATION_ASSIGNMENT(#25,#34,(#6)) ;
#35=CC_DESIGN_PERSON_AND_ORGANIZATION_ASSIGNMENT(#25,#36,(#6,#14)) ;
#37=CC_DESIGN_PERSON_AND_ORGANIZATION_ASSIGNMENT(#25,#38,(#5)) ;
#26=PERSON_AND_ORGANIZATION_ROLE('classification_officer') ;
#34=PERSON_AND_ORGANIZATION_ROLE('design_supplier') ;
#36=PERSON_AND_ORGANIZATION_ROLE('creator') ;
#38=PERSON_AND_ORGANIZATION_ROLE('design_owner') ;
#39=CC_DESIGN_SECURITY_CLASSIFICATION(#16,(#6)) ;
#69=CIRCLE('generated circle',#68,3.25) ;
#83=CIRCLE('generated circle',#82,3.25) ;
#95=CIRCLE('generated circle',#94,3.25) ;
#100=CIRCLE('generated circle',#99,3.25) ;
#126=CIRCLE('generated circle',#125,8.) ;
#140=CIRCLE('generated circle',#139,8.) ;
#166=CIRCLE('generated circle',#165,3.25) ;
#180=CIRCLE('generated circle',#179,3.25) ;
#192=CIRCLE('generated circle',#191,3.25) ;
#197=CIRCLE('generated circle',#196,3.25) ;
#525=SHAPE_REPRESENTATION_RELATIONSHIP(' ',' ',#49,#524) ;
#56=CYLINDRICAL_SURFACE('generated cylinder',#55,3.25) ;
#113=CYLINDRICAL_SURFACE('generated cylinder',#112,8.) ;
#153=CYLINDRICAL_SURFACE('generated cylinder',#152,3.25) ;
#3=DESIGN_CONTEXT(' ',#1,'design') ;
#65=EDGE_CURVE('',#62,#64,#60,.F.) ;
#72=EDGE_CURVE('',#62,#71,#69,.T.) ;
#79=EDGE_CURVE('',#71,#78,#76,.F.) ;
#84=EDGE_CURVE('',#78,#64,#83,.F.) ;
#96=EDGE_CURVE('',#71,#62,#95,.T.) ;
#101=EDGE_CURVE('',#64,#78,#100,.F.) ;
#122=EDGE_CURVE('',#119,#121,#117,.T.) ;
#129=EDGE_CURVE('',#119,#128,#126,.F.) ;
#136=EDGE_CURVE('',#128,#135,#133,.T.) ;
#141=EDGE_CURVE('',#121,#135,#140,.F.) ;
#162=EDGE_CURVE('',#159,#161,#157,.F.) ;
#169=EDGE_CURVE('',#159,#168,#166,.T.) ;
#176=EDGE_CURVE('',#168,#175,#173,.F.) ;
#181=EDGE_CURVE('',#175,#161,#180,.F.) ;
#193=EDGE_CURVE('',#168,#159,#192,.T.) ;
#198=EDGE_CURVE('',#161,#175,#197,.F.) ;
#219=EDGE_CURVE('',#216,#218,#214,.T.) ;
#226=EDGE_CURVE('',#225,#218,#223,.T.) ;
#233=EDGE_CURVE('',#225,#232,#230,.F.) ;
#238=EDGE_CURVE('',#232,#216,#237,.T.) ;
#257=EDGE_CURVE('',#256,#232,#254,.T.) ;
#262=EDGE_CURVE('',#135,#225,#261,.F.) ;
#269=EDGE_CURVE('',#128,#268,#266,.F.) ;
#274=EDGE_CURVE('',#256,#268,#273,.T.) ;
#299=EDGE_CURVE('',#256,#298,#296,.T.) ;
#304=EDGE_CURVE('',#298,#216,#303,.T.) ;
#323=EDGE_CURVE('',#268,#322,#320,.T.) ;
#328=EDGE_CURVE('',#322,#298,#327,.F.) ;
#347=EDGE_CURVE('',#346,#121,#344,.T.) ;
#354=EDGE_CURVE('',#218,#353,#351,.T.) ;
#359=EDGE_CURVE('',#353,#346,#358,.F.) ;
#380=EDGE_CURVE('',#353,#379,#377,.F.) ;
#387=EDGE_CURVE('',#379,#386,#384,.F.) ;
#392=EDGE_CURVE('',#386,#346,#391,.T.) ;
#413=EDGE_CURVE('',#410,#412,#408,.F.) ;
#418=EDGE_CURVE('',#322,#410,#417,.T.) ;
#423=EDGE_CURVE('',#412,#119,#422,.T.) ;
#439=EDGE_CURVE('',#438,#386,#436,.T.) ;
#444=EDGE_CURVE('',#412,#438,#443,.F.) ;
#469=EDGE_CURVE('',#468,#379,#466,.T.) ;
#474=EDGE_CURVE('',#468,#438,#473,.F.) ;
#491=EDGE_CURVE('',#468,#410,#490,.T.) ;
#85=EDGE_LOOP('',(#86,#87,#88,#89)) ;
#102=EDGE_LOOP('',(#103,#104,#105,#106)) ;
#142=EDGE_LOOP('',(#143,#144,#145,#146)) ;
#182=EDGE_LOOP('',(#183,#184,#185,#186)) ;
#199=EDGE_LOOP('',(#200,#201,#202,#203)) ;
#239=EDGE_LOOP('',(#240,#241,#242,#243)) ;
#275=EDGE_LOOP('',(#276,#277,#278,#279,#280,#281)) ;
#283=EDGE_LOOP('',(#284,#285)) ;
#305=EDGE_LOOP('',(#306,#307,#308,#309)) ;
#329=EDGE_LOOP('',(#330,#331,#332,#333)) ;
#360=EDGE_LOOP('',(#361,#362,#363,#364,#365,#366)) ;
#393=EDGE_LOOP('',(#394,#395,#396,#397)) ;
#424=EDGE_LOOP('',(#425,#426,#427,#428,#429,#430)) ;
#445=EDGE_LOOP('',(#446,#447,#448,#449,#450,#451)) ;
#453=EDGE_LOOP('',(#454,#455)) ;
#475=EDGE_LOOP('',(#476,#477,#478,#479)) ;
#492=EDGE_LOOP('',(#493,#494,#495,#496,#497,#498,#499,#500)) ;
#502=EDGE_LOOP('',(#503,#504)) ;
#506=EDGE_LOOP('',(#507,#508)) ;
#516=EDGE_LOOP('',(#517,#518,#519,#520)) ;
#90=FACE_OUTER_BOUND('',#85,.T.) ;
#107=FACE_OUTER_BOUND('',#102,.T.) ;
#147=FACE_OUTER_BOUND('',#142,.T.) ;
#187=FACE_OUTER_BOUND('',#182,.T.) ;
#204=FACE_OUTER_BOUND('',#199,.T.) ;
#244=FACE_OUTER_BOUND('',#239,.T.) ;
#282=FACE_OUTER_BOUND('',#275,.T.) ;
#310=FACE_OUTER_BOUND('',#305,.T.) ;
#334=FACE_OUTER_BOUND('',#329,.T.) ;
#367=FACE_OUTER_BOUND('',#360,.T.) ;
#398=FACE_OUTER_BOUND('',#393,.T.) ;
#431=FACE_OUTER_BOUND('',#424,.T.) ;
#452=FACE_OUTER_BOUND('',#445,.T.) ;
#480=FACE_OUTER_BOUND('',#475,.T.) ;
#501=FACE_OUTER_BOUND('',#492,.T.) ;
#521=FACE_OUTER_BOUND('',#516,.T.) ;
#45=UNCERTAINTY_MEASURE_WITH_UNIT(LENGTH_MEASURE(0.005),#41,'distance_accuracy_value','CONFUSED CURVE UNCERTAINTY') ;
#60=LINE('Line',#57,#59) ;
#76=LINE('Line',#73,#75) ;
#117=LINE('Line',#114,#116) ;
#133=LINE('Line',#130,#132) ;
#157=LINE('Line',#154,#156) ;
#173=LINE('Line',#170,#172) ;
#214=LINE('Line',#211,#213) ;
#223=LINE('Line',#220,#222) ;
#230=LINE('Line',#227,#229) ;
#237=LINE('Line',#234,#236) ;
#254=LINE('Line',#251,#253) ;
#261=LINE('Line',#258,#260) ;
#266=LINE('Line',#263,#265) ;
#273=LINE('Line',#270,#272) ;
#296=LINE('Line',#293,#295) ;
#303=LINE('Line',#300,#302) ;
#320=LINE('Line',#317,#319) ;
#327=LINE('Line',#324,#326) ;
#344=LINE('Line',#341,#343) ;
#351=LINE('Line',#348,#350) ;
#358=LINE('Line',#355,#357) ;
#377=LINE('Line',#374,#376) ;
#384=LINE('Line',#381,#383) ;
#391=LINE('Line',#388,#390) ;
#408=LINE('Line',#405,#407) ;
#417=LINE('Line',#414,#416) ;
#422=LINE('Line',#419,#421) ;
#436=LINE('Line',#433,#435) ;
#443=LINE('Line',#440,#442) ;
#466=LINE('Line',#463,#465) ;
#473=LINE('Line',#470,#472) ;
#490=LINE('Line',#487,#489) ;
#2=MECHANICAL_CONTEXT(' ',#1,'mechanical') ;
#24=PERSONAL_ADDRESS(' ',' ',' ',' ',' ',' ',' ',' ',' ',' ',' ',' ',(#22),' ') ;
#210=PLANE('Plane',#209) ;
#250=PLANE('Plane',#249) ;
#292=PLANE('Plane',#291) ;
#316=PLANE('Plane',#315) ;
#340=PLANE('Plane',#339) ;
#373=PLANE('Plane',#372) ;
#404=PLANE('Plane',#403) ;
#462=PLANE('Plane',#461) ;
#486=PLANE('Plane',#485) ;
#515=PLANE('Plane',#514) ;
#43=PLANE_ANGLE_MEASURE_WITH_UNIT(PLANE_ANGLE_MEASURE(0.0174532925199),#42) ;
#7=PRODUCT_CATEGORY('part',$) ;
#9=PRODUCT_CATEGORY_RELATIONSHIP(' ',' ',#7,#8) ;
#6=PRODUCT_DEFINITION_FORMATION_WITH_SPECIFIED_SOURCE('',' ',#5,.NOT_KNOWN.) ;
#8=PRODUCT_RELATED_PRODUCT_CATEGORY('detail',$,(#5)) ;
#50=SHAPE_DEFINITION_REPRESENTATION(#40,#49) ;
#62=VERTEX_POINT('',#61) ;
#64=VERTEX_POINT('',#63) ;
#71=VERTEX_POINT('',#70) ;
#78=VERTEX_POINT('',#77) ;
#119=VERTEX_POINT('',#118) ;
#121=VERTEX_POINT('',#120) ;
#128=VERTEX_POINT('',#127) ;
#135=VERTEX_POINT('',#134) ;
#159=VERTEX_POINT('',#158) ;
#161=VERTEX_POINT('',#160) ;
#168=VERTEX_POINT('',#167) ;
#175=VERTEX_POINT('',#174) ;
#216=VERTEX_POINT('',#215) ;
#218=VERTEX_POINT('',#217) ;
#225=VERTEX_POINT('',#224) ;
#232=VERTEX_POINT('',#231) ;
#256=VERTEX_POINT('',#255) ;
#268=VERTEX_POINT('',#267) ;
#298=VERTEX_POINT('',#297) ;
#322=VERTEX_POINT('',#321) ;
#346=VERTEX_POINT('',#345) ;
#353=VERTEX_POINT('',#352) ;
#379=VERTEX_POINT('',#378) ;
#386=VERTEX_POINT('',#385) ;
#410=VERTEX_POINT('',#409) ;
#412=VERTEX_POINT('',#411) ;
#438=VERTEX_POINT('',#437) ;
#468=VERTEX_POINT('',#467) ;
#41=(LENGTH_UNIT()NAMED_UNIT(*)SI_UNIT(.MILLI.,.METRE.)) ;
#42=(NAMED_UNIT(*)PLANE_ANGLE_UNIT()SI_UNIT($,.RADIAN.)) ;
#44=(NAMED_UNIT(*)SI_UNIT($,.STERADIAN.)SOLID_ANGLE_UNIT()) ;
#46=(GEOMETRIC_REPRESENTATION_CONTEXT(3)GLOBAL_UNCERTAINTY_ASSIGNED_CONTEXT((#45))GLOBAL_UNIT_ASSIGNED_CONTEXT((#41,#42,#44))REPRESENTATION_CONTEXT(' ',' ')) ;
ENDSEC;
END-ISO-10303-21;
