ISO-10303-21;
HEADER;
FILE_DESCRIPTION (( 'STEP AP214' ),
    '1' );
FILE_NAME ('Bague Corps Piston.STEP',
    '2021-05-23T16:49:52',
    ( '' ),
    ( '' ),
    'SwSTEP 2.0',
    'SolidWorks 2018',
    '' );
FILE_SCHEMA (( 'AUTOMOTIVE_DESIGN' ));
ENDSEC;

DATA;
#1 = AXIS2_PLACEMENT_3D ( 'NONE', #133, #149, #168 ) ;
#2 = CYLINDRICAL_SURFACE ( 'NONE', #138, 38.25000000000000000 ) ;
#3 =( LENGTH_UNIT ( ) NAMED_UNIT ( * ) SI_UNIT ( .MILLI., .METRE. ) );
#4 = EDGE_CURVE ( 'NONE', #154, #44, #179, .T. ) ;
#5 = SURFACE_STYLE_USAGE ( .BOTH. , #208 ) ;
#6 = ORIENTED_EDGE ( 'NONE', *, *, #156, .T. ) ;
#7 =( GEOMETRIC_REPRESENTATION_CONTEXT ( 3 ) GLOBAL_UNCERTAINTY_ASSIGNED_CONTEXT ( ( #122 ) ) GLOBAL_UNIT_ASSIGNED_CONTEXT ( ( #33, #51, #39 ) ) REPRESENTATION_CONTEXT ( 'NONE', 'WORKASPACE' ) );
#8 = SURFACE_STYLE_FILL_AREA ( #184 ) ;
#9 = VECTOR ( 'NONE', #108, 1000.000000000000000 ) ;
#10 = DIRECTION ( 'NONE',  ( 1.000000000000000000, 0.000000000000000000, 0.000000000000000000 ) ) ;
#11 = EDGE_CURVE ( 'NONE', #26, #70, #190, .T. ) ;
#12 = CARTESIAN_POINT ( 'NONE',  ( 29.00000000000000000, 0.000000000000000000, -6.000000000000000000 ) ) ;
#13 = PRESENTATION_STYLE_ASSIGNMENT (( #201 ) ) ;
#14 = LINE ( 'NONE', #141, #128 ) ;
#15 = DIRECTION ( 'NONE',  ( 0.000000000000000000, 0.000000000000000000, 1.000000000000000000 ) ) ;
#16 = ORIENTED_EDGE ( 'NONE', *, *, #202, .F. ) ;
#17 = CARTESIAN_POINT ( 'NONE',  ( 38.25000000000000000, 0.000000000000000000, -6.000000000000000000 ) ) ;
#18 = EDGE_CURVE ( 'NONE', #38, #44, #14, .T. ) ;
#19 = PRODUCT_CONTEXT ( 'NONE', #98, 'mechanical' ) ;
#20 = FACE_OUTER_BOUND ( 'NONE', #140, .T. ) ;
#21 = STYLED_ITEM ( 'NONE', ( #85 ), #204 ) ;
#22 =( NAMED_UNIT ( * ) SI_UNIT ( $, .STERADIAN. ) SOLID_ANGLE_UNIT ( ) );
#23 = ORIENTED_EDGE ( 'NONE', *, *, #172, .T. ) ;
#24 = PRODUCT_RELATED_PRODUCT_CATEGORY ( 'part', '', ( #152 ) ) ;
#25 = AXIS2_PLACEMENT_3D ( 'NONE', #104, #27, #175 ) ;
#26 = VERTEX_POINT ( 'NONE', #173 ) ;
#27 = DIRECTION ( 'NONE',  ( 0.000000000000000000, 0.000000000000000000, 1.000000000000000000 ) ) ;
#28 = ADVANCED_FACE ( 'NONE', ( #97 ), #88, .F. ) ;
#29 = PRODUCT_DEFINITION ( 'UNKNOWN', '', #113, #124 ) ;
#30 = DIRECTION ( 'NONE',  ( 0.000000000000000000, 0.000000000000000000, 1.000000000000000000 ) ) ;
#31 = CARTESIAN_POINT ( 'NONE',  ( 0.000000000000000000, 0.000000000000000000, 0.000000000000000000 ) ) ;
#32 = EDGE_LOOP ( 'NONE', ( #67, #148, #36, #64 ) ) ;
#33 =( LENGTH_UNIT ( ) NAMED_UNIT ( * ) SI_UNIT ( .MILLI., .METRE. ) );
#34 = UNCERTAINTY_MEASURE_WITH_UNIT (LENGTH_MEASURE( 1.000000000000000082E-05 ), #63, 'distance_accuracy_value', 'NONE');
#35 = DIRECTION ( 'NONE',  ( 1.000000000000000000, 0.000000000000000000, 0.000000000000000000 ) ) ;
#36 = ORIENTED_EDGE ( 'NONE', *, *, #151, .F. ) ;
#37 = FACE_OUTER_BOUND ( 'NONE', #66, .T. ) ;
#38 = VERTEX_POINT ( 'NONE', #12 ) ;
#39 =( NAMED_UNIT ( * ) SI_UNIT ( $, .STERADIAN. ) SOLID_ANGLE_UNIT ( ) );
#40 = FACE_OUTER_BOUND ( 'NONE', #100, .T. ) ;
#41 = MECHANICAL_DESIGN_GEOMETRIC_PRESENTATION_REPRESENTATION (  '', ( #21 ), #134 ) ;
#42 = FACE_BOUND ( 'NONE', #210, .T. ) ;
#43 = DIRECTION ( 'NONE',  ( 1.000000000000000000, 0.000000000000000000, 0.000000000000000000 ) ) ;
#44 = VERTEX_POINT ( 'NONE', #90 ) ;
#45 = CARTESIAN_POINT ( 'NONE',  ( 0.000000000000000000, 0.000000000000000000, -6.000000000000000000 ) ) ;
#46 = AXIS2_PLACEMENT_3D ( 'NONE', #55, #160, #10 ) ;
#47 = DIRECTION ( 'NONE',  ( 0.000000000000000000, 0.000000000000000000, 1.000000000000000000 ) ) ;
#48 = DIRECTION ( 'NONE',  ( 0.000000000000000000, 0.000000000000000000, 1.000000000000000000 ) ) ;
#49 = SHAPE_DEFINITION_REPRESENTATION ( #101, #204 ) ;
#50 = DIRECTION ( 'NONE',  ( 1.000000000000000000, 0.000000000000000000, -0.000000000000000000 ) ) ;
#51 =( NAMED_UNIT ( * ) PLANE_ANGLE_UNIT ( ) SI_UNIT ( $, .RADIAN. ) );
#52 = FACE_OUTER_BOUND ( 'NONE', #32, .T. ) ;
#53 =( NAMED_UNIT ( * ) PLANE_ANGLE_UNIT ( ) SI_UNIT ( $, .RADIAN. ) );
#54 = VERTEX_POINT ( 'NONE', #214 ) ;
#55 = CARTESIAN_POINT ( 'NONE',  ( 0.000000000000000000, 0.000000000000000000, -6.000000000000000000 ) ) ;
#56 = ORIENTED_EDGE ( 'NONE', *, *, #11, .F. ) ;
#57 = ADVANCED_FACE ( 'NONE', ( #150 ), #84, .F. ) ;
#58 = PLANE ( 'NONE',  #155 ) ;
#59 = CARTESIAN_POINT ( 'NONE',  ( -29.00000000000000000, 3.551475717527324030E-15, 0.000000000000000000 ) ) ;
#60 = ORIENTED_EDGE ( 'NONE', *, *, #189, .T. ) ;
#61 = FILL_AREA_STYLE_COLOUR ( '', #161 ) ;
#62 = DIRECTION ( 'NONE',  ( 1.000000000000000000, 0.000000000000000000, -0.000000000000000000 ) ) ;
#63 =( LENGTH_UNIT ( ) NAMED_UNIT ( * ) SI_UNIT ( .MILLI., .METRE. ) );
#64 = ORIENTED_EDGE ( 'NONE', *, *, #139, .F. ) ;
#65 = APPLICATION_CONTEXT ( 'automotive_design' ) ;
#66 = EDGE_LOOP ( 'NONE', ( #185, #6 ) ) ;
#67 = ORIENTED_EDGE ( 'NONE', *, *, #118, .T. ) ;
#68 = UNCERTAINTY_MEASURE_WITH_UNIT (LENGTH_MEASURE( 1.000000000000000082E-05 ), #3, 'distance_accuracy_value', 'NONE');
#69 = ADVANCED_FACE ( 'NONE', ( #20 ), #2, .T. ) ;
#70 = VERTEX_POINT ( 'NONE', #193 ) ;
#71 = EDGE_CURVE ( 'NONE', #54, #154, #137, .T. ) ;
#72 = DIRECTION ( 'NONE',  ( 0.000000000000000000, 0.000000000000000000, 1.000000000000000000 ) ) ;
#73 = CIRCLE ( 'NONE', #83, 29.00000000000000000 ) ;
#74 = ORIENTED_EDGE ( 'NONE', *, *, #11, .T. ) ;
#75 = CARTESIAN_POINT ( 'NONE',  ( 0.000000000000000000, 0.000000000000000000, -6.000000000000000000 ) ) ;
#76 = ADVANCED_FACE ( 'NONE', ( #52 ), #77, .T. ) ;
#77 = CYLINDRICAL_SURFACE ( 'NONE', #136, 38.25000000000000000 ) ;
#78 = ORIENTED_EDGE ( 'NONE', *, *, #118, .F. ) ;
#79 = DIRECTION ( 'NONE',  ( 1.000000000000000000, 0.000000000000000000, 0.000000000000000000 ) ) ;
#80 = CARTESIAN_POINT ( 'NONE',  ( -38.25000000000000000, 4.684274006738625728E-15, 0.000000000000000000 ) ) ;
#81 = DIRECTION ( 'NONE',  ( 0.000000000000000000, 0.000000000000000000, 1.000000000000000000 ) ) ;
#82 = DIRECTION ( 'NONE',  ( 0.000000000000000000, 0.000000000000000000, 1.000000000000000000 ) ) ;
#83 = AXIS2_PLACEMENT_3D ( 'NONE', #93, #110, #79 ) ;
#84 = CYLINDRICAL_SURFACE ( 'NONE', #87, 29.00000000000000000 ) ;
#85 = PRESENTATION_STYLE_ASSIGNMENT (( #5 ) ) ;
#86 = STYLED_ITEM ( 'NONE', ( #13 ), #209 ) ;
#87 = AXIS2_PLACEMENT_3D ( 'NONE', #105, #142, #43 ) ;
#88 = CYLINDRICAL_SURFACE ( 'NONE', #46, 29.00000000000000000 ) ;
#89 = ADVANCED_FACE ( 'NONE', ( #42, #40 ), #58, .F. ) ;
#90 = CARTESIAN_POINT ( 'NONE',  ( 29.00000000000000000, 0.000000000000000000, 0.000000000000000000 ) ) ;
#91 = ORIENTED_EDGE ( 'NONE', *, *, #202, .T. ) ;
#92 = CARTESIAN_POINT ( 'NONE',  ( 0.000000000000000000, 0.000000000000000000, -6.000000000000000000 ) ) ;
#93 = CARTESIAN_POINT ( 'NONE',  ( 0.000000000000000000, 0.000000000000000000, -6.000000000000000000 ) ) ;
#94 = FILL_AREA_STYLE_COLOUR ( '', #211 ) ;
#95 = DIRECTION ( 'NONE',  ( 0.000000000000000000, 0.000000000000000000, 1.000000000000000000 ) ) ;
#96 = CIRCLE ( 'NONE', #171, 38.25000000000000000 ) ;
#97 = FACE_OUTER_BOUND ( 'NONE', #212, .T. ) ;
#98 = APPLICATION_CONTEXT ( 'automotive_design' ) ;
#99 = PRESENTATION_LAYER_ASSIGNMENT (  '', '', ( #86 ) ) ;
#100 = EDGE_LOOP ( 'NONE', ( #78, #56 ) ) ;
#101 = PRODUCT_DEFINITION_SHAPE ( 'NONE', 'NONE',  #29 ) ;
#102 = MECHANICAL_DESIGN_GEOMETRIC_PRESENTATION_REPRESENTATION (  '', ( #86 ), #213 ) ;
#103 = ORIENTED_EDGE ( 'NONE', *, *, #189, .F. ) ;
#104 = CARTESIAN_POINT ( 'NONE',  ( 0.000000000000000000, 0.000000000000000000, -6.000000000000000000 ) ) ;
#105 = CARTESIAN_POINT ( 'NONE',  ( 0.000000000000000000, 0.000000000000000000, -6.000000000000000000 ) ) ;
#106 = ORIENTED_EDGE ( 'NONE', *, *, #183, .F. ) ;
#107 = AXIS2_PLACEMENT_3D ( 'NONE', #145, #47, #164 ) ;
#108 = DIRECTION ( 'NONE',  ( 0.000000000000000000, 0.000000000000000000, 1.000000000000000000 ) ) ;
#109 = PLANE ( 'NONE',  #198 ) ;
#110 = DIRECTION ( 'NONE',  ( 0.000000000000000000, 0.000000000000000000, 1.000000000000000000 ) ) ;
#111 = ORIENTED_EDGE ( 'NONE', *, *, #18, .T. ) ;
#112 = CARTESIAN_POINT ( 'NONE',  ( 0.000000000000000000, 0.000000000000000000, 0.000000000000000000 ) ) ;
#113 = PRODUCT_DEFINITION_FORMATION_WITH_SPECIFIED_SOURCE ( 'ANY', '', #152, .NOT_KNOWN. ) ;
#114 = DIRECTION ( 'NONE',  ( 0.000000000000000000, 0.000000000000000000, 1.000000000000000000 ) ) ;
#115 = DIRECTION ( 'NONE',  ( 1.000000000000000000, 0.000000000000000000, 0.000000000000000000 ) ) ;
#116 = ORIENTED_EDGE ( 'NONE', *, *, #4, .F. ) ;
#117 =( NAMED_UNIT ( * ) SI_UNIT ( $, .STERADIAN. ) SOLID_ANGLE_UNIT ( ) );
#118 = EDGE_CURVE ( 'NONE', #70, #26, #174, .T. ) ;
#119 = ORIENTED_EDGE ( 'NONE', *, *, #156, .F. ) ;
#120 =( NAMED_UNIT ( * ) PLANE_ANGLE_UNIT ( ) SI_UNIT ( $, .RADIAN. ) );
#121 = LINE ( 'NONE', #129, #167 ) ;
#122 = UNCERTAINTY_MEASURE_WITH_UNIT (LENGTH_MEASURE( 1.000000000000000082E-05 ), #33, 'distance_accuracy_value', 'NONE');
#123 = CIRCLE ( 'NONE', #107, 29.00000000000000000 ) ;
#124 = PRODUCT_DEFINITION_CONTEXT ( 'detailed design', #65, 'design' ) ;
#125 = DIRECTION ( 'NONE',  ( 0.000000000000000000, 0.000000000000000000, 1.000000000000000000 ) ) ;
#126 = DIRECTION ( 'NONE',  ( 1.000000000000000000, 0.000000000000000000, 0.000000000000000000 ) ) ;
#127 = CIRCLE ( 'NONE', #207, 38.25000000000000000 ) ;
#128 = VECTOR ( 'NONE', #72, 1000.000000000000000 ) ;
#129 = CARTESIAN_POINT ( 'NONE',  ( -38.25000000000000000, 4.684274006738625728E-15, -6.000000000000000000 ) ) ;
#130 = DIRECTION ( 'NONE',  ( 1.000000000000000000, 0.000000000000000000, 0.000000000000000000 ) ) ;
#131 = SURFACE_STYLE_FILL_AREA ( #180 ) ;
#132 = DIRECTION ( 'NONE',  ( 1.000000000000000000, 0.000000000000000000, 0.000000000000000000 ) ) ;
#133 = CARTESIAN_POINT ( 'NONE',  ( 0.000000000000000000, 0.000000000000000000, 0.000000000000000000 ) ) ;
#134 =( GEOMETRIC_REPRESENTATION_CONTEXT ( 3 ) GLOBAL_UNCERTAINTY_ASSIGNED_CONTEXT ( ( #34 ) ) GLOBAL_UNIT_ASSIGNED_CONTEXT ( ( #63, #53, #22 ) ) REPRESENTATION_CONTEXT ( 'NONE', 'WORKASPACE' ) );
#135 = ORIENTED_EDGE ( 'NONE', *, *, #172, .F. ) ;
#136 = AXIS2_PLACEMENT_3D ( 'NONE', #196, #95, #115 ) ;
#137 = LINE ( 'NONE', #194, #9 ) ;
#138 = AXIS2_PLACEMENT_3D ( 'NONE', #75, #125, #126 ) ;
#139 = EDGE_CURVE ( 'NONE', #70, #192, #205, .T. ) ;
#140 = EDGE_LOOP ( 'NONE', ( #106, #74, #206, #119 ) ) ;
#141 = CARTESIAN_POINT ( 'NONE',  ( 29.00000000000000000, 0.000000000000000000, -6.000000000000000000 ) ) ;
#142 = DIRECTION ( 'NONE',  ( 0.000000000000000000, 0.000000000000000000, 1.000000000000000000 ) ) ;
#143 = ORIENTED_EDGE ( 'NONE', *, *, #4, .T. ) ;
#144 = DIRECTION ( 'NONE',  ( 1.000000000000000000, 0.000000000000000000, 0.000000000000000000 ) ) ;
#145 = CARTESIAN_POINT ( 'NONE',  ( 0.000000000000000000, 0.000000000000000000, 0.000000000000000000 ) ) ;
#146 = AXIS2_PLACEMENT_3D ( 'NONE', #92, #15, #144 ) ;
#147 = DIRECTION ( 'NONE',  ( 0.000000000000000000, 0.000000000000000000, 1.000000000000000000 ) ) ;
#148 = ORIENTED_EDGE ( 'NONE', *, *, #183, .T. ) ;
#149 = DIRECTION ( 'NONE',  ( 0.000000000000000000, 0.000000000000000000, 1.000000000000000000 ) ) ;
#150 = FACE_OUTER_BOUND ( 'NONE', #162, .T. ) ;
#151 = EDGE_CURVE ( 'NONE', #192, #159, #127, .T. ) ;
#152 = PRODUCT ( 'Bague Corps Piston', 'Bague Corps Piston', '', ( #19 ) ) ;
#153 = ORIENTED_EDGE ( 'NONE', *, *, #18, .F. ) ;
#154 = VERTEX_POINT ( 'NONE', #59 ) ;
#155 = AXIS2_PLACEMENT_3D ( 'NONE', #45, #147, #50 ) ;
#156 = EDGE_CURVE ( 'NONE', #159, #192, #96, .T. ) ;
#157 = CIRCLE ( 'NONE', #187, 29.00000000000000000 ) ;
#158 = DIRECTION ( 'NONE',  ( 1.000000000000000000, 0.000000000000000000, 0.000000000000000000 ) ) ;
#159 = VERTEX_POINT ( 'NONE', #80 ) ;
#160 = DIRECTION ( 'NONE',  ( 0.000000000000000000, 0.000000000000000000, 1.000000000000000000 ) ) ;
#161 = COLOUR_RGB ( '',0.7921568627450980005, 0.8196078431372548767, 0.9333333333333333481 ) ;
#162 = EDGE_LOOP ( 'NONE', ( #188, #135, #111, #91 ) ) ;
#163 = CARTESIAN_POINT ( 'NONE',  ( 0.000000000000000000, 0.000000000000000000, -6.000000000000000000 ) ) ;
#164 = DIRECTION ( 'NONE',  ( 1.000000000000000000, 0.000000000000000000, 0.000000000000000000 ) ) ;
#165 = CARTESIAN_POINT ( 'NONE',  ( 38.25000000000000000, 0.000000000000000000, 0.000000000000000000 ) ) ;
#166 = VECTOR ( 'NONE', #82, 1000.000000000000000 ) ;
#167 = VECTOR ( 'NONE', #30, 1000.000000000000000 ) ;
#168 = DIRECTION ( 'NONE',  ( 1.000000000000000000, 0.000000000000000000, 0.000000000000000000 ) ) ;
#169 = PRESENTATION_LAYER_ASSIGNMENT (  '', '', ( #21 ) ) ;
#170 = CLOSED_SHELL ( 'NONE', ( #28, #76, #69, #89, #176, #57 ) ) ;
#171 = AXIS2_PLACEMENT_3D ( 'NONE', #31, #199, #35 ) ;
#172 = EDGE_CURVE ( 'NONE', #38, #54, #157, .T. ) ;
#173 = CARTESIAN_POINT ( 'NONE',  ( -38.25000000000000000, 4.684274006738625728E-15, -6.000000000000000000 ) ) ;
#174 = CIRCLE ( 'NONE', #146, 38.25000000000000000 ) ;
#175 = DIRECTION ( 'NONE',  ( 1.000000000000000000, 0.000000000000000000, 0.000000000000000000 ) ) ;
#176 = ADVANCED_FACE ( 'NONE', ( #177, #37 ), #109, .T. ) ;
#177 = FACE_BOUND ( 'NONE', #200, .T. ) ;
#178 = CARTESIAN_POINT ( 'NONE',  ( 0.000000000000000000, 0.000000000000000000, 0.000000000000000000 ) ) ;
#179 = CIRCLE ( 'NONE', #191, 29.00000000000000000 ) ;
#180 = FILL_AREA_STYLE ('',( #61 ) ) ;
#181 = CARTESIAN_POINT ( 'NONE',  ( 0.000000000000000000, 0.000000000000000000, 0.000000000000000000 ) ) ;
#182 = SURFACE_SIDE_STYLE ('',( #131 ) ) ;
#183 = EDGE_CURVE ( 'NONE', #26, #159, #121, .T. ) ;
#184 = FILL_AREA_STYLE ('',( #94 ) ) ;
#185 = ORIENTED_EDGE ( 'NONE', *, *, #151, .T. ) ;
#186 = APPLICATION_PROTOCOL_DEFINITION ( 'draft international standard', 'automotive_design', 1998, #65 ) ;
#187 = AXIS2_PLACEMENT_3D ( 'NONE', #163, #48, #132 ) ;
#188 = ORIENTED_EDGE ( 'NONE', *, *, #71, .F. ) ;
#189 = EDGE_CURVE ( 'NONE', #54, #38, #73, .T. ) ;
#190 = CIRCLE ( 'NONE', #25, 38.25000000000000000 ) ;
#191 = AXIS2_PLACEMENT_3D ( 'NONE', #178, #197, #158 ) ;
#192 = VERTEX_POINT ( 'NONE', #165 ) ;
#193 = CARTESIAN_POINT ( 'NONE',  ( 38.25000000000000000, 0.000000000000000000, -6.000000000000000000 ) ) ;
#194 = CARTESIAN_POINT ( 'NONE',  ( -29.00000000000000000, 3.551475717527324030E-15, -6.000000000000000000 ) ) ;
#195 = ORIENTED_EDGE ( 'NONE', *, *, #71, .T. ) ;
#196 = CARTESIAN_POINT ( 'NONE',  ( 0.000000000000000000, 0.000000000000000000, -6.000000000000000000 ) ) ;
#197 = DIRECTION ( 'NONE',  ( 0.000000000000000000, 0.000000000000000000, 1.000000000000000000 ) ) ;
#198 = AXIS2_PLACEMENT_3D ( 'NONE', #181, #81, #62 ) ;
#199 = DIRECTION ( 'NONE',  ( 0.000000000000000000, 0.000000000000000000, 1.000000000000000000 ) ) ;
#200 = EDGE_LOOP ( 'NONE', ( #16, #116 ) ) ;
#201 = SURFACE_STYLE_USAGE ( .BOTH. , #182 ) ;
#202 = EDGE_CURVE ( 'NONE', #44, #154, #123, .T. ) ;
#203 = APPLICATION_PROTOCOL_DEFINITION ( 'draft international standard', 'automotive_design', 1998, #98 ) ;
#204 = ADVANCED_BREP_SHAPE_REPRESENTATION ( 'Bague Corps Piston', ( #209, #1 ), #7 ) ;
#205 = LINE ( 'NONE', #17, #166 ) ;
#206 = ORIENTED_EDGE ( 'NONE', *, *, #139, .T. ) ;
#207 = AXIS2_PLACEMENT_3D ( 'NONE', #112, #114, #130 ) ;
#208 = SURFACE_SIDE_STYLE ('',( #8 ) ) ;
#209 = MANIFOLD_SOLID_BREP ( 'Boss.-Extru.1', #170 ) ;
#210 = EDGE_LOOP ( 'NONE', ( #23, #60 ) ) ;
#211 = COLOUR_RGB ( '',0.7921568627450980005, 0.8196078431372548767, 0.9333333333333333481 ) ;
#212 = EDGE_LOOP ( 'NONE', ( #103, #195, #143, #153 ) ) ;
#213 =( GEOMETRIC_REPRESENTATION_CONTEXT ( 3 ) GLOBAL_UNCERTAINTY_ASSIGNED_CONTEXT ( ( #68 ) ) GLOBAL_UNIT_ASSIGNED_CONTEXT ( ( #3, #120, #117 ) ) REPRESENTATION_CONTEXT ( 'NONE', 'WORKASPACE' ) );
#214 = CARTESIAN_POINT ( 'NONE',  ( -29.00000000000000000, 3.551475717527324030E-15, -6.000000000000000000 ) ) ;
ENDSEC;
END-ISO-10303-21;
