ISO-10303-21;
HEADER;
FILE_DESCRIPTION(('CATIA V5 STEP Exchange'),'2;1');

FILE_NAME('C:\\Users\\ossia\\Desktop\\Languette.stp','2021-05-20T11:44:44+00:00',('none'),('none'),'CATIA Version 5 Release 19 GA (IN-10)','CATIA V5 STEP AP203','none');

FILE_SCHEMA(('CONFIG_CONTROL_DESIGN'));

ENDSEC;
/* file written by CATIA V5R19 */
DATA;
#5=PRODUCT('Languette','','',(#2)) ;
#1=APPLICATION_CONTEXT('configuration controlled 3D design of mechanical parts and assemblies') ;
#14=PRODUCT_DEFINITION('',' ',#6,#3) ;
#16=SECURITY_CLASSIFICATION(' ',' ',#15) ;
#15=SECURITY_CLASSIFICATION_LEVEL('unclassified') ;
#47=CARTESIAN_POINT(' ',(0.,0.,0.)) ;
#52=CARTESIAN_POINT('Axis2P3D Location',(0.,-25.45,-1.39888101103E-014)) ;
#57=CARTESIAN_POINT('Axis2P3D Location',(0.,-25.45,-2.5)) ;
#61=CARTESIAN_POINT('Vertex',(-1.22464679915E-015,-30.45,-2.5)) ;
#63=CARTESIAN_POINT('Vertex',(5.,-25.45,-2.5)) ;
#66=CARTESIAN_POINT('Line Origine',(5.,-25.45,-1.42108547152E-014)) ;
#70=CARTESIAN_POINT('Vertex',(5.,-25.45,2.5)) ;
#73=CARTESIAN_POINT('Axis2P3D Location',(0.,-25.45,2.5)) ;
#77=CARTESIAN_POINT('Vertex',(6.12323399574E-016,-30.45,2.5)) ;
#80=CARTESIAN_POINT('Line Origine',(0.,-30.45,-1.42108547152E-014)) ;
#92=CARTESIAN_POINT('Axis2P3D Location',(0.,25.45,0.)) ;
#97=CARTESIAN_POINT('Axis2P3D Location',(0.,25.45,2.5)) ;
#101=CARTESIAN_POINT('Vertex',(-1.22464679915E-015,30.45,2.5)) ;
#103=CARTESIAN_POINT('Vertex',(5.,25.45,2.5)) ;
#106=CARTESIAN_POINT('Line Origine',(5.,25.45,0.)) ;
#110=CARTESIAN_POINT('Vertex',(5.,25.45,-2.5)) ;
#113=CARTESIAN_POINT('Axis2P3D Location',(0.,25.45,-2.5)) ;
#117=CARTESIAN_POINT('Vertex',(6.12323399574E-016,30.45,-2.5)) ;
#120=CARTESIAN_POINT('Line Origine',(1.22464679915E-015,30.45,0.)) ;
#132=CARTESIAN_POINT('Axis2P3D Location',(0.,25.45,-8.881784197E-015)) ;
#137=CARTESIAN_POINT('Axis2P3D Location',(0.,25.45,2.5)) ;
#141=CARTESIAN_POINT('Vertex',(-5.,25.45,2.5)) ;
#144=CARTESIAN_POINT('Axis2P3D Location',(0.,25.45,-2.5)) ;
#148=CARTESIAN_POINT('Vertex',(-5.,25.45,-2.5)) ;
#151=CARTESIAN_POINT('Line Origine',(-5.,25.45,-8.881784197E-015)) ;
#163=CARTESIAN_POINT('Axis2P3D Location',(0.,-25.45,-2.35367281221E-014)) ;
#168=CARTESIAN_POINT('Axis2P3D Location',(0.,-25.45,-2.5)) ;
#172=CARTESIAN_POINT('Vertex',(-5.,-25.45,-2.5)) ;
#175=CARTESIAN_POINT('Axis2P3D Location',(0.,-25.45,2.5)) ;
#179=CARTESIAN_POINT('Vertex',(-5.,-25.45,2.5)) ;
#182=CARTESIAN_POINT('Line Origine',(-5.,-25.45,-2.35367281221E-014)) ;
#194=CARTESIAN_POINT('Axis2P3D Location',(0.,30.45,-2.5)) ;
#199=CARTESIAN_POINT('Line Origine',(-5.,3.5527136788E-015,-2.5)) ;
#204=CARTESIAN_POINT('Line Origine',(5.,3.5527136788E-015,-2.5)) ;
#217=CARTESIAN_POINT('Axis2P3D Location',(0.,0.,-2.5)) ;
#221=CARTESIAN_POINT('Vertex',(-2.7,-2.06742709742E-015,-2.5)) ;
#223=CARTESIAN_POINT('Vertex',(2.7,-6.6130927154E-016,-2.5)) ;
#226=CARTESIAN_POINT('Axis2P3D Location',(0.,0.,-2.5)) ;
#236=CARTESIAN_POINT('Axis2P3D Location',(0.,0.,9.5)) ;
#241=CARTESIAN_POINT('Axis2P3D Location',(0.,0.,16.5)) ;
#245=CARTESIAN_POINT('Vertex',(2.7,0.,16.5)) ;
#247=CARTESIAN_POINT('Vertex',(-2.7,3.3065463577E-016,16.5)) ;
#250=CARTESIAN_POINT('Line Origine',(-2.7,-2.06742709742E-015,9.5)) ;
#255=CARTESIAN_POINT('Line Origine',(2.7,3.5527136788E-015,9.5)) ;
#267=CARTESIAN_POINT('Axis2P3D Location',(0.,0.,16.5)) ;
#279=CARTESIAN_POINT('Axis2P3D Location',(0.,0.,16.5)) ;
#284=CARTESIAN_POINT('Axis2P3D Location',(0.,0.,16.5)) ;
#288=CARTESIAN_POINT('Vertex',(4.2,0.,16.5)) ;
#290=CARTESIAN_POINT('Vertex',(-4.2,5.14351655642E-016,16.5)) ;
#293=CARTESIAN_POINT('Axis2P3D Location',(0.,0.,16.5)) ;
#307=CARTESIAN_POINT('Axis2P3D Location',(5.,0.,0.)) ;
#313=CARTESIAN_POINT('Control Point',(5.,-1.05471187339E-015,2.9)) ;
#314=CARTESIAN_POINT('Control Point',(5.,0.182583799219,2.9)) ;
#315=CARTESIAN_POINT('Control Point',(5.,0.365167586328,2.8937493418)) ;
#316=CARTESIAN_POINT('Control Point',(5.,0.547862479028,2.88124309992)) ;
#317=CARTESIAN_POINT('Control Point',(5.,0.919904668641,2.84472402404)) ;
#318=CARTESIAN_POINT('Control Point',(5.,1.29498042302,2.7904344008)) ;
#319=CARTESIAN_POINT('Control Point',(5.,1.48659194639,2.7595609925)) ;
#320=CARTESIAN_POINT('Control Point',(5.,1.96247952573,2.67932348545)) ;
#321=CARTESIAN_POINT('Control Point',(5.,2.45056295046,2.59865604345)) ;
#322=CARTESIAN_POINT('Control Point',(5.,2.74619296442,2.55571959683)) ;
#323=CARTESIAN_POINT('Control Point',(5.,3.1089122631,2.5168218806)) ;
#324=CARTESIAN_POINT('Control Point',(5.,3.47878599591,2.50251204441)) ;
#325=CARTESIAN_POINT('Control Point',(5.,3.54106878049,2.50085555226)) ;
#326=CARTESIAN_POINT('Control Point',(5.,3.60348877485,2.5)) ;
#327=CARTESIAN_POINT('Control Point',(5.,3.66606055596,2.5)) ;
#328=CARTESIAN_POINT('Vertex',(5.,3.66606055596,2.5)) ;
#330=CARTESIAN_POINT('Vertex',(5.,-1.22124532709E-015,2.9)) ;
#334=CARTESIAN_POINT('Control Point',(5.,-3.66606055596,2.5)) ;
#335=CARTESIAN_POINT('Control Point',(5.,-3.30102408713,2.5)) ;
#336=CARTESIAN_POINT('Control Point',(5.,-2.94115355837,2.52911803181)) ;
#337=CARTESIAN_POINT('Control Point',(5.,-2.5901949771,2.57627440297)) ;
#338=CARTESIAN_POINT('Control Point',(5.,-2.08477285156,2.65867148104)) ;
#339=CARTESIAN_POINT('Control Point',(5.,-1.5925882325,2.7417917349)) ;
#340=CARTESIAN_POINT('Control Point',(5.,-1.43514268142,2.76775081244)) ;
#341=CARTESIAN_POINT('Control Point',(5.,-1.0512738173,2.82723377545)) ;
#342=CARTESIAN_POINT('Control Point',(5.,-0.671566015106,2.87181502067)) ;
#343=CARTESIAN_POINT('Control Point',(5.,-0.447583080159,2.89060950172)) ;
#344=CARTESIAN_POINT('Control Point',(5.,-0.223791549176,2.9)) ;
#345=CARTESIAN_POINT('Control Point',(5.,-1.11022302463E-015,2.9)) ;
#346=CARTESIAN_POINT('Vertex',(5.,-3.66606055596,2.5)) ;
#349=CARTESIAN_POINT('Line Origine',(5.,-14.558030278,2.5)) ;
#354=CARTESIAN_POINT('Line Origine',(5.,14.558030278,2.5)) ;
#369=CARTESIAN_POINT('Axis2P3D Location',(-5.,0.,0.)) ;
#374=CARTESIAN_POINT('Line Origine',(-5.,14.558030278,2.5)) ;
#378=CARTESIAN_POINT('Vertex',(-5.,3.66606055596,2.5)) ;
#381=CARTESIAN_POINT('Line Origine',(-5.,-14.558030278,2.5)) ;
#385=CARTESIAN_POINT('Vertex',(-5.,-3.66606055596,2.5)) ;
#389=CARTESIAN_POINT('Control Point',(-5.,-3.66606055596,2.5)) ;
#390=CARTESIAN_POINT('Control Point',(-5.,-3.30102408713,2.5)) ;
#391=CARTESIAN_POINT('Control Point',(-5.,-2.94115355837,2.52911803181)) ;
#392=CARTESIAN_POINT('Control Point',(-5.,-2.5901949771,2.57627440297)) ;
#393=CARTESIAN_POINT('Control Point',(-5.,-2.08477285156,2.65867148104)) ;
#394=CARTESIAN_POINT('Control Point',(-5.,-1.5925882325,2.74179173489)) ;
#395=CARTESIAN_POINT('Control Point',(-5.,-1.43514268142,2.76775081244)) ;
#396=CARTESIAN_POINT('Control Point',(-5.,-1.05127384891,2.82723377055)) ;
#397=CARTESIAN_POINT('Control Point',(-5.,-0.671566077644,2.87181501332)) ;
#398=CARTESIAN_POINT('Control Point',(-5.,-0.447583173519,2.8906094939)) ;
#399=CARTESIAN_POINT('Control Point',(-5.,-0.223791673507,2.89999999478)) ;
#400=CARTESIAN_POINT('Control Point',(-5.,-1.55446408412E-007,2.9)) ;
#401=CARTESIAN_POINT('Vertex',(-5.,-1.55446408745E-007,2.9)) ;
#405=CARTESIAN_POINT('Control Point',(-5.,-1.55446408634E-007,2.9)) ;
#406=CARTESIAN_POINT('Control Point',(-5.,0.182583511602,2.89999999847)) ;
#407=CARTESIAN_POINT('Control Point',(-5.,0.365167166576,2.89374934779)) ;
#408=CARTESIAN_POINT('Control Point',(-5.,0.547862715862,2.88124307617)) ;
#409=CARTESIAN_POINT('Control Point',(-5.,0.919904782298,2.84472400744)) ;
#410=CARTESIAN_POINT('Control Point',(-5.,1.29498041135,2.79043440278)) ;
#411=CARTESIAN_POINT('Control Point',(-5.,1.48659194324,2.7595609931)) ;
#412=CARTESIAN_POINT('Control Point',(-5.,1.96247953001,2.67932348462)) ;
#413=CARTESIAN_POINT('Control Point',(-5.,2.45056296267,2.59865604162)) ;
#414=CARTESIAN_POINT('Control Point',(-5.,2.74619297551,2.55571959545)) ;
#415=CARTESIAN_POINT('Control Point',(-5.,3.10891227134,2.51682187997)) ;
#416=CARTESIAN_POINT('Control Point',(-5.,3.47878600116,2.50251204427)) ;
#417=CARTESIAN_POINT('Control Point',(-5.,3.54106878399,2.50085555221)) ;
#418=CARTESIAN_POINT('Control Point',(-5.,3.6034887766,2.5)) ;
#419=CARTESIAN_POINT('Control Point',(-5.,3.66606055596,2.5)) ;
#431=CARTESIAN_POINT('Axis2P3D Location',(0.,0.,9.5)) ;
#436=CARTESIAN_POINT('Line Origine',(-4.2,5.14351655642E-016,9.5)) ;
#440=CARTESIAN_POINT('Vertex',(-4.2,5.14351655642E-016,4.5)) ;
#443=CARTESIAN_POINT('Line Origine',(4.2,0.,9.5)) ;
#447=CARTESIAN_POINT('Vertex',(4.2,-1.02870331128E-015,4.5)) ;
#450=CARTESIAN_POINT('Axis2P3D Location',(0.,0.,4.5)) ;
#462=CARTESIAN_POINT('Axis2P3D Location',(0.,0.,4.5)) ;
#474=CARTESIAN_POINT('Axis2P3D Location',(0.,-30.45,2.5)) ;
#479=CARTESIAN_POINT('Axis2P3D Location',(1.1123046928E-014,-3.19744231092E-014,2.5)) ;
#492=CARTESIAN_POINT('Axis2P3D Location',(-2.29209012881E-014,7.1054273576E-015,2.5)) ;
#505=CARTESIAN_POINT('Axis2P3D Location',(-7.54951656745E-015,-1.15463194561E-014,4.5)) ;
#510=CARTESIAN_POINT('Axis2P3D Location',(-6.2,6.92646410561E-008,4.5)) ;
#515=CARTESIAN_POINT('Axis2P3D Location',(6.2,-3.28626015289E-015,4.5)) ;
#529=CARTESIAN_POINT('Axis2P3D Location',(-5.28466159722E-014,-3.10862446895E-015,4.5)) ;
#53=DIRECTION('Axis2P3D Direction',(0.,0.,1.)) ;
#54=DIRECTION('Axis2P3D XDirection',(0.,-1.,0.)) ;
#58=DIRECTION('Axis2P3D Direction',(0.,0.,1.)) ;
#67=DIRECTION('Vector Direction',(0.,0.,1.)) ;
#74=DIRECTION('Axis2P3D Direction',(0.,0.,1.)) ;
#81=DIRECTION('Vector Direction',(0.,0.,1.)) ;
#93=DIRECTION('Axis2P3D Direction',(0.,-0.,1.)) ;
#94=DIRECTION('Axis2P3D XDirection',(1.,7.04481399828E-016,0.)) ;
#98=DIRECTION('Axis2P3D Direction',(0.,-0.,1.)) ;
#107=DIRECTION('Vector Direction',(0.,0.,1.)) ;
#114=DIRECTION('Axis2P3D Direction',(0.,-0.,1.)) ;
#121=DIRECTION('Vector Direction',(0.,0.,1.)) ;
#133=DIRECTION('Axis2P3D Direction',(0.,0.,1.)) ;
#134=DIRECTION('Axis2P3D XDirection',(1.83697019872E-016,1.,-0.)) ;
#138=DIRECTION('Axis2P3D Direction',(0.,0.,1.)) ;
#145=DIRECTION('Axis2P3D Direction',(0.,0.,1.)) ;
#152=DIRECTION('Vector Direction',(0.,0.,1.)) ;
#164=DIRECTION('Axis2P3D Direction',(0.,0.,-1.)) ;
#165=DIRECTION('Axis2P3D XDirection',(1.83697019872E-016,-1.,-0.)) ;
#169=DIRECTION('Axis2P3D Direction',(0.,0.,-1.)) ;
#176=DIRECTION('Axis2P3D Direction',(0.,0.,-1.)) ;
#183=DIRECTION('Vector Direction',(0.,0.,-1.)) ;
#195=DIRECTION('Axis2P3D Direction',(-0.,0.,1.)) ;
#196=DIRECTION('Axis2P3D XDirection',(0.,-1.,0.)) ;
#200=DIRECTION('Vector Direction',(0.,-1.,0.)) ;
#205=DIRECTION('Vector Direction',(0.,-1.,0.)) ;
#218=DIRECTION('Axis2P3D Direction',(-0.,0.,1.)) ;
#227=DIRECTION('Axis2P3D Direction',(-0.,0.,1.)) ;
#237=DIRECTION('Axis2P3D Direction',(0.,0.,1.)) ;
#238=DIRECTION('Axis2P3D XDirection',(1.,0.,0.)) ;
#242=DIRECTION('Axis2P3D Direction',(0.,0.,1.)) ;
#251=DIRECTION('Vector Direction',(0.,0.,1.)) ;
#256=DIRECTION('Vector Direction',(0.,0.,1.)) ;
#268=DIRECTION('Axis2P3D Direction',(0.,0.,1.)) ;
#280=DIRECTION('Axis2P3D Direction',(0.,0.,1.)) ;
#281=DIRECTION('Axis2P3D XDirection',(1.,0.,0.)) ;
#285=DIRECTION('Axis2P3D Direction',(0.,0.,1.)) ;
#294=DIRECTION('Axis2P3D Direction',(0.,0.,1.)) ;
#308=DIRECTION('Axis2P3D Direction',(1.,0.,0.)) ;
#309=DIRECTION('Axis2P3D XDirection',(0.,1.,0.)) ;
#350=DIRECTION('Vector Direction',(0.,1.,0.)) ;
#355=DIRECTION('Vector Direction',(0.,1.,0.)) ;
#370=DIRECTION('Axis2P3D Direction',(1.,0.,0.)) ;
#371=DIRECTION('Axis2P3D XDirection',(0.,1.,0.)) ;
#375=DIRECTION('Vector Direction',(0.,1.,0.)) ;
#382=DIRECTION('Vector Direction',(0.,1.,0.)) ;
#432=DIRECTION('Axis2P3D Direction',(0.,0.,1.)) ;
#433=DIRECTION('Axis2P3D XDirection',(1.,0.,0.)) ;
#437=DIRECTION('Vector Direction',(0.,0.,1.)) ;
#444=DIRECTION('Vector Direction',(0.,0.,1.)) ;
#451=DIRECTION('Axis2P3D Direction',(0.,0.,1.)) ;
#463=DIRECTION('Axis2P3D Direction',(0.,0.,1.)) ;
#475=DIRECTION('Axis2P3D Direction',(0.,0.,-1.)) ;
#476=DIRECTION('Axis2P3D XDirection',(0.,1.,0.)) ;
#480=DIRECTION('Axis2P3D Direction',(0.,0.,-1.)) ;
#493=DIRECTION('Axis2P3D Direction',(0.,0.,-1.)) ;
#506=DIRECTION('Axis2P3D Direction',(-0.,0.,-1.)) ;
#507=DIRECTION('Axis2P3D XDirection',(-0.99610376368,-0.0881889561283,0.)) ;
#511=DIRECTION('Axis2P3D Direction',(-1.11717181617E-008,-1.,0.)) ;
#516=DIRECTION('Axis2P3D Direction',(-1.33226762955E-015,1.,0.)) ;
#530=DIRECTION('Axis2P3D Direction',(0.,0.,-1.)) ;
#531=DIRECTION('Axis2P3D XDirection',(1.,3.58136459556E-016,0.)) ;
#48=AXIS2_PLACEMENT_3D(' ',#47,$,$) ;
#55=AXIS2_PLACEMENT_3D('Cylinder Axis2P3D',#52,#53,#54) ;
#59=AXIS2_PLACEMENT_3D('Circle Axis2P3D',#57,#58,$) ;
#75=AXIS2_PLACEMENT_3D('Circle Axis2P3D',#73,#74,$) ;
#95=AXIS2_PLACEMENT_3D('Cylinder Axis2P3D',#92,#93,#94) ;
#99=AXIS2_PLACEMENT_3D('Circle Axis2P3D',#97,#98,$) ;
#115=AXIS2_PLACEMENT_3D('Circle Axis2P3D',#113,#114,$) ;
#135=AXIS2_PLACEMENT_3D('Cylinder Axis2P3D',#132,#133,#134) ;
#139=AXIS2_PLACEMENT_3D('Circle Axis2P3D',#137,#138,$) ;
#146=AXIS2_PLACEMENT_3D('Circle Axis2P3D',#144,#145,$) ;
#166=AXIS2_PLACEMENT_3D('Cylinder Axis2P3D',#163,#164,#165) ;
#170=AXIS2_PLACEMENT_3D('Circle Axis2P3D',#168,#169,$) ;
#177=AXIS2_PLACEMENT_3D('Circle Axis2P3D',#175,#176,$) ;
#197=AXIS2_PLACEMENT_3D('Plane Axis2P3D',#194,#195,#196) ;
#219=AXIS2_PLACEMENT_3D('Circle Axis2P3D',#217,#218,$) ;
#228=AXIS2_PLACEMENT_3D('Circle Axis2P3D',#226,#227,$) ;
#239=AXIS2_PLACEMENT_3D('Cylinder Axis2P3D',#236,#237,#238) ;
#243=AXIS2_PLACEMENT_3D('Circle Axis2P3D',#241,#242,$) ;
#269=AXIS2_PLACEMENT_3D('Circle Axis2P3D',#267,#268,$) ;
#282=AXIS2_PLACEMENT_3D('Plane Axis2P3D',#279,#280,#281) ;
#286=AXIS2_PLACEMENT_3D('Circle Axis2P3D',#284,#285,$) ;
#295=AXIS2_PLACEMENT_3D('Circle Axis2P3D',#293,#294,$) ;
#310=AXIS2_PLACEMENT_3D('Plane Axis2P3D',#307,#308,#309) ;
#372=AXIS2_PLACEMENT_3D('Plane Axis2P3D',#369,#370,#371) ;
#434=AXIS2_PLACEMENT_3D('Cylinder Axis2P3D',#431,#432,#433) ;
#452=AXIS2_PLACEMENT_3D('Circle Axis2P3D',#450,#451,$) ;
#464=AXIS2_PLACEMENT_3D('Circle Axis2P3D',#462,#463,$) ;
#477=AXIS2_PLACEMENT_3D('Plane Axis2P3D',#474,#475,#476) ;
#481=AXIS2_PLACEMENT_3D('Circle Axis2P3D',#479,#480,$) ;
#494=AXIS2_PLACEMENT_3D('Circle Axis2P3D',#492,#493,$) ;
#508=AXIS2_PLACEMENT_3D('Torus Axis2P3D',#505,#506,#507) ;
#512=AXIS2_PLACEMENT_3D('Circle Axis2P3D',#510,#511,$) ;
#517=AXIS2_PLACEMENT_3D('Circle Axis2P3D',#515,#516,$) ;
#532=AXIS2_PLACEMENT_3D('Torus Axis2P3D',#529,#530,#531) ;
#40=PRODUCT_DEFINITION_SHAPE(' ',' ',#14) ;
#31=APPROVAL_PERSON_ORGANIZATION(#25,#21,#19) ;
#25=PERSON_AND_ORGANIZATION(#22,#23) ;
#22=PERSON(' ',' ',' ',$,$,$) ;
#23=ORGANIZATION(' ',' ',' ') ;
#21=APPROVAL(#20,' ') ;
#20=APPROVAL_STATUS('not_yet_approved') ;
#19=APPROVAL_ROLE('APPROVER') ;
#13=DATE_AND_TIME(#11,#12) ;
#12=LOCAL_TIME(13,44,44.,#10) ;
#10=COORDINATED_UNIVERSAL_TIME_OFFSET(0,0,.AHEAD.) ;
#86=ORIENTED_EDGE('',*,*,#65,.T.) ;
#87=ORIENTED_EDGE('',*,*,#72,.F.) ;
#88=ORIENTED_EDGE('',*,*,#79,.T.) ;
#89=ORIENTED_EDGE('',*,*,#84,.T.) ;
#126=ORIENTED_EDGE('',*,*,#105,.T.) ;
#127=ORIENTED_EDGE('',*,*,#112,.F.) ;
#128=ORIENTED_EDGE('',*,*,#119,.T.) ;
#129=ORIENTED_EDGE('',*,*,#124,.T.) ;
#157=ORIENTED_EDGE('',*,*,#143,.T.) ;
#158=ORIENTED_EDGE('',*,*,#124,.F.) ;
#159=ORIENTED_EDGE('',*,*,#150,.T.) ;
#160=ORIENTED_EDGE('',*,*,#155,.T.) ;
#188=ORIENTED_EDGE('',*,*,#174,.T.) ;
#189=ORIENTED_EDGE('',*,*,#84,.F.) ;
#190=ORIENTED_EDGE('',*,*,#181,.T.) ;
#191=ORIENTED_EDGE('',*,*,#186,.T.) ;
#210=ORIENTED_EDGE('',*,*,#174,.F.) ;
#211=ORIENTED_EDGE('',*,*,#203,.T.) ;
#212=ORIENTED_EDGE('',*,*,#150,.F.) ;
#213=ORIENTED_EDGE('',*,*,#119,.F.) ;
#214=ORIENTED_EDGE('',*,*,#208,.F.) ;
#215=ORIENTED_EDGE('',*,*,#65,.F.) ;
#232=ORIENTED_EDGE('',*,*,#225,.F.) ;
#233=ORIENTED_EDGE('',*,*,#230,.F.) ;
#261=ORIENTED_EDGE('',*,*,#249,.T.) ;
#262=ORIENTED_EDGE('',*,*,#254,.F.) ;
#263=ORIENTED_EDGE('',*,*,#225,.T.) ;
#264=ORIENTED_EDGE('',*,*,#259,.T.) ;
#273=ORIENTED_EDGE('',*,*,#271,.T.) ;
#274=ORIENTED_EDGE('',*,*,#259,.F.) ;
#275=ORIENTED_EDGE('',*,*,#230,.T.) ;
#276=ORIENTED_EDGE('',*,*,#254,.T.) ;
#299=ORIENTED_EDGE('',*,*,#292,.T.) ;
#300=ORIENTED_EDGE('',*,*,#297,.T.) ;
#303=ORIENTED_EDGE('',*,*,#271,.F.) ;
#304=ORIENTED_EDGE('',*,*,#249,.F.) ;
#360=ORIENTED_EDGE('',*,*,#332,.T.) ;
#361=ORIENTED_EDGE('',*,*,#348,.T.) ;
#362=ORIENTED_EDGE('',*,*,#353,.T.) ;
#363=ORIENTED_EDGE('',*,*,#72,.T.) ;
#364=ORIENTED_EDGE('',*,*,#208,.T.) ;
#365=ORIENTED_EDGE('',*,*,#112,.T.) ;
#366=ORIENTED_EDGE('',*,*,#358,.T.) ;
#422=ORIENTED_EDGE('',*,*,#380,.F.) ;
#423=ORIENTED_EDGE('',*,*,#155,.F.) ;
#424=ORIENTED_EDGE('',*,*,#203,.F.) ;
#425=ORIENTED_EDGE('',*,*,#186,.F.) ;
#426=ORIENTED_EDGE('',*,*,#387,.F.) ;
#427=ORIENTED_EDGE('',*,*,#403,.T.) ;
#428=ORIENTED_EDGE('',*,*,#420,.T.) ;
#456=ORIENTED_EDGE('',*,*,#442,.T.) ;
#457=ORIENTED_EDGE('',*,*,#292,.F.) ;
#458=ORIENTED_EDGE('',*,*,#449,.F.) ;
#459=ORIENTED_EDGE('',*,*,#454,.F.) ;
#468=ORIENTED_EDGE('',*,*,#449,.T.) ;
#469=ORIENTED_EDGE('',*,*,#297,.F.) ;
#470=ORIENTED_EDGE('',*,*,#442,.F.) ;
#471=ORIENTED_EDGE('',*,*,#466,.F.) ;
#485=ORIENTED_EDGE('',*,*,#483,.T.) ;
#486=ORIENTED_EDGE('',*,*,#358,.F.) ;
#487=ORIENTED_EDGE('',*,*,#105,.F.) ;
#488=ORIENTED_EDGE('',*,*,#143,.F.) ;
#489=ORIENTED_EDGE('',*,*,#380,.T.) ;
#498=ORIENTED_EDGE('',*,*,#496,.T.) ;
#499=ORIENTED_EDGE('',*,*,#387,.T.) ;
#500=ORIENTED_EDGE('',*,*,#181,.F.) ;
#501=ORIENTED_EDGE('',*,*,#79,.F.) ;
#502=ORIENTED_EDGE('',*,*,#353,.F.) ;
#521=ORIENTED_EDGE('',*,*,#420,.F.) ;
#522=ORIENTED_EDGE('',*,*,#514,.F.) ;
#523=ORIENTED_EDGE('',*,*,#454,.T.) ;
#524=ORIENTED_EDGE('',*,*,#519,.T.) ;
#525=ORIENTED_EDGE('',*,*,#332,.F.) ;
#526=ORIENTED_EDGE('',*,*,#483,.F.) ;
#535=ORIENTED_EDGE('',*,*,#348,.F.) ;
#536=ORIENTED_EDGE('',*,*,#519,.F.) ;
#537=ORIENTED_EDGE('',*,*,#466,.T.) ;
#538=ORIENTED_EDGE('',*,*,#514,.T.) ;
#539=ORIENTED_EDGE('',*,*,#403,.F.) ;
#540=ORIENTED_EDGE('',*,*,#496,.F.) ;
#234=FACE_BOUND('',#231,.T.) ;
#305=FACE_BOUND('',#302,.T.) ;
#51=CLOSED_SHELL('Closed Shell',(#91,#131,#162,#193,#235,#266,#278,#306,#368,#430,#461,#473,#491,#504,#528,#542)) ;
#68=VECTOR('Line Direction',#67,1.) ;
#82=VECTOR('Line Direction',#81,1.) ;
#108=VECTOR('Line Direction',#107,1.) ;
#122=VECTOR('Line Direction',#121,1.) ;
#153=VECTOR('Line Direction',#152,1.) ;
#184=VECTOR('Line Direction',#183,1.) ;
#201=VECTOR('Line Direction',#200,1.) ;
#206=VECTOR('Line Direction',#205,1.) ;
#252=VECTOR('Line Direction',#251,1.) ;
#257=VECTOR('Line Direction',#256,1.) ;
#351=VECTOR('Line Direction',#350,1.) ;
#356=VECTOR('Line Direction',#355,1.) ;
#376=VECTOR('Line Direction',#375,1.) ;
#383=VECTOR('Line Direction',#382,1.) ;
#438=VECTOR('Line Direction',#437,1.) ;
#445=VECTOR('Line Direction',#444,1.) ;
#544=ADVANCED_BREP_SHAPE_REPRESENTATION('NONE',(#543),#46) ;
#49=SHAPE_REPRESENTATION(' ',(#48),#46) ;
#91=ADVANCED_FACE('Corps principal',(#90),#56,.T.) ;
#131=ADVANCED_FACE('Corps principal',(#130),#96,.T.) ;
#162=ADVANCED_FACE('Corps principal',(#161),#136,.T.) ;
#193=ADVANCED_FACE('Corps principal',(#192),#167,.T.) ;
#235=ADVANCED_FACE('Corps principal',(#216,#234),#198,.F.) ;
#266=ADVANCED_FACE('Corps principal',(#265),#240,.F.) ;
#278=ADVANCED_FACE('Corps principal',(#277),#240,.F.) ;
#306=ADVANCED_FACE('Corps principal',(#301,#305),#283,.T.) ;
#368=ADVANCED_FACE('Corps principal',(#367),#311,.T.) ;
#430=ADVANCED_FACE('Corps principal',(#429),#373,.F.) ;
#461=ADVANCED_FACE('Corps principal',(#460),#435,.T.) ;
#473=ADVANCED_FACE('Corps principal',(#472),#435,.T.) ;
#491=ADVANCED_FACE('Corps principal',(#490),#478,.F.) ;
#504=ADVANCED_FACE('Corps principal',(#503),#478,.F.) ;
#528=ADVANCED_FACE('Corps principal',(#527),#509,.F.) ;
#542=ADVANCED_FACE('Corps principal',(#541),#533,.F.) ;
#4=APPLICATION_PROTOCOL_DEFINITION('international standard','config_control_design',1994,#1) ;
#32=APPROVAL_DATE_TIME(#13,#21) ;
#312=B_SPLINE_CURVE_WITH_KNOTS('',5,(#313,#314,#315,#316,#317,#318,#319,#320,#321,#322,#323,#324,#325,#326,#327),.UNSPECIFIED.,.F.,.U.,(6,3,3,3,6),(0.,1.45426592021,2.95385762035,5.14848952928,5.59093883668),.UNSPECIFIED.) ;
#333=B_SPLINE_CURVE_WITH_KNOTS('',5,(#334,#335,#336,#337,#338,#339,#340,#341,#342,#343,#344,#345),.UNSPECIFIED.,.F.,.U.,(6,3,3,6),(0.,2.58119762493,3.80829327388,5.59077575365),.UNSPECIFIED.) ;
#388=B_SPLINE_CURVE_WITH_KNOTS('',5,(#389,#390,#391,#392,#393,#394,#395,#396,#397,#398,#399,#400),.UNSPECIFIED.,.F.,.U.,(6,3,3,6),(0.,2.58119762491,3.80829327385,5.59077550579),.UNSPECIFIED.) ;
#404=B_SPLINE_CURVE_WITH_KNOTS('',5,(#405,#406,#407,#408,#409,#410,#411,#412,#413,#414,#415,#416,#417,#418,#419),.UNSPECIFIED.,.F.,.U.,(6,3,3,3,6),(0.,1.45426486749,2.95385663477,5.14848853405,5.59093782902),.UNSPECIFIED.) ;
#543=MANIFOLD_SOLID_BREP('Corps principal',#51) ;
#11=CALENDAR_DATE(2021,20,5) ;
#30=CC_DESIGN_APPROVAL(#21,(#16,#6,#14)) ;
#18=CC_DESIGN_DATE_AND_TIME_ASSIGNMENT(#13,#17,(#16)) ;
#29=CC_DESIGN_DATE_AND_TIME_ASSIGNMENT(#13,#28,(#14)) ;
#17=DATE_TIME_ROLE('classification_date') ;
#28=DATE_TIME_ROLE('creation_date') ;
#27=CC_DESIGN_PERSON_AND_ORGANIZATION_ASSIGNMENT(#25,#26,(#16)) ;
#33=CC_DESIGN_PERSON_AND_ORGANIZATION_ASSIGNMENT(#25,#34,(#6)) ;
#35=CC_DESIGN_PERSON_AND_ORGANIZATION_ASSIGNMENT(#25,#36,(#6,#14)) ;
#37=CC_DESIGN_PERSON_AND_ORGANIZATION_ASSIGNMENT(#25,#38,(#5)) ;
#26=PERSON_AND_ORGANIZATION_ROLE('classification_officer') ;
#34=PERSON_AND_ORGANIZATION_ROLE('design_supplier') ;
#36=PERSON_AND_ORGANIZATION_ROLE('creator') ;
#38=PERSON_AND_ORGANIZATION_ROLE('design_owner') ;
#39=CC_DESIGN_SECURITY_CLASSIFICATION(#16,(#6)) ;
#60=CIRCLE('generated circle',#59,5.) ;
#76=CIRCLE('generated circle',#75,5.) ;
#100=CIRCLE('generated circle',#99,5.) ;
#116=CIRCLE('generated circle',#115,5.) ;
#140=CIRCLE('generated circle',#139,5.) ;
#147=CIRCLE('generated circle',#146,5.) ;
#171=CIRCLE('generated circle',#170,5.) ;
#178=CIRCLE('generated circle',#177,5.) ;
#220=CIRCLE('generated circle',#219,2.7) ;
#229=CIRCLE('generated circle',#228,2.7) ;
#244=CIRCLE('generated circle',#243,2.7) ;
#270=CIRCLE('generated circle',#269,2.7) ;
#287=CIRCLE('generated circle',#286,4.2) ;
#296=CIRCLE('generated circle',#295,4.2) ;
#453=CIRCLE('generated circle',#452,4.2) ;
#465=CIRCLE('generated circle',#464,4.2) ;
#482=CIRCLE('generated circle',#481,6.2) ;
#495=CIRCLE('generated circle',#494,6.2) ;
#513=CIRCLE('generated circle',#512,2.) ;
#518=CIRCLE('generated circle',#517,2.) ;
#545=SHAPE_REPRESENTATION_RELATIONSHIP(' ',' ',#49,#544) ;
#56=CYLINDRICAL_SURFACE('generated cylinder',#55,5.) ;
#96=CYLINDRICAL_SURFACE('generated cylinder',#95,5.) ;
#136=CYLINDRICAL_SURFACE('generated cylinder',#135,5.) ;
#167=CYLINDRICAL_SURFACE('generated cylinder',#166,5.) ;
#240=CYLINDRICAL_SURFACE('generated cylinder',#239,2.7) ;
#435=CYLINDRICAL_SURFACE('generated cylinder',#434,4.2) ;
#509=TOROIDAL_SURFACE('homeo Torus',#508,6.2,2.) ;
#533=TOROIDAL_SURFACE('homeo Torus',#532,6.2,2.) ;
#3=DESIGN_CONTEXT(' ',#1,'design') ;
#65=EDGE_CURVE('',#62,#64,#60,.T.) ;
#72=EDGE_CURVE('',#71,#64,#69,.F.) ;
#79=EDGE_CURVE('',#71,#78,#76,.F.) ;
#84=EDGE_CURVE('',#78,#62,#83,.F.) ;
#105=EDGE_CURVE('',#102,#104,#100,.F.) ;
#112=EDGE_CURVE('',#111,#104,#109,.T.) ;
#119=EDGE_CURVE('',#111,#118,#116,.T.) ;
#124=EDGE_CURVE('',#118,#102,#123,.T.) ;
#143=EDGE_CURVE('',#142,#102,#140,.F.) ;
#150=EDGE_CURVE('',#118,#149,#147,.T.) ;
#155=EDGE_CURVE('',#149,#142,#154,.T.) ;
#174=EDGE_CURVE('',#173,#62,#171,.F.) ;
#181=EDGE_CURVE('',#78,#180,#178,.T.) ;
#186=EDGE_CURVE('',#180,#173,#185,.T.) ;
#203=EDGE_CURVE('',#173,#149,#202,.F.) ;
#208=EDGE_CURVE('',#64,#111,#207,.F.) ;
#225=EDGE_CURVE('',#222,#224,#220,.F.) ;
#230=EDGE_CURVE('',#224,#222,#229,.F.) ;
#249=EDGE_CURVE('',#246,#248,#244,.T.) ;
#254=EDGE_CURVE('',#222,#248,#253,.T.) ;
#259=EDGE_CURVE('',#224,#246,#258,.T.) ;
#271=EDGE_CURVE('',#248,#246,#270,.T.) ;
#292=EDGE_CURVE('',#289,#291,#287,.T.) ;
#297=EDGE_CURVE('',#291,#289,#296,.T.) ;
#332=EDGE_CURVE('',#329,#331,#312,.F.) ;
#348=EDGE_CURVE('',#331,#347,#333,.F.) ;
#353=EDGE_CURVE('',#347,#71,#352,.F.) ;
#358=EDGE_CURVE('',#104,#329,#357,.F.) ;
#380=EDGE_CURVE('',#142,#379,#377,.F.) ;
#387=EDGE_CURVE('',#386,#180,#384,.F.) ;
#403=EDGE_CURVE('',#386,#402,#388,.T.) ;
#420=EDGE_CURVE('',#402,#379,#404,.T.) ;
#442=EDGE_CURVE('',#441,#291,#439,.T.) ;
#449=EDGE_CURVE('',#448,#289,#446,.T.) ;
#454=EDGE_CURVE('',#441,#448,#453,.F.) ;
#466=EDGE_CURVE('',#448,#441,#465,.F.) ;
#483=EDGE_CURVE('',#379,#329,#482,.T.) ;
#496=EDGE_CURVE('',#347,#386,#495,.T.) ;
#514=EDGE_CURVE('',#441,#402,#513,.F.) ;
#519=EDGE_CURVE('',#448,#331,#518,.F.) ;
#85=EDGE_LOOP('',(#86,#87,#88,#89)) ;
#125=EDGE_LOOP('',(#126,#127,#128,#129)) ;
#156=EDGE_LOOP('',(#157,#158,#159,#160)) ;
#187=EDGE_LOOP('',(#188,#189,#190,#191)) ;
#209=EDGE_LOOP('',(#210,#211,#212,#213,#214,#215)) ;
#231=EDGE_LOOP('',(#232,#233)) ;
#260=EDGE_LOOP('',(#261,#262,#263,#264)) ;
#272=EDGE_LOOP('',(#273,#274,#275,#276)) ;
#298=EDGE_LOOP('',(#299,#300)) ;
#302=EDGE_LOOP('',(#303,#304)) ;
#359=EDGE_LOOP('',(#360,#361,#362,#363,#364,#365,#366)) ;
#421=EDGE_LOOP('',(#422,#423,#424,#425,#426,#427,#428)) ;
#455=EDGE_LOOP('',(#456,#457,#458,#459)) ;
#467=EDGE_LOOP('',(#468,#469,#470,#471)) ;
#484=EDGE_LOOP('',(#485,#486,#487,#488,#489)) ;
#497=EDGE_LOOP('',(#498,#499,#500,#501,#502)) ;
#520=EDGE_LOOP('',(#521,#522,#523,#524,#525,#526)) ;
#534=EDGE_LOOP('',(#535,#536,#537,#538,#539,#540)) ;
#90=FACE_OUTER_BOUND('',#85,.T.) ;
#130=FACE_OUTER_BOUND('',#125,.T.) ;
#161=FACE_OUTER_BOUND('',#156,.T.) ;
#192=FACE_OUTER_BOUND('',#187,.T.) ;
#216=FACE_OUTER_BOUND('',#209,.T.) ;
#265=FACE_OUTER_BOUND('',#260,.T.) ;
#277=FACE_OUTER_BOUND('',#272,.T.) ;
#301=FACE_OUTER_BOUND('',#298,.T.) ;
#367=FACE_OUTER_BOUND('',#359,.T.) ;
#429=FACE_OUTER_BOUND('',#421,.T.) ;
#460=FACE_OUTER_BOUND('',#455,.T.) ;
#472=FACE_OUTER_BOUND('',#467,.T.) ;
#490=FACE_OUTER_BOUND('',#484,.T.) ;
#503=FACE_OUTER_BOUND('',#497,.T.) ;
#527=FACE_OUTER_BOUND('',#520,.T.) ;
#541=FACE_OUTER_BOUND('',#534,.T.) ;
#45=UNCERTAINTY_MEASURE_WITH_UNIT(LENGTH_MEASURE(0.005),#41,'distance_accuracy_value','CONFUSED CURVE UNCERTAINTY') ;
#69=LINE('Line',#66,#68) ;
#83=LINE('Line',#80,#82) ;
#109=LINE('Line',#106,#108) ;
#123=LINE('Line',#120,#122) ;
#154=LINE('Line',#151,#153) ;
#185=LINE('Line',#182,#184) ;
#202=LINE('Line',#199,#201) ;
#207=LINE('Line',#204,#206) ;
#253=LINE('Line',#250,#252) ;
#258=LINE('Line',#255,#257) ;
#352=LINE('Line',#349,#351) ;
#357=LINE('Line',#354,#356) ;
#377=LINE('Line',#374,#376) ;
#384=LINE('Line',#381,#383) ;
#439=LINE('Line',#436,#438) ;
#446=LINE('Line',#443,#445) ;
#2=MECHANICAL_CONTEXT(' ',#1,'mechanical') ;
#24=PERSONAL_ADDRESS(' ',' ',' ',' ',' ',' ',' ',' ',' ',' ',' ',' ',(#22),' ') ;
#198=PLANE('Plane',#197) ;
#283=PLANE('Plane',#282) ;
#311=PLANE('Plane',#310) ;
#373=PLANE('Plane',#372) ;
#478=PLANE('Plane',#477) ;
#43=PLANE_ANGLE_MEASURE_WITH_UNIT(PLANE_ANGLE_MEASURE(0.0174532925199),#42) ;
#7=PRODUCT_CATEGORY('part',$) ;
#9=PRODUCT_CATEGORY_RELATIONSHIP(' ',' ',#7,#8) ;
#6=PRODUCT_DEFINITION_FORMATION_WITH_SPECIFIED_SOURCE('',' ',#5,.NOT_KNOWN.) ;
#8=PRODUCT_RELATED_PRODUCT_CATEGORY('detail',$,(#5)) ;
#50=SHAPE_DEFINITION_REPRESENTATION(#40,#49) ;
#62=VERTEX_POINT('',#61) ;
#64=VERTEX_POINT('',#63) ;
#71=VERTEX_POINT('',#70) ;
#78=VERTEX_POINT('',#77) ;
#102=VERTEX_POINT('',#101) ;
#104=VERTEX_POINT('',#103) ;
#111=VERTEX_POINT('',#110) ;
#118=VERTEX_POINT('',#117) ;
#142=VERTEX_POINT('',#141) ;
#149=VERTEX_POINT('',#148) ;
#173=VERTEX_POINT('',#172) ;
#180=VERTEX_POINT('',#179) ;
#222=VERTEX_POINT('',#221) ;
#224=VERTEX_POINT('',#223) ;
#246=VERTEX_POINT('',#245) ;
#248=VERTEX_POINT('',#247) ;
#289=VERTEX_POINT('',#288) ;
#291=VERTEX_POINT('',#290) ;
#329=VERTEX_POINT('',#328) ;
#331=VERTEX_POINT('',#330) ;
#347=VERTEX_POINT('',#346) ;
#379=VERTEX_POINT('',#378) ;
#386=VERTEX_POINT('',#385) ;
#402=VERTEX_POINT('',#401) ;
#441=VERTEX_POINT('',#440) ;
#448=VERTEX_POINT('',#447) ;
#41=(LENGTH_UNIT()NAMED_UNIT(*)SI_UNIT(.MILLI.,.METRE.)) ;
#42=(NAMED_UNIT(*)PLANE_ANGLE_UNIT()SI_UNIT($,.RADIAN.)) ;
#44=(NAMED_UNIT(*)SI_UNIT($,.STERADIAN.)SOLID_ANGLE_UNIT()) ;
#46=(GEOMETRIC_REPRESENTATION_CONTEXT(3)GLOBAL_UNCERTAINTY_ASSIGNED_CONTEXT((#45))GLOBAL_UNIT_ASSIGNED_CONTEXT((#41,#42,#44))REPRESENTATION_CONTEXT(' ',' ')) ;
ENDSEC;
END-ISO-10303-21;
